  0
SECTION
  2
HEADER
  9
$ACADVER
  1
AC1009
  9
$DWGCODEPAGE
  3
ansi_1252
  9
$INSBASE
 10
0.0
 20
0.0
 30
0.0
  9
$EXTMIN
 10
-200.971304
 20
-360.058102
 30
0.0
  9
$EXTMAX
 10
580.404666
 20
608.208856
 30
5.0
  9
$LIMMIN
 10
-200.971304
 20
-360.058102
  9
$LIMMAX
 10
580.404666
 20
608.208856
  9
$ORTHOMODE
 70
     0
  9
$REGENMODE
 70
     1
  9
$FILLMODE
 70
     1
  9
$QTEXTMODE
 70
     0
  9
$MIRRTEXT
 70
     1
  9
$DRAGMODE
 70
     2
  9
$LTSCALE
 40
10.0
  9
$OSMODE
 70
     0
  9
$ATTMODE
 70
     1
  9
$TEXTSIZE
 40
0.2
  9
$TRACEWID
 40
0.05
  9
$TEXTSTYLE
  7
STANDARD
  9
$CLAYER
  8
0
  9
$CELTYPE
  6
CONTINUOUS
  9
$CECOLOR
 62
   256
  9
$DIMSCALE
 40
1.0
  9
$DIMASZ
 40
1.25
  9
$DIMEXO
 40
1.0
  9
$DIMDLI
 40
0.38
  9
$DIMRND
 40
0.0
  9
$DIMDLE
 40
0.0
  9
$DIMEXE
 40
0.75
  9
$DIMTP
 40
0.0
  9
$DIMTM
 40
0.0
  9
$DIMTXT
 40
2.5
  9
$DIMCEN
 40
0.09
  9
$DIMTSZ
 40
0.0
  9
$DIMTOL
 70
     0
  9
$DIMLIM
 70
     0
  9
$DIMTIH
 70
     0
  9
$DIMTOH
 70
     0
  9
$DIMSE1
 70
     0
  9
$DIMSE2
 70
     0
  9
$DIMTAD
 70
     1
  9
$DIMZIN
 70
     0
  9
$DIMBLK
  1

  9
$DIMASO
 70
     1
  9
$DIMSHO
 70
     1
  9
$DIMPOST
  1

  9
$DIMAPOST
  1

  9
$DIMALT
 70
     0
  9
$DIMALTD
 70
     2
  9
$DIMALTF
 40
25.4
  9
$DIMLFAC
 40
1.0
  9
$DIMTOFL
 70
     0
  9
$DIMTVP
 40
0.0
  9
$DIMTIX
 70
     0
  9
$DIMSOXD
 70
     0
  9
$DIMSAH
 70
     0
  9
$DIMBLK1
  1

  9
$DIMBLK2
  1

  9
$DIMSTYLE
  2
STANDARD
  9
$DIMCLRD
 70
     7
  9
$DIMCLRE
 70
     7
  9
$DIMCLRT
 70
     7
  9
$DIMTFAC
 40
0.8
  9
$DIMGAP
 40
1.25
  9
$LUNITS
 70
     2
  9
$LUPREC
 70
     4
  9
$AXISMODE
 70
     0
  9
$AXISUNIT
 10
0.0
 20
0.0
  9
$SKETCHINC
 40
0.1
  9
$FILLETRAD
 40
0.0
  9
$AUNITS
 70
     0
  9
$AUPREC
 70
     0
  9
$MENU
  1
acad
  9
$ELEVATION
 40
0.0
  9
$PELEVATION
 40
0.0
  9
$THICKNESS
 40
0.0
  9
$LIMCHECK
 70
     0
  9
$BLIPMODE
 70
     1
  9
$CHAMFERA
 40
0.0
  9
$CHAMFERB
 40
0.0
  9
$SKPOLY
 70
     0
  9
$TDCREATE
 40
2454334.730671296
  9
$TDUPDATE
 40
2454334.646863426
  9
$TDINDWG
 40
0.0000000000
  9
$TDUSRTIMER
 40
0.0000000000
  9
$USRTIMER
 70
     1
  9
$ANGBASE
 50
0.0
  9
$ANGDIR
 70
     0
  9
$PDMODE
 70
     0
  9
$PDSIZE
 40
0.0
  9
$PLINEWID
 40
0.0
  9
$COORDS
 70
     0
  9
$SPLFRAME
 70
     0
  9
$SPLINETYPE
 70
     6
  9
$SPLINESEGS
 70
     8
  9
$ATTDIA
 70
     0
  9
$ATTREQ
 70
     1
  9
$HANDLING
 70
     1
  9
$HANDSEED
  5
1A8
  9
$SURFTAB1
 70
     6
  9
$SURFTAB2
 70
     6
  9
$SURFTYPE
 70
     6
  9
$SURFU
 70
     6
  9
$SURFV
 70
     6
  9
$UCSNAME
  2

  9
$UCSORG
 10
0.0
 20
0.0
 30
0.0
  9
$UCSXDIR
 10
1.0
 20
0.0
 30
0.0
  9
$UCSYDIR
 10
0.0
 20
1.0
 30
0.0
  9
$PUCSNAME
  2

  9
$PUCSORG
 10
0.0
 20
0.0
 30
0.0
  9
$PUCSXDIR
 10
1.0
 20
0.0
 30
0.0
  9
$PUCSYDIR
 10
0.0
 20
1.0
 30
0.0
  9
$USERI1
 70
     0
  9
$USERI2
 70
     0
  9
$USERI3
 70
     0
  9
$USERI4
 70
     0
  9
$USERI5
 70
     0
  9
$USERR1
 40
0.0
  9
$USERR2
 40
0.0
  9
$USERR3
 40
0.0
  9
$USERR4
 40
0.0
  9
$USERR5
 40
0.0
  9
$WORLDVIEW
 70
     1
  9
$SHADEDGE
 70
     3
  9
$SHADEDIF
 70
    70
  9
$TILEMODE
 70
     1
  9
$MAXACTVP
 70
    16
  9
$PINSBASE
 10
0.0
 20
0.0
 30
0.0
  9
$PLIMCHECK
 70
     0
  9
$PEXTMIN
 10
1.000000E+20
 20
1.000000E+20
 30
1.000000E+20
  9
$PEXTMAX
 10
-1.000000E+20
 20
-1.000000E+20
 30
-1.000000E+20
  9
$PLIMMIN
 10
0.0
 20
0.0
  9
$PLIMMAX
 10
12.0
 20
9.0
  9
$UNITMODE
 70
     0
  9
$VISRETAIN
 70
     0
  9
$PLINEGEN
 70
     1
  9
$PSLTSCALE
 70
     0
  9
$TREEDEPTH
 70
  3020
  0
ENDSEC
  0
SECTION
  2
TABLES
  0
TABLE
  2
VPORT
 70
     1
  0
VPORT
  2
*ACTIVE
 70
     0
 10
0.0
 20
0.0
 11
1.0
 21
1.0
 12
6.591288
 22
4.579184
 13
0.0
 23
0.0
 14
1.0
 24
1.0
 15
0.0
 25
0.0
 16
0.0
 26
0.0
 36
1.0
 17
0.0
 27
0.0
 37
0.0
 40
9.158369
 41
0.688564
 42
50.0
 43
0.0
 44
0.0
 50
0.0
 51
0.0
 71
     0
 72
   100
 73
     1
 74
     1
 75
     0
 76
     0
 77
     0
 78
     0
  0
ENDTAB
  0
TABLE
  2
LTYPE
 70
     2
  0
LTYPE
  2
CONTINUOUS
 70
    64
  3
Solid line
 72
    65
 73
     0
 40
0.0
  0
LTYPE
  2
CENTER
 70
    64
  3
____ _ ____ _ ____ _ ____ _ ____ _ ____ _ ____
 72
    65
 73
     4
 40
2.0
 49
1.25
 49
-0.25
 49
0.25
 49
-0.25
  0
ENDTAB
  0
TABLE
  2
LAYER
 70
     1
  0
LAYER
  2
0
 70
     0
 62
     7
  6
CONTINUOUS
  0
ENDTAB
  0
TABLE
  2
STYLE
 70
     1
  0
STYLE
  2
STANDARD
 70
     0
 40
0.0
 41
1.0
 50
0.0
 71
     0
 42
0.0
  3
IsonormD
  4

  0
ENDTAB
  0
TABLE
  2
VIEW
 70
     0
  0
ENDTAB
  0
TABLE
  2
UCS
 70
     0
  0
ENDTAB
  0
TABLE
  2
APPID
 70
     2
  0
APPID
  2
ACAD
 70
     0
  0
APPID
  2
TopSolid_Draft
 70
     0
  0
ENDTAB
  0
TABLE
  2
DIMSTYLE
 70
     1
  0
DIMSTYLE
  2
STANDARD
 70
     0
  3

  4

  5

  6

  7

 40
1.0
 41
1.25
 42
1.0
 43
0.38
 44
0.75
 45
0.0
 46
0.0
 47
0.0
 48
0.0
 71
     0
 72
     0
 73
     0
 74
     0
 75
     0
 76
     0
 77
     1
 78
     0
140
2.5
141
0.09
142
0.0
143
25.4
144
1.0
145
0.0
146
0.8
147
1.25
170
     0
171
     2
172
     0
173
     0
174
     0
175
     0
176
     7
177
     7
178
     7
  0
ENDTAB
  0
ENDSEC
  0
SECTION
  2
BLOCKS
  0
BLOCK
  8
0
  5
25
  2
AID3
 70
     0
 10
0.0
 20
0.0
 30
0.0
  3
#draft view
  0
LINE
  8
0
  6
CONTINUOUS
 62
     7
  5
26
 10
267.633827
 20
264.516055
 30
0.0
 11
127.633827
 21
264.516055
 31
0.0
  0
LINE
  8
0
  6
CONTINUOUS
 62
     7
  5
27
 10
267.633827
 20
245.516055
 30
0.0
 11
267.633827
 21
264.516055
 31
0.0
  0
LINE
  8
0
  6
CONTINUOUS
 62
     7
  5
28
 10
127.633827
 20
245.516055
 30
0.0
 11
127.633827
 21
264.516055
 31
0.0
  0
LINE
  8
0
  6
CONTINUOUS
 62
     7
  5
29
 10
127.633827
 20
245.516055
 30
0.0
 11
267.633827
 21
245.516055
 31
0.0
  0
LINE
  8
0
  6
CONTINUOUS
 62
     7
  5
2A
 10
256.633827
 20
244.016055
 30
0.0
 11
238.633827
 21
244.016055
 31
0.0
  0
LINE
  8
0
  6
CONTINUOUS
 62
     7
  5
2B
 10
156.633827
 20
244.016055
 30
0.0
 11
138.633827
 21
244.016055
 31
0.0
  0
LINE
  8
0
  6
CONTINUOUS
 62
     7
  5
2C
 10
141.133827
 20
236.016055
 30
0.0
 11
154.133827
 21
236.016055
 31
0.0
  0
LINE
  8
0
  6
CONTINUOUS
 62
     7
  5
2D
 10
241.133827
 20
236.016055
 30
0.0
 11
254.133827
 21
236.016055
 31
0.0
  0
LINE
  8
0
  6
CONTINUOUS
 62
     7
  5
2E
 10
151.633827
 20
273.391055
 30
0.0
 11
143.633827
 21
273.391055
 31
0.0
  0
LINE
  8
0
  6
CONTINUOUS
 62
     7
  5
2F
 10
144.258827
 20
274.016055
 30
0.0
 11
151.008827
 21
274.016055
 31
0.0
  0
LINE
  8
0
  6
CONTINUOUS
 62
     7
  5
30
 10
251.633827
 20
273.391055
 30
0.0
 11
243.633827
 21
273.391055
 31
0.0
  0
LINE
  8
0
  6
CONTINUOUS
 62
     7
  5
31
 10
244.258827
 20
274.016055
 30
0.0
 11
251.008827
 21
274.016055
 31
0.0
  0
LINE
  8
0
  6
CONTINUOUS
 62
     7
  5
32
 10
200.133827
 20
267.016055
 30
0.0
 11
195.133827
 21
267.016055
 31
0.0
  0
LINE
  8
0
  6
CONTINUOUS
 62
     7
  5
33
 10
195.633827
 20
267.516055
 30
0.0
 11
199.633827
 21
267.516055
 31
0.0
  0
LINE
  8
0
  6
CONTINUOUS
 62
     7
  5
34
 10
267.633827
 20
226.516055
 30
0.0
 11
127.633827
 21
226.516055
 31
0.0
  0
LINE
  8
0
  6
CONTINUOUS
 62
     7
  5
35
 10
267.633827
 20
226.516055
 30
0.0
 11
267.633827
 21
245.516055
 31
0.0
  0
LINE
  8
0
  6
CONTINUOUS
 62
     7
  5
36
 10
127.633827
 20
226.516055
 30
0.0
 11
127.633827
 21
245.516055
 31
0.0
  0
LINE
  8
0
  6
CONTINUOUS
 62
     7
  5
37
 10
211.133827
 20
224.516055
 30
0.0
 11
184.133827
 21
224.516055
 31
0.0
  0
ARC
  8
0
  6
CONTINUOUS
 62
     7
  5
38
 10
193.197559
 20
211.197807
 30
0.0
 40
13.319551
 50
70.545124
 51
89.198718
210
0.0
220
0.0
230
1.0
  0
ARC
  8
0
  6
CONTINUOUS
 62
     7
  5
39
 10
202.011362
 20
211.526595
 30
0.0
 40
12.990087
 50
90.562534
 51
109.693624
210
0.0
220
0.0
230
1.0
  0
ARC
  8
0
  6
CONTINUOUS
 62
     7
  5
3A
 10
201.756291
 20
229.505516
 30
0.0
 40
12.990087
 50
270.562534
 51
289.693624
210
0.0
220
0.0
230
1.0
  0
ARC
  8
0
  6
CONTINUOUS
 62
     7
  5
3B
 10
202.070095
 20
229.834304
 30
0.0
 40
13.319551
 50
250.545124
 51
269.198718
210
0.0
220
0.0
230
1.0
  0
LINE
  8
0
  6
CONTINUOUS
 62
     7
  5
3C
 10
197.633827
 20
217.275245
 30
0.0
 11
197.633827
 21
223.756866
 31
0.0
  0
ARC
  8
0
  6
CONTINUOUS
 62
     7
  5
3D
 10
201.697559
 20
211.197807
 30
0.0
 40
13.319551
 50
70.545124
 51
89.198718
210
0.0
220
0.0
230
1.0
  0
LINE
  8
0
  6
CONTINUOUS
 62
     7
  5
3E
 10
206.133827
 20
217.275245
 30
0.0
 11
206.133827
 21
223.756866
 31
0.0
  0
ARC
  8
0
  6
CONTINUOUS
 62
     7
  5
3F
 10
193.256291
 20
229.505516
 30
0.0
 40
12.990087
 50
270.562534
 51
289.693624
210
0.0
220
0.0
230
1.0
  0
ARC
  8
0
  6
CONTINUOUS
 62
     7
  5
40
 10
193.570095
 20
229.834304
 30
0.0
 40
13.319551
 50
250.545124
 51
269.198718
210
0.0
220
0.0
230
1.0
  0
LINE
  8
0
  6
CONTINUOUS
 62
     7
  5
41
 10
189.133827
 20
217.275245
 30
0.0
 11
189.133827
 21
223.756866
 31
0.0
  0
ARC
  8
0
  6
CONTINUOUS
 62
     7
  5
42
 10
193.511362
 20
211.526595
 30
0.0
 40
12.990087
 50
90.562534
 51
109.693624
210
0.0
220
0.0
230
1.0
  0
LINE
  8
0
  6
CONTINUOUS
 62
     7
  5
43
 10
201.883827
 20
216.516055
 30
0.0
 11
193.383827
 21
216.516055
 31
0.0
  0
LINE
  8
0
  6
CONTINUOUS
 62
     7
  5
44
 10
189.133827
 20
223.756866
 30
0.0
 11
189.133827
 21
224.516055
 31
0.0
  0
LINE
  8
0
  6
CONTINUOUS
 62
     7
  5
45
 10
206.133827
 20
224.516055
 30
0.0
 11
206.133827
 21
223.756866
 31
0.0
  0
LINE
  8
0
  6
CONTINUOUS
 62
     7
  5
46
 10
206.133827
 20
217.275245
 30
0.0
 11
206.133827
 21
216.516055
 31
0.0
  0
LINE
  8
0
  6
CONTINUOUS
 62
     7
  5
47
 10
206.133827
 20
216.516055
 30
0.0
 11
201.883827
 21
216.516055
 31
0.0
  0
LINE
  8
0
  6
CONTINUOUS
 62
     7
  5
48
 10
189.133827
 20
216.516055
 30
0.0
 11
189.133827
 21
217.275245
 31
0.0
  0
LINE
  8
0
  6
CONTINUOUS
 62
     7
  5
49
 10
193.383827
 20
216.516055
 30
0.0
 11
189.133827
 21
216.516055
 31
0.0
  0
LINE
  8
0
  6
CONTINUOUS
 62
     7
  5
4A
 10
127.633827
 20
-19.483945
 30
0.0
 11
127.633827
 21
-35.483945
 31
0.0
  0
LINE
  8
0
  6
CONTINUOUS
 62
     7
  5
4B
 10
267.633827
 20
-35.483945
 30
0.0
 11
127.633827
 21
-35.483945
 31
0.0
  0
LINE
  8
0
  6
CONTINUOUS
 62
     7
  5
4C
 10
267.633827
 20
-19.483945
 30
0.0
 11
127.633827
 21
-19.483945
 31
0.0
  0
LINE
  8
0
  6
CONTINUOUS
 62
     7
  5
4D
 10
267.633827
 20
-19.483945
 30
0.0
 11
267.633827
 21
-35.483945
 31
0.0
  0
LINE
  8
0
  6
CONTINUOUS
 62
     7
  5
4E
 10
127.633827
 20
49.516055
 30
0.0
 11
267.633827
 21
49.516055
 31
0.0
  0
LINE
  8
0
  6
CONTINUOUS
 62
     7
  5
4F
 10
127.633827
 20
-19.483945
 30
0.0
 11
127.633827
 21
49.516055
 31
0.0
  0
LINE
  8
0
  6
CONTINUOUS
 62
     7
  5
50
 10
267.633827
 20
-19.483945
 30
0.0
 11
267.633827
 21
49.516055
 31
0.0
  0
LINE
  8
0
  6
CONTINUOUS
 62
     7
  5
51
 10
137.633827
 20
329.516055
 30
0.0
 11
182.633827
 21
329.516055
 31
0.0
  0
LINE
  8
0
  6
CONTINUOUS
 62
     7
  5
52
 10
212.633827
 20
329.516055
 30
0.0
 11
257.633827
 21
329.516055
 31
0.0
  0
LINE
  8
0
  6
CONTINUOUS
 62
     7
  5
53
 10
193.383827
 20
309.516055
 30
0.0
 11
201.883827
 21
309.516055
 31
0.0
  0
LINE
  8
0
  6
CONTINUOUS
 62
     7
  5
54
 10
202.633827
 20
308.766055
 30
0.0
 11
192.633827
 21
308.766055
 31
0.0
  0
LINE
  8
0
  6
CONTINUOUS
 62
     7
  5
55
 10
256.633827
 20
244.016055
 30
0.0
 11
256.633827
 21
245.516055
 31
0.0
  0
LINE
  8
0
  6
CONTINUOUS
 62
     7
  5
56
 10
238.633827
 20
245.516055
 30
0.0
 11
238.633827
 21
244.016055
 31
0.0
  0
LINE
  8
0
  6
CONTINUOUS
 62
     7
  5
57
 10
156.633827
 20
244.016055
 30
0.0
 11
156.633827
 21
245.516055
 31
0.0
  0
LINE
  8
0
  6
CONTINUOUS
 62
     7
  5
58
 10
138.633827
 20
245.516055
 30
0.0
 11
138.633827
 21
244.016055
 31
0.0
  0
LINE
  8
0
  6
CONTINUOUS
 62
     7
  5
59
 10
141.133827
 20
244.016055
 30
0.0
 11
141.133827
 21
236.016055
 31
0.0
  0
LINE
  8
0
  6
CONTINUOUS
 62
     7
  5
5A
 10
154.133827
 20
236.016055
 30
0.0
 11
154.133827
 21
244.016055
 31
0.0
  0
LINE
  8
0
  6
CONTINUOUS
 62
     7
  5
5B
 10
241.133827
 20
244.016055
 30
0.0
 11
241.133827
 21
236.016055
 31
0.0
  0
LINE
  8
0
  6
CONTINUOUS
 62
     7
  5
5C
 10
254.133827
 20
236.016055
 30
0.0
 11
254.133827
 21
244.016055
 31
0.0
  0
LINE
  8
0
  6
CONTINUOUS
 62
     7
  5
5D
 10
151.633827
 20
273.391055
 30
0.0
 11
151.008827
 21
274.016055
 31
0.0
  0
LINE
  8
0
  6
CONTINUOUS
 62
     7
  5
5E
 10
144.258827
 20
274.016055
 30
0.0
 11
143.633827
 21
273.391055
 31
0.0
  0
LINE
  8
0
  6
CONTINUOUS
 62
     7
  5
5F
 10
151.633827
 20
264.516055
 30
0.0
 11
151.633827
 21
273.391055
 31
0.0
  0
LINE
  8
0
  6
CONTINUOUS
 62
     7
  5
60
 10
143.633827
 20
273.391055
 30
0.0
 11
143.633827
 21
264.516055
 31
0.0
  0
LINE
  8
0
  6
CONTINUOUS
 62
     7
  5
61
 10
251.633827
 20
273.391055
 30
0.0
 11
251.008827
 21
274.016055
 31
0.0
  0
LINE
  8
0
  6
CONTINUOUS
 62
     7
  5
62
 10
244.258827
 20
274.016055
 30
0.0
 11
243.633827
 21
273.391055
 31
0.0
  0
LINE
  8
0
  6
CONTINUOUS
 62
     7
  5
63
 10
251.633827
 20
264.516055
 30
0.0
 11
251.633827
 21
273.391055
 31
0.0
  0
LINE
  8
0
  6
CONTINUOUS
 62
     7
  5
64
 10
243.633827
 20
273.391055
 30
0.0
 11
243.633827
 21
264.516055
 31
0.0
  0
LINE
  8
0
  6
CONTINUOUS
 62
     7
  5
65
 10
195.133827
 20
267.016055
 30
0.0
 11
195.133827
 21
264.516055
 31
0.0
  0
LINE
  8
0
  6
CONTINUOUS
 62
     7
  5
66
 10
200.133827
 20
264.516055
 30
0.0
 11
200.133827
 21
267.016055
 31
0.0
  0
LINE
  8
0
  6
CONTINUOUS
 62
     7
  5
67
 10
200.133827
 20
267.016055
 30
0.0
 11
199.633827
 21
267.516055
 31
0.0
  0
LINE
  8
0
  6
CONTINUOUS
 62
     7
  5
68
 10
195.633827
 20
267.516055
 30
0.0
 11
195.133827
 21
267.016055
 31
0.0
  0
LINE
  8
0
  6
CONTINUOUS
 62
     7
  5
69
 10
211.133827
 20
224.516055
 30
0.0
 11
211.133827
 21
226.516055
 31
0.0
  0
LINE
  8
0
  6
CONTINUOUS
 62
     7
  5
6A
 10
184.133827
 20
226.516055
 30
0.0
 11
184.133827
 21
224.516055
 31
0.0
  0
LINE
  8
0
  6
CONTINUOUS
 62
     7
  5
6B
 10
182.633827
 20
49.516055
 30
0.0
 11
182.633827
 21
226.516055
 31
0.0
  0
LINE
  8
0
  6
CONTINUOUS
 62
     7
  5
6C
 10
182.633827
 20
264.516055
 30
0.0
 11
182.633827
 21
329.516055
 31
0.0
  0
LINE
  8
0
  6
CONTINUOUS
 62
     7
  5
6D
 10
137.633827
 20
329.516055
 30
0.0
 11
137.633827
 21
264.516055
 31
0.0
  0
LINE
  8
0
  6
CONTINUOUS
 62
     7
  5
6E
 10
137.633827
 20
226.516055
 30
0.0
 11
137.633827
 21
49.516055
 31
0.0
  0
LINE
  8
0
  6
CONTINUOUS
 62
     7
  5
6F
 10
257.633827
 20
49.516055
 30
0.0
 11
257.633827
 21
226.516055
 31
0.0
  0
LINE
  8
0
  6
CONTINUOUS
 62
     7
  5
70
 10
257.633827
 20
264.516055
 30
0.0
 11
257.633827
 21
329.516055
 31
0.0
  0
LINE
  8
0
  6
CONTINUOUS
 62
     7
  5
71
 10
212.633827
 20
329.516055
 30
0.0
 11
212.633827
 21
264.516055
 31
0.0
  0
LINE
  8
0
  6
CONTINUOUS
 62
     7
  5
72
 10
212.633827
 20
226.516055
 30
0.0
 11
212.633827
 21
49.516055
 31
0.0
  0
LINE
  8
0
  6
CONTINUOUS
 62
     7
  5
73
 10
202.633827
 20
308.766055
 30
0.0
 11
201.883827
 21
309.516055
 31
0.0
  0
LINE
  8
0
  6
CONTINUOUS
 62
     7
  5
74
 10
193.383827
 20
309.516055
 30
0.0
 11
192.633827
 21
308.766055
 31
0.0
  0
LINE
  8
0
  6
CONTINUOUS
 62
     7
  5
75
 10
202.633827
 20
49.516055
 30
0.0
 11
202.633827
 21
216.516055
 31
0.0
  0
LINE
  8
0
  6
CONTINUOUS
 62
     7
  5
76
 10
202.633827
 20
264.516055
 30
0.0
 11
202.633827
 21
308.766055
 31
0.0
  0
LINE
  8
0
  6
CONTINUOUS
 62
     7
  5
77
 10
192.633827
 20
308.766055
 30
0.0
 11
192.633827
 21
264.516055
 31
0.0
  0
LINE
  8
0
  6
CONTINUOUS
 62
     7
  5
78
 10
192.633827
 20
216.516055
 30
0.0
 11
192.633827
 21
49.516055
 31
0.0
  0
ENDBLK
  8
0
  5
79
  0
BLOCK
  8
0
  5
7C
  2
AID173
 70
     0
 10
0.0
 20
0.0
 30
0.0
  3
#auxiliary draft view
  0
LINE
  8
0
  6
CONTINUOUS
 62
     7
  5
7D
 10
-170.971304
 20
245.516055
 30
0.0
 11
-170.971304
 21
264.516055
 31
0.0
  0
LINE
  8
0
  6
CONTINUOUS
 62
     7
  5
7E
 10
6.028696
 20
226.516055
 30
0.0
 11
6.028696
 21
264.516055
 31
0.0
  0
LINE
  8
0
  6
CONTINUOUS
 62
     7
  5
7F
 10
6.028696
 20
226.516055
 30
0.0
 11
-68.971304
 21
226.516055
 31
0.0
  0
LINE
  8
0
  6
CONTINUOUS
 62
     7
  5
80
 10
-68.971304
 20
226.516055
 30
0.0
 11
-68.971304
 21
245.516055
 31
0.0
  0
LINE
  8
0
  6
CONTINUOUS
 62
     7
  5
81
 10
-170.971304
 20
245.516055
 30
0.0
 11
-68.971304
 21
245.516055
 31
0.0
  0
LINE
  8
0
  6
CONTINUOUS
 62
     7
  5
82
 10
-91.721304
 20
244.016055
 30
0.0
 11
-109.721304
 21
244.016055
 31
0.0
  0
LINE
  8
0
  6
CONTINUOUS
 62
     7
  5
83
 10
-138.221304
 20
244.016055
 30
0.0
 11
-156.221304
 21
244.016055
 31
0.0
  0
LINE
  8
0
  6
CONTINUOUS
 62
     7
  5
84
 10
-107.221304
 20
236.016055
 30
0.0
 11
-94.221304
 21
236.016055
 31
0.0
  0
LINE
  8
0
  6
CONTINUOUS
 62
     7
  5
85
 10
-153.721304
 20
236.016055
 30
0.0
 11
-140.721304
 21
236.016055
 31
0.0
  0
LINE
  8
0
  6
CONTINUOUS
 62
     7
  5
86
 10
-96.721304
 20
273.391055
 30
0.0
 11
-104.721304
 21
273.391055
 31
0.0
  0
LINE
  8
0
  6
CONTINUOUS
 62
     7
  5
87
 10
-143.221304
 20
273.391055
 30
0.0
 11
-151.221304
 21
273.391055
 31
0.0
  0
LINE
  8
0
  6
CONTINUOUS
 62
     7
  5
88
 10
-104.096304
 20
274.016055
 30
0.0
 11
-97.346304
 21
274.016055
 31
0.0
  0
LINE
  8
0
  6
CONTINUOUS
 62
     7
  5
89
 10
-150.596304
 20
274.016055
 30
0.0
 11
-143.846304
 21
274.016055
 31
0.0
  0
LINE
  8
0
  6
CONTINUOUS
 62
     7
  5
8A
 10
-53.971304
 20
224.516055
 30
0.0
 11
-61.971304
 21
224.516055
 31
0.0
  0
ARC
  8
0
  6
CONTINUOUS
 62
     7
  5
8B
 10
-55.907139
 20
220.899047
 30
0.0
 40
4.383627
 50
270.975346
 51
296.207219
210
0.0
220
0.0
230
1.0
  0
ARC
  8
0
  6
CONTINUOUS
 62
     7
  5
8C
 10
-55.658799
 20
221.42243
 30
0.0
 40
4.90945
 50
237.643593
 51
267.97216
210
0.0
220
0.0
230
1.0
  0
LINE
  8
0
  6
CONTINUOUS
 62
     7
  5
8D
 10
-58.286259
 20
217.275245
 30
0.0
 11
-58.286259
 21
223.756866
 31
0.0
  0
ARC
  8
0
  6
CONTINUOUS
 62
     7
  5
8E
 10
-55.663359
 20
219.624419
 30
0.0
 40
4.894561
 50
91.980599
 51
122.403649
210
0.0
220
0.0
230
1.0
  0
ARC
  8
0
  6
CONTINUOUS
 62
     7
  5
8F
 10
-55.909373
 20
220.123834
 30
0.0
 40
4.392894
 50
63.820465
 51
88.997568
210
0.0
220
0.0
230
1.0
  0
LINE
  8
0
  6
CONTINUOUS
 62
     7
  5
90
 10
-53.971304
 20
216.516055
 30
0.0
 11
-55.83252
 21
216.516055
 31
0.0
  0
LINE
  8
0
  6
CONTINUOUS
 62
     7
  5
91
 10
-55.83252
 20
216.516055
 30
0.0
 11
-56.971304
 21
216.516055
 31
0.0
  0
LINE
  8
0
  6
CONTINUOUS
 62
     7
  5
92
 10
6.028696
 20
-19.483945
 30
0.0
 11
6.028696
 21
49.516055
 31
0.0
  0
LINE
  8
0
  6
CONTINUOUS
 62
     7
  5
93
 10
36.028696
 20
-19.483945
 30
0.0
 11
36.028696
 21
-35.483945
 31
0.0
  0
LINE
  8
0
  6
CONTINUOUS
 62
     7
  5
94
 10
36.028696
 20
-35.483945
 30
0.0
 11
-93.971304
 21
-35.483945
 31
0.0
  0
LINE
  8
0
  6
CONTINUOUS
 62
     7
  5
95
 10
-93.971304
 20
-19.483945
 30
0.0
 11
-93.971304
 21
-35.483945
 31
0.0
  0
LINE
  8
0
  6
CONTINUOUS
 62
     7
  5
96
 10
-63.971304
 20
-19.483945
 30
0.0
 11
-93.971304
 21
-19.483945
 31
0.0
  0
LINE
  8
0
  6
CONTINUOUS
 62
     7
  5
97
 10
-63.971304
 20
49.516055
 30
0.0
 11
6.028696
 21
49.516055
 31
0.0
  0
LINE
  8
0
  6
CONTINUOUS
 62
     7
  5
98
 10
-63.971304
 20
-19.483945
 30
0.0
 11
-63.971304
 21
49.516055
 31
0.0
  0
LINE
  8
0
  6
CONTINUOUS
 62
     7
  5
99
 10
36.028696
 20
-19.483945
 30
0.0
 11
6.028696
 21
-19.483945
 31
0.0
  0
LINE
  8
0
  6
CONTINUOUS
 62
     7
  5
9A
 10
-53.971304
 20
329.516055
 30
0.0
 11
-31.471304
 21
329.516055
 31
0.0
  0
LINE
  8
0
  6
CONTINUOUS
 62
     7
  5
9B
 10
-31.471304
 20
329.516055
 30
0.0
 11
-8.971304
 21
329.516055
 31
0.0
  0
LINE
  8
0
  6
CONTINUOUS
 62
     7
  5
9C
 10
-91.721304
 20
244.016055
 30
0.0
 11
-91.721304
 21
245.516055
 31
0.0
  0
LINE
  8
0
  6
CONTINUOUS
 62
     7
  5
9D
 10
-109.721304
 20
245.516055
 30
0.0
 11
-109.721304
 21
244.016055
 31
0.0
  0
LINE
  8
0
  6
CONTINUOUS
 62
     7
  5
9E
 10
-138.221304
 20
244.016055
 30
0.0
 11
-138.221304
 21
245.516055
 31
0.0
  0
LINE
  8
0
  6
CONTINUOUS
 62
     7
  5
9F
 10
-156.221304
 20
245.516055
 30
0.0
 11
-156.221304
 21
244.016055
 31
0.0
  0
LINE
  8
0
  6
CONTINUOUS
 62
     7
  5
A0
 10
-107.221304
 20
244.016055
 30
0.0
 11
-107.221304
 21
236.016055
 31
0.0
  0
LINE
  8
0
  6
CONTINUOUS
 62
     7
  5
A1
 10
-94.221304
 20
236.016055
 30
0.0
 11
-94.221304
 21
244.016055
 31
0.0
  0
LINE
  8
0
  6
CONTINUOUS
 62
     7
  5
A2
 10
-153.721304
 20
244.016055
 30
0.0
 11
-153.721304
 21
236.016055
 31
0.0
  0
LINE
  8
0
  6
CONTINUOUS
 62
     7
  5
A3
 10
-140.721304
 20
236.016055
 30
0.0
 11
-140.721304
 21
244.016055
 31
0.0
  0
LINE
  8
0
  6
CONTINUOUS
 62
     7
  5
A4
 10
-96.721304
 20
264.516055
 30
0.0
 11
-96.721304
 21
273.391055
 31
0.0
  0
LINE
  8
0
  6
CONTINUOUS
 62
     7
  5
A5
 10
-104.721304
 20
273.391055
 30
0.0
 11
-104.721304
 21
264.516055
 31
0.0
  0
LINE
  8
0
  6
CONTINUOUS
 62
     7
  5
A6
 10
-143.221304
 20
264.516055
 30
0.0
 11
-143.221304
 21
273.391055
 31
0.0
  0
LINE
  8
0
  6
CONTINUOUS
 62
     7
  5
A7
 10
-151.221304
 20
273.391055
 30
0.0
 11
-151.221304
 21
264.516055
 31
0.0
  0
LINE
  8
0
  6
CONTINUOUS
 62
     7
  5
A8
 10
-96.721304
 20
273.391055
 30
0.0
 11
-97.346304
 21
274.016055
 31
0.0
  0
LINE
  8
0
  6
CONTINUOUS
 62
     7
  5
A9
 10
-104.096304
 20
274.016055
 30
0.0
 11
-104.721304
 21
273.391055
 31
0.0
  0
LINE
  8
0
  6
CONTINUOUS
 62
     7
  5
AA
 10
-143.221304
 20
273.391055
 30
0.0
 11
-143.846304
 21
274.016055
 31
0.0
  0
LINE
  8
0
  6
CONTINUOUS
 62
     7
  5
AB
 10
-150.596304
 20
274.016055
 30
0.0
 11
-151.221304
 21
273.391055
 31
0.0
  0
LINE
  8
0
  6
CONTINUOUS
 62
     7
  5
AC
 10
-61.971304
 20
226.516055
 30
0.0
 11
-61.971304
 21
224.516055
 31
0.0
  0
LINE
  8
0
  6
CONTINUOUS
 62
     7
  5
AD
 10
-56.971304
 20
224.516055
 30
0.0
 11
-58.286259
 21
223.756866
 31
0.0
  0
LINE
  8
0
  6
CONTINUOUS
 62
     7
  5
AE
 10
-58.286259
 20
217.275245
 30
0.0
 11
-56.971304
 21
216.516055
 31
0.0
  0
LINE
  8
0
  6
CONTINUOUS
 62
     7
  5
AF
 10
-8.971304
 20
49.516055
 30
0.0
 11
-8.971304
 21
226.516055
 31
0.0
  0
LINE
  8
0
  6
CONTINUOUS
 62
     7
  5
B0
 10
-8.971304
 20
264.516055
 30
0.0
 11
-8.971304
 21
329.516055
 31
0.0
  0
LINE
  8
0
  6
CONTINUOUS
 62
     7
  5
B1
 10
-53.971304
 20
329.516055
 30
0.0
 11
-53.971304
 21
264.516055
 31
0.0
  0
LINE
  8
0
  6
CONTINUOUS
 62
     7
  5
B2
 10
-53.971304
 20
226.516055
 30
0.0
 11
-53.971304
 21
49.516055
 31
0.0
  0
ENDBLK
  8
0
  5
B3
  0
BLOCK
  8
0
  5
B6
  2
AID287
 70
     0
 10
0.0
 20
0.0
 30
0.0
  3
#auxiliary draft view
  0
LINE
  8
0
  6
CONTINUOUS
 62
     7
  5
B7
 10
383.404666
 20
226.516055
 30
0.0
 11
383.404666
 21
264.516055
 31
0.0
  0
LINE
  8
0
  6
CONTINUOUS
 62
     7
  5
B8
 10
560.404666
 20
245.516055
 30
0.0
 11
560.404666
 21
264.516055
 31
0.0
  0
LINE
  8
0
  6
CONTINUOUS
 62
     7
  5
B9
 10
458.404666
 20
226.516055
 30
0.0
 11
458.404666
 21
245.516055
 31
0.0
  0
LINE
  8
0
  6
CONTINUOUS
 62
     7
  5
BA
 10
458.404666
 20
226.516055
 30
0.0
 11
383.404666
 21
226.516055
 31
0.0
  0
LINE
  8
0
  6
CONTINUOUS
 62
     7
  5
BB
 10
458.404666
 20
245.516055
 30
0.0
 11
560.404666
 21
245.516055
 31
0.0
  0
LINE
  8
0
  6
CONTINUOUS
 62
     7
  5
BC
 10
545.654666
 20
244.016055
 30
0.0
 11
536.654666
 21
244.016055
 31
0.0
  0
LINE
  8
0
  6
CONTINUOUS
 62
     7
  5
BD
 10
536.654666
 20
244.016055
 30
0.0
 11
527.654666
 21
244.016055
 31
0.0
  0
LINE
  8
0
  6
CONTINUOUS
 62
     7
  5
BE
 10
499.154666
 20
244.016055
 30
0.0
 11
490.154666
 21
244.016055
 31
0.0
  0
LINE
  8
0
  6
CONTINUOUS
 62
     7
  5
BF
 10
490.154666
 20
244.016055
 30
0.0
 11
481.154666
 21
244.016055
 31
0.0
  0
LINE
  8
0
  6
CONTINUOUS
 62
     7
  5
C0
 10
483.654666
 20
236.016055
 30
0.0
 11
490.154666
 21
236.016055
 31
0.0
  0
LINE
  8
0
  6
CONTINUOUS
 62
     7
  5
C1
 10
490.154666
 20
236.016055
 30
0.0
 11
496.654666
 21
236.016055
 31
0.0
  0
LINE
  8
0
  6
CONTINUOUS
 62
     7
  5
C2
 10
530.154666
 20
236.016055
 30
0.0
 11
536.654666
 21
236.016055
 31
0.0
  0
LINE
  8
0
  6
CONTINUOUS
 62
     7
  5
C3
 10
536.654666
 20
236.016055
 30
0.0
 11
543.154666
 21
236.016055
 31
0.0
  0
LINE
  8
0
  6
CONTINUOUS
 62
     7
  5
C4
 10
494.154666
 20
273.391055
 30
0.0
 11
490.154666
 21
273.391055
 31
0.0
  0
LINE
  8
0
  6
CONTINUOUS
 62
     7
  5
C5
 10
490.154666
 20
273.391055
 30
0.0
 11
486.154666
 21
273.391055
 31
0.0
  0
LINE
  8
0
  6
CONTINUOUS
 62
     7
  5
C6
 10
533.279666
 20
274.016055
 30
0.0
 11
536.654666
 21
274.016055
 31
0.0
  0
LINE
  8
0
  6
CONTINUOUS
 62
     7
  5
C7
 10
540.654666
 20
273.391055
 30
0.0
 11
536.654666
 21
273.391055
 31
0.0
  0
LINE
  8
0
  6
CONTINUOUS
 62
     7
  5
C8
 10
536.654666
 20
274.016055
 30
0.0
 11
540.029666
 21
274.016055
 31
0.0
  0
LINE
  8
0
  6
CONTINUOUS
 62
     7
  5
C9
 10
536.654666
 20
273.391055
 30
0.0
 11
532.654666
 21
273.391055
 31
0.0
  0
LINE
  8
0
  6
CONTINUOUS
 62
     7
  5
CA
 10
486.779666
 20
274.016055
 30
0.0
 11
490.154666
 21
274.016055
 31
0.0
  0
LINE
  8
0
  6
CONTINUOUS
 62
     7
  5
CB
 10
490.154666
 20
274.016055
 30
0.0
 11
493.529666
 21
274.016055
 31
0.0
  0
LINE
  8
0
  6
CONTINUOUS
 62
     7
  5
CC
 10
451.404666
 20
224.516055
 30
0.0
 11
443.404666
 21
224.516055
 31
0.0
  0
ARC
  8
0
  6
CONTINUOUS
 62
     7
  5
CD
 10
445.09672
 20
221.407692
 30
0.0
 40
4.894561
 50
271.980599
 51
302.403649
210
0.0
220
0.0
230
1.0
  0
ARC
  8
0
  6
CONTINUOUS
 62
     7
  5
CE
 10
445.342735
 20
220.908277
 30
0.0
 40
4.392894
 50
243.820465
 51
268.997568
210
0.0
220
0.0
230
1.0
  0
ARC
  8
0
  6
CONTINUOUS
 62
     7
  5
CF
 10
445.3405
 20
220.133064
 30
0.0
 40
4.383627
 50
90.975346
 51
116.207219
210
0.0
220
0.0
230
1.0
  0
ARC
  8
0
  6
CONTINUOUS
 62
     7
  5
D0
 10
445.09216
 20
219.60968
 30
0.0
 40
4.90945
 50
57.643593
 51
87.97216
210
0.0
220
0.0
230
1.0
  0
LINE
  8
0
  6
CONTINUOUS
 62
     7
  5
D1
 10
447.71962
 20
217.275245
 30
0.0
 11
447.71962
 21
223.756866
 31
0.0
  0
LINE
  8
0
  6
CONTINUOUS
 62
     7
  5
D2
 10
445.265882
 20
216.516055
 30
0.0
 11
443.404666
 21
216.516055
 31
0.0
  0
LINE
  8
0
  6
CONTINUOUS
 62
     7
  5
D3
 10
446.404666
 20
216.516055
 30
0.0
 11
445.265882
 21
216.516055
 31
0.0
  0
LINE
  8
0
  6
CONTINUOUS
 62
     7
  5
D4
 10
483.404666
 20
-19.483945
 30
0.0
 11
483.404666
 21
-35.483945
 31
0.0
  0
LINE
  8
0
  6
CONTINUOUS
 62
     7
  5
D5
 10
483.404666
 20
-35.483945
 30
0.0
 11
353.404666
 21
-35.483945
 31
0.0
  0
LINE
  8
0
  6
CONTINUOUS
 62
     7
  5
D6
 10
353.404666
 20
-19.483945
 30
0.0
 11
353.404666
 21
-35.483945
 31
0.0
  0
LINE
  8
0
  6
CONTINUOUS
 62
     7
  5
D7
 10
383.404666
 20
-19.483945
 30
0.0
 11
383.404666
 21
49.516055
 31
0.0
  0
LINE
  8
0
  6
CONTINUOUS
 62
     7
  5
D8
 10
453.404666
 20
-19.483945
 30
0.0
 11
453.404666
 21
49.516055
 31
0.0
  0
LINE
  8
0
  6
CONTINUOUS
 62
     7
  5
D9
 10
383.404666
 20
49.516055
 30
0.0
 11
453.404666
 21
49.516055
 31
0.0
  0
LINE
  8
0
  6
CONTINUOUS
 62
     7
  5
DA
 10
483.404666
 20
-19.483945
 30
0.0
 11
453.404666
 21
-19.483945
 31
0.0
  0
LINE
  8
0
  6
CONTINUOUS
 62
     7
  5
DB
 10
383.404666
 20
-19.483945
 30
0.0
 11
353.404666
 21
-19.483945
 31
0.0
  0
LINE
  8
0
  6
CONTINUOUS
 62
     7
  5
DC
 10
398.404666
 20
329.516055
 30
0.0
 11
443.404666
 21
329.516055
 31
0.0
  0
LINE
  8
0
  6
CONTINUOUS
 62
     7
  5
DD
 10
545.654666
 20
244.016055
 30
0.0
 11
545.654666
 21
245.516055
 31
0.0
  0
LINE
  8
0
  6
CONTINUOUS
 62
     7
  5
DE
 10
527.654666
 20
245.516055
 30
0.0
 11
527.654666
 21
244.016055
 31
0.0
  0
LINE
  8
0
  6
CONTINUOUS
 62
     7
  5
DF
 10
499.154666
 20
244.016055
 30
0.0
 11
499.154666
 21
245.516055
 31
0.0
  0
LINE
  8
0
  6
CONTINUOUS
 62
     7
  5
E0
 10
481.154666
 20
245.516055
 30
0.0
 11
481.154666
 21
244.016055
 31
0.0
  0
LINE
  8
0
  6
CONTINUOUS
 62
     7
  5
E1
 10
483.654666
 20
244.016055
 30
0.0
 11
483.654666
 21
236.016055
 31
0.0
  0
LINE
  8
0
  6
CONTINUOUS
 62
     7
  5
E2
 10
496.654666
 20
236.016055
 30
0.0
 11
496.654666
 21
244.016055
 31
0.0
  0
LINE
  8
0
  6
CONTINUOUS
 62
     7
  5
E3
 10
530.154666
 20
244.016055
 30
0.0
 11
530.154666
 21
236.016055
 31
0.0
  0
LINE
  8
0
  6
CONTINUOUS
 62
     7
  5
E4
 10
543.154666
 20
236.016055
 30
0.0
 11
543.154666
 21
244.016055
 31
0.0
  0
LINE
  8
0
  6
CONTINUOUS
 62
     7
  5
E5
 10
494.154666
 20
264.516055
 30
0.0
 11
494.154666
 21
273.391055
 31
0.0
  0
LINE
  8
0
  6
CONTINUOUS
 62
     7
  5
E6
 10
486.154666
 20
273.391055
 30
0.0
 11
486.154666
 21
264.516055
 31
0.0
  0
LINE
  8
0
  6
CONTINUOUS
 62
     7
  5
E7
 10
540.654666
 20
273.391055
 30
0.0
 11
540.029666
 21
274.016055
 31
0.0
  0
LINE
  8
0
  6
CONTINUOUS
 62
     7
  5
E8
 10
533.279666
 20
274.016055
 30
0.0
 11
532.654666
 21
273.391055
 31
0.0
  0
LINE
  8
0
  6
CONTINUOUS
 62
     7
  5
E9
 10
540.654666
 20
264.516055
 30
0.0
 11
540.654666
 21
273.391055
 31
0.0
  0
LINE
  8
0
  6
CONTINUOUS
 62
     7
  5
EA
 10
532.654666
 20
273.391055
 30
0.0
 11
532.654666
 21
264.516055
 31
0.0
  0
LINE
  8
0
  6
CONTINUOUS
 62
     7
  5
EB
 10
494.154666
 20
273.391055
 30
0.0
 11
493.529666
 21
274.016055
 31
0.0
  0
LINE
  8
0
  6
CONTINUOUS
 62
     7
  5
EC
 10
486.779666
 20
274.016055
 30
0.0
 11
486.154666
 21
273.391055
 31
0.0
  0
LINE
  8
0
  6
CONTINUOUS
 62
     7
  5
ED
 10
451.404666
 20
224.516055
 30
0.0
 11
451.404666
 21
226.516055
 31
0.0
  0
LINE
  8
0
  6
CONTINUOUS
 62
     7
  5
EE
 10
447.71962
 20
223.756866
 30
0.0
 11
446.404666
 21
224.516055
 31
0.0
  0
LINE
  8
0
  6
CONTINUOUS
 62
     7
  5
EF
 10
446.404666
 20
216.516055
 30
0.0
 11
447.71962
 21
217.275245
 31
0.0
  0
LINE
  8
0
  6
CONTINUOUS
 62
     7
  5
F0
 10
443.404666
 20
49.516055
 30
0.0
 11
443.404666
 21
226.516055
 31
0.0
  0
LINE
  8
0
  6
CONTINUOUS
 62
     7
  5
F1
 10
443.404666
 20
264.516055
 30
0.0
 11
443.404666
 21
329.516055
 31
0.0
  0
LINE
  8
0
  6
CONTINUOUS
 62
     7
  5
F2
 10
398.404666
 20
329.516055
 30
0.0
 11
398.404666
 21
264.516055
 31
0.0
  0
LINE
  8
0
  6
CONTINUOUS
 62
     7
  5
F3
 10
398.404666
 20
226.516055
 30
0.0
 11
398.404666
 21
49.516055
 31
0.0
  0
ENDBLK
  8
0
  5
F4
  0
BLOCK
  8
0
  5
F7
  2
AID415
 70
     0
 10
0.0
 20
0.0
 30
0.0
  3
#auxiliary draft view
  0
CIRCLE
  8
0
  6
CONTINUOUS
 62
     7
  5
F8
 10
247.633827
 20
-296.058102
 30
0.0
 40
3.375
210
0.0
220
0.0
230
1.0
  0
CIRCLE
  8
0
  6
CONTINUOUS
 62
     7
  5
F9
 10
247.633827
 20
-249.558102
 30
0.0
 40
3.375
210
0.0
220
0.0
230
1.0
  0
CIRCLE
  8
0
  6
CONTINUOUS
 62
     7
  5
FA
 10
247.633827
 20
-249.558102
 30
0.0
 40
4.0
210
0.0
220
0.0
230
1.0
  0
CIRCLE
  8
0
  6
CONTINUOUS
 62
     7
  5
FB
 10
147.633827
 20
-296.058102
 30
0.0
 40
3.375
210
0.0
220
0.0
230
1.0
  0
CIRCLE
  8
0
  6
CONTINUOUS
 62
     7
  5
FC
 10
147.633827
 20
-296.058102
 30
0.0
 40
4.0
210
0.0
220
0.0
230
1.0
  0
CIRCLE
  8
0
  6
CONTINUOUS
 62
     7
  5
FD
 10
247.633827
 20
-296.058102
 30
0.0
 40
4.0
210
0.0
220
0.0
230
1.0
  0
CIRCLE
  8
0
  6
CONTINUOUS
 62
     7
  5
FE
 10
147.633827
 20
-249.558102
 30
0.0
 40
3.375
210
0.0
220
0.0
230
1.0
  0
CIRCLE
  8
0
  6
CONTINUOUS
 62
     7
  5
FF
 10
147.633827
 20
-249.558102
 30
0.0
 40
4.0
210
0.0
220
0.0
230
1.0
  0
CIRCLE
  8
0
  6
CONTINUOUS
 62
     7
  5
100
 10
197.633827
 20
-249.558102
 30
0.0
 40
2.0
210
0.0
220
0.0
230
1.0
  0
CIRCLE
  8
0
  6
CONTINUOUS
 62
     7
  5
101
 10
197.633827
 20
-296.058102
 30
0.0
 40
2.0
210
0.0
220
0.0
230
1.0
  0
CIRCLE
  8
0
  6
CONTINUOUS
 62
     7
  5
102
 10
197.633827
 20
-296.058102
 30
0.0
 40
2.5
210
0.0
220
0.0
230
1.0
  0
CIRCLE
  8
0
  6
CONTINUOUS
 62
     7
  5
103
 10
197.633827
 20
-249.558102
 30
0.0
 40
2.5
210
0.0
220
0.0
230
1.0
  0
CIRCLE
  8
0
  6
CONTINUOUS
 62
     7
  5
104
 10
147.633827
 20
-249.558102
 30
0.0
 40
4.25
210
0.0
220
0.0
230
1.0
  0
CIRCLE
  8
0
  6
CONTINUOUS
 62
     7
  5
105
 10
247.633827
 20
-296.058102
 30
0.0
 40
4.25
210
0.0
220
0.0
230
1.0
  0
CIRCLE
  8
0
  6
CONTINUOUS
 62
     7
  5
106
 10
197.633827
 20
-197.308102
 30
0.0
 40
5.5
210
0.0
220
0.0
230
1.0
  0
LINE
  8
0
  6
CONTINUOUS
 62
     7
  5
107
 10
236.383827
 20
-157.842851
 30
0.0
 11
236.383827
 21
-142.808102
 31
0.0
  0
CIRCLE
  8
0
  6
CONTINUOUS
 62
     7
  5
108
 10
247.633827
 20
-249.558102
 30
0.0
 40
4.25
210
0.0
220
0.0
230
1.0
  0
LINE
  8
0
  6
CONTINUOUS
 62
     7
  5
109
 10
127.633827
 20
-142.808102
 30
0.0
 11
158.883827
 21
-142.808102
 31
0.0
  0
LINE
  8
0
  6
CONTINUOUS
 62
     7
  5
10A
 10
236.383827
 20
-142.808102
 30
0.0
 11
267.633827
 21
-142.808102
 31
0.0
  0
LINE
  8
0
  6
CONTINUOUS
 62
     7
  5
10B
 10
158.883827
 20
-142.808102
 30
0.0
 11
158.883827
 21
-157.842851
 31
0.0
  0
LINE
  8
0
  6
CONTINUOUS
 62
     7
  5
10C
 10
161.383827
 20
-157.842851
 30
0.0
 11
161.383827
 21
-142.808102
 31
0.0
  0
LINE
  8
0
  6
CONTINUOUS
 62
     7
  5
10D
 10
267.633827
 20
-142.808102
 30
0.0
 11
267.633827
 21
-319.808102
 31
0.0
  0
CIRCLE
  8
0
  6
CONTINUOUS
 62
     7
  5
10E
 10
147.633827
 20
-296.058102
 30
0.0
 40
4.25
210
0.0
220
0.0
230
1.0
  0
LINE
  8
0
  6
CONTINUOUS
 62
     7
  5
10F
 10
233.883827
 20
-142.808102
 30
0.0
 11
233.883827
 21
-157.842851
 31
0.0
  0
LINE
  8
0
  6
CONTINUOUS
 62
     7
  5
110
 10
267.633827
 20
-319.808102
 30
0.0
 11
127.633827
 21
-319.808102
 31
0.0
  0
LINE
  8
0
  6
CONTINUOUS
 62
     7
  5
111
 10
127.633827
 20
-319.808102
 30
0.0
 11
127.633827
 21
-142.808102
 31
0.0
  0
LINE
  8
0
  6
CONTINUOUS
 62
     7
  5
112
 10
161.383827
 20
-142.808102
 30
0.0
 11
233.883827
 21
-142.808102
 31
0.0
  0
CIRCLE
  8
0
  6
CONTINUOUS
 62
     7
  5
113
 10
147.633827
 20
-296.058102
 30
0.0
 40
4.125
210
0.0
220
0.0
230
1.0
  0
CIRCLE
  8
0
  6
CONTINUOUS
 62
     7
  5
114
 10
247.633827
 20
-296.058102
 30
0.0
 40
4.125
210
0.0
220
0.0
230
1.0
  0
CIRCLE
  8
0
  6
CONTINUOUS
 62
     7
  5
115
 10
147.633827
 20
-249.558102
 30
0.0
 40
4.125
210
0.0
220
0.0
230
1.0
  0
CIRCLE
  8
0
  6
CONTINUOUS
 62
     7
  5
116
 10
247.633827
 20
-249.558102
 30
0.0
 40
4.125
210
0.0
220
0.0
230
1.0
  0
CIRCLE
  8
0
  6
CONTINUOUS
 62
     7
  5
117
 10
197.633827
 20
-197.308102
 30
0.0
 40
5.125
210
0.0
220
0.0
230
1.0
  0
CIRCLE
  8
0
  6
CONTINUOUS
 62
     7
  5
118
 10
235.133827
 20
-180.308102
 30
0.0
 40
22.5
210
0.0
220
0.0
230
1.0
  0
CIRCLE
  8
0
  6
CONTINUOUS
 62
     7
  5
119
 10
160.133827
 20
-180.308102
 30
0.0
 40
22.5
210
0.0
220
0.0
230
1.0
  0
CIRCLE
  8
0
  6
CONTINUOUS
 62
     7
  5
11A
 10
197.633827
 20
-197.308102
 30
0.0
 40
4.25
210
0.0
220
0.0
230
1.0
  0
CIRCLE
  8
0
  6
CONTINUOUS
 62
     7
  5
11B
 10
197.633827
 20
-197.308102
 30
0.0
 40
5.0
210
0.0
220
0.0
230
1.0
  0
LINE
  8
0
  6
CONTINUOUS
 62
     7
  5
11C
 10
236.383827
 20
-142.808102
 30
0.0
 11
233.883827
 21
-142.808102
 31
0.0
  0
LINE
  8
0
  6
CONTINUOUS
 62
     7
  5
11D
 10
161.383827
 20
-142.808102
 30
0.0
 11
158.883827
 21
-142.808102
 31
0.0
  0
ARC
  8
0
  6
CONTINUOUS
 62
     7
  5
11E
 10
138.633827
 20
-131.808102
 30
0.0
 40
5.5
 50
180.0
 51
360.0
210
0.0
220
0.0
230
1.0
  0
LINE
  8
0
  6
CONTINUOUS
 62
     7
  5
11F
 10
144.133827
 20
-123.808102
 30
0.0
 11
144.133827
 21
-131.808102
 31
0.0
  0
ARC
  8
0
  6
CONTINUOUS
 62
     7
  5
120
 10
138.633827
 20
-123.808102
 30
0.0
 40
5.5
 50
360.0
 51
180.0
210
0.0
220
0.0
230
1.0
  0
LINE
  8
0
  6
CONTINUOUS
 62
     7
  5
121
 10
133.133827
 20
-131.808102
 30
0.0
 11
133.133827
 21
-123.808102
 31
0.0
  0
ARC
  8
0
  6
CONTINUOUS
 62
     7
  5
122
 10
256.633827
 20
-131.808102
 30
0.0
 40
5.5
 50
180.0
 51
360.0
210
0.0
220
0.0
230
1.0
  0
LINE
  8
0
  6
CONTINUOUS
 62
     7
  5
123
 10
262.133827
 20
-123.808102
 30
0.0
 11
262.133827
 21
-131.808102
 31
0.0
  0
ARC
  8
0
  6
CONTINUOUS
 62
     7
  5
124
 10
256.633827
 20
-123.808102
 30
0.0
 40
5.5
 50
360.0
 51
180.0
210
0.0
220
0.0
230
1.0
  0
LINE
  8
0
  6
CONTINUOUS
 62
     7
  5
125
 10
251.133827
 20
-131.808102
 30
0.0
 11
251.133827
 21
-123.808102
 31
0.0
  0
LINE
  8
0
  6
CONTINUOUS
 62
     7
  5
126
 10
127.633827
 20
-112.808102
 30
0.0
 11
267.633827
 21
-112.808102
 31
0.0
  0
LINE
  8
0
  6
CONTINUOUS
 62
     7
  5
127
 10
267.633827
 20
-112.808102
 30
0.0
 11
267.633827
 21
-142.808102
 31
0.0
  0
LINE
  8
0
  6
CONTINUOUS
 62
     7
  5
128
 10
127.633827
 20
-142.808102
 30
0.0
 11
127.633827
 21
-112.808102
 31
0.0
  0
ENDBLK
  8
0
  5
129
  0
BLOCK
  8
0
  5
12C
  2
AID517
 70
     0
 10
0.0
 20
0.0
 30
0.0
  3
#auxiliary draft view
  0
LINE
  8
0
  6
CONTINUOUS
 62
     7
  5
12D
 10
244.633827
 20
539.690907
 30
0.0
 11
247.633827
 21
541.422958
 31
0.0
  0
LINE
  8
0
  6
CONTINUOUS
 62
     7
  5
12E
 10
244.633827
 20
536.226806
 30
0.0
 11
244.633827
 21
539.690907
 31
0.0
  0
LINE
  8
0
  6
CONTINUOUS
 62
     7
  5
12F
 10
247.633827
 20
534.494755
 30
0.0
 11
244.633827
 21
536.226806
 31
0.0
  0
LINE
  8
0
  6
CONTINUOUS
 62
     7
  5
130
 10
250.633827
 20
536.226806
 30
0.0
 11
247.633827
 21
534.494755
 31
0.0
  0
LINE
  8
0
  6
CONTINUOUS
 62
     7
  5
131
 10
250.633827
 20
539.690907
 30
0.0
 11
250.633827
 21
536.226806
 31
0.0
  0
LINE
  8
0
  6
CONTINUOUS
 62
     7
  5
132
 10
247.633827
 20
541.422958
 30
0.0
 11
250.633827
 21
539.690907
 31
0.0
  0
CIRCLE
  8
0
  6
CONTINUOUS
 62
     7
  5
133
 10
247.633827
 20
537.958856
 30
0.0
 40
6.5
210
0.0
220
0.0
230
1.0
  0
LINE
  8
0
  6
CONTINUOUS
 62
     7
  5
134
 10
144.633827
 20
586.190907
 30
0.0
 11
147.633827
 21
587.922958
 31
0.0
  0
LINE
  8
0
  6
CONTINUOUS
 62
     7
  5
135
 10
144.633827
 20
582.726806
 30
0.0
 11
144.633827
 21
586.190907
 31
0.0
  0
LINE
  8
0
  6
CONTINUOUS
 62
     7
  5
136
 10
147.633827
 20
580.994755
 30
0.0
 11
144.633827
 21
582.726806
 31
0.0
  0
LINE
  8
0
  6
CONTINUOUS
 62
     7
  5
137
 10
150.633827
 20
586.190907
 30
0.0
 11
150.633827
 21
582.726806
 31
0.0
  0
LINE
  8
0
  6
CONTINUOUS
 62
     7
  5
138
 10
147.633827
 20
587.922958
 30
0.0
 11
150.633827
 21
586.190907
 31
0.0
  0
LINE
  8
0
  6
CONTINUOUS
 62
     7
  5
139
 10
150.633827
 20
582.726806
 30
0.0
 11
147.633827
 21
580.994755
 31
0.0
  0
CIRCLE
  8
0
  6
CONTINUOUS
 62
     7
  5
13A
 10
147.633827
 20
584.458856
 30
0.0
 40
6.5
210
0.0
220
0.0
230
1.0
  0
LINE
  8
0
  6
CONTINUOUS
 62
     7
  5
13B
 10
244.633827
 20
586.190907
 30
0.0
 11
247.633827
 21
587.922958
 31
0.0
  0
LINE
  8
0
  6
CONTINUOUS
 62
     7
  5
13C
 10
250.633827
 20
586.190907
 30
0.0
 11
250.633827
 21
582.726806
 31
0.0
  0
LINE
  8
0
  6
CONTINUOUS
 62
     7
  5
13D
 10
247.633827
 20
587.922958
 30
0.0
 11
250.633827
 21
586.190907
 31
0.0
  0
CIRCLE
  8
0
  6
CONTINUOUS
 62
     7
  5
13E
 10
247.633827
 20
584.458856
 30
0.0
 40
6.5
210
0.0
220
0.0
230
1.0
  0
LINE
  8
0
  6
CONTINUOUS
 62
     7
  5
13F
 10
244.633827
 20
582.726806
 30
0.0
 11
244.633827
 21
586.190907
 31
0.0
  0
LINE
  8
0
  6
CONTINUOUS
 62
     7
  5
140
 10
247.633827
 20
580.994755
 30
0.0
 11
244.633827
 21
582.726806
 31
0.0
  0
LINE
  8
0
  6
CONTINUOUS
 62
     7
  5
141
 10
250.633827
 20
582.726806
 30
0.0
 11
247.633827
 21
580.994755
 31
0.0
  0
LINE
  8
0
  6
CONTINUOUS
 62
     7
  5
142
 10
147.633827
 20
541.422958
 30
0.0
 11
150.633827
 21
539.690907
 31
0.0
  0
CIRCLE
  8
0
  6
CONTINUOUS
 62
     7
  5
143
 10
147.633827
 20
537.958856
 30
0.0
 40
6.5
210
0.0
220
0.0
230
1.0
  0
LINE
  8
0
  6
CONTINUOUS
 62
     7
  5
144
 10
144.633827
 20
536.226806
 30
0.0
 11
144.633827
 21
539.690907
 31
0.0
  0
LINE
  8
0
  6
CONTINUOUS
 62
     7
  5
145
 10
147.633827
 20
534.494755
 30
0.0
 11
144.633827
 21
536.226806
 31
0.0
  0
LINE
  8
0
  6
CONTINUOUS
 62
     7
  5
146
 10
150.633827
 20
536.226806
 30
0.0
 11
147.633827
 21
534.494755
 31
0.0
  0
LINE
  8
0
  6
CONTINUOUS
 62
     7
  5
147
 10
144.633827
 20
539.690907
 30
0.0
 11
147.633827
 21
541.422958
 31
0.0
  0
LINE
  8
0
  6
CONTINUOUS
 62
     7
  5
148
 10
150.633827
 20
539.690907
 30
0.0
 11
150.633827
 21
536.226806
 31
0.0
  0
ARC
  8
0
  6
CONTINUOUS
 62
     7
  5
149
 10
147.633827
 20
537.958856
 30
0.0
 40
9.0
 50
180.0
 51
228.590378
210
0.0
220
0.0
230
1.0
  0
ARC
  8
0
  6
CONTINUOUS
 62
     7
  5
14A
 10
147.633827
 20
537.958856
 30
0.0
 40
9.0
 50
311.409622
 51
180.0
210
0.0
220
0.0
230
1.0
  0
ARC
  8
0
  6
CONTINUOUS
 62
     7
  5
14B
 10
247.633827
 20
537.958856
 30
0.0
 40
9.0
 50
180.0
 51
228.590378
210
0.0
220
0.0
230
1.0
  0
ARC
  8
0
  6
CONTINUOUS
 62
     7
  5
14C
 10
247.633827
 20
537.958856
 30
0.0
 40
9.0
 50
311.409622
 51
180.0
210
0.0
220
0.0
230
1.0
  0
CIRCLE
  8
0
  6
CONTINUOUS
 62
     7
  5
14D
 10
247.633827
 20
584.458856
 30
0.0
 40
9.0
210
0.0
220
0.0
230
1.0
  0
CIRCLE
  8
0
  6
CONTINUOUS
 62
     7
  5
14E
 10
147.633827
 20
584.458856
 30
0.0
 40
9.0
210
0.0
220
0.0
230
1.0
  0
LINE
  8
0
  6
CONTINUOUS
 62
     7
  5
14F
 10
127.633827
 20
608.208856
 30
0.0
 11
267.633827
 21
608.208856
 31
0.0
  0
LINE
  8
0
  6
CONTINUOUS
 62
     7
  5
150
 10
267.633827
 20
608.208856
 30
0.0
 11
267.633827
 21
531.208856
 31
0.0
  0
LINE
  8
0
  6
CONTINUOUS
 62
     7
  5
151
 10
127.633827
 20
531.208856
 30
0.0
 11
127.633827
 21
608.208856
 31
0.0
  0
LINE
  8
0
  6
CONTINUOUS
 62
     7
  5
152
 10
144.133827
 20
412.208856
 30
0.0
 11
144.133827
 21
420.208856
 31
0.0
  0
ARC
  8
0
  6
CONTINUOUS
 62
     7
  5
153
 10
138.633827
 20
420.208856
 30
0.0
 40
5.5
 50
0.0
 51
180.0
210
0.0
220
0.0
230
1.0
  0
LINE
  8
0
  6
CONTINUOUS
 62
     7
  5
154
 10
133.133827
 20
420.208856
 30
0.0
 11
133.133827
 21
412.208856
 31
0.0
  0
ARC
  8
0
  6
CONTINUOUS
 62
     7
  5
155
 10
138.633827
 20
412.208856
 30
0.0
 40
5.5
 50
180.0
 51
360.0
210
0.0
220
0.0
230
1.0
  0
LINE
  8
0
  6
CONTINUOUS
 62
     7
  5
156
 10
262.133827
 20
412.208856
 30
0.0
 11
262.133827
 21
420.208856
 31
0.0
  0
ARC
  8
0
  6
CONTINUOUS
 62
     7
  5
157
 10
256.633827
 20
420.208856
 30
0.0
 40
5.5
 50
0.0
 51
180.0
210
0.0
220
0.0
230
1.0
  0
LINE
  8
0
  6
CONTINUOUS
 62
     7
  5
158
 10
251.133827
 20
420.208856
 30
0.0
 11
251.133827
 21
412.208856
 31
0.0
  0
ARC
  8
0
  6
CONTINUOUS
 62
     7
  5
159
 10
256.633827
 20
412.208856
 30
0.0
 40
5.5
 50
180.0
 51
360.0
210
0.0
220
0.0
230
1.0
  0
LINE
  8
0
  6
CONTINUOUS
 62
     7
  5
15A
 10
251.133827
 20
520.208856
 30
0.0
 11
251.133827
 21
512.208856
 31
0.0
  0
ARC
  8
0
  6
CONTINUOUS
 62
     7
  5
15B
 10
256.633827
 20
512.208856
 30
0.0
 40
5.5
 50
180.0
 51
360.0
210
0.0
220
0.0
230
1.0
  0
LINE
  8
0
  6
CONTINUOUS
 62
     7
  5
15C
 10
262.133827
 20
512.208856
 30
0.0
 11
262.133827
 21
520.208856
 31
0.0
  0
ARC
  8
0
  6
CONTINUOUS
 62
     7
  5
15D
 10
256.633827
 20
520.208856
 30
0.0
 40
5.5
 50
0.0
 51
180.0
210
0.0
220
0.0
230
1.0
  0
LINE
  8
0
  6
CONTINUOUS
 62
     7
  5
15E
 10
133.133827
 20
520.208856
 30
0.0
 11
133.133827
 21
512.208856
 31
0.0
  0
ARC
  8
0
  6
CONTINUOUS
 62
     7
  5
15F
 10
138.633827
 20
512.208856
 30
0.0
 40
5.5
 50
180.0
 51
360.0
210
0.0
220
0.0
230
1.0
  0
LINE
  8
0
  6
CONTINUOUS
 62
     7
  5
160
 10
144.133827
 20
512.208856
 30
0.0
 11
144.133827
 21
520.208856
 31
0.0
  0
ARC
  8
0
  6
CONTINUOUS
 62
     7
  5
161
 10
138.633827
 20
520.208856
 30
0.0
 40
5.5
 50
0.0
 51
180.0
210
0.0
220
0.0
230
1.0
  0
LINE
  8
0
  6
CONTINUOUS
 62
     7
  5
162
 10
127.633827
 20
401.208856
 30
0.0
 11
267.633827
 21
401.208856
 31
0.0
  0
LINE
  8
0
  6
CONTINUOUS
 62
     7
  5
163
 10
127.633827
 20
531.208856
 30
0.0
 11
127.633827
 21
401.208856
 31
0.0
  0
LINE
  8
0
  6
CONTINUOUS
 62
     7
  5
164
 10
267.633827
 20
531.208856
 30
0.0
 11
127.633827
 21
531.208856
 31
0.0
  0
LINE
  8
0
  6
CONTINUOUS
 62
     7
  5
165
 10
267.633827
 20
401.208856
 30
0.0
 11
267.633827
 21
531.208856
 31
0.0
  0
ENDBLK
  8
0
  5
166
  0
ENDSEC
  0
SECTION
  2
ENTITIES
  0
INSERT
  8
0
  5
7A
  2
AID3
 10
0.0
 20
0.0
 30
0.0
  0
INSERT
  8
0
  5
B4
  2
AID173
 10
0.0
 20
0.0
 30
0.0
  0
INSERT
  8
0
  5
F5
  2
AID287
 10
0.0
 20
0.0
 30
0.0
  0
INSERT
  8
0
  5
12A
  2
AID415
 10
0.0
 20
0.0
 30
0.0
  0
INSERT
  8
0
  5
167
  2
AID517
 10
0.0
 20
0.0
 30
0.0
  0
LINE
  8
0
  6
CENTER
 62
     1
  5
169
 10
-31.471304
 20
332.516055
 30
0.0
 11
-31.471304
 21
46.516055
 31
0.0
  0
LINE
  8
0
  6
CENTER
 62
     1
  5
16A
 10
-31.471304
 20
332.516055
 30
0.0
 11
-31.471304
 21
46.516055
 31
0.0
  0
LINE
  8
0
  6
CENTER
 62
     1
  5
16B
 10
-31.471304
 20
287.516055
 30
0.0
 11
-31.471304
 21
218.516055
 31
0.0
  0
LINE
  8
0
  6
CENTER
 62
     1
  5
16C
 10
197.633827
 20
312.516055
 30
0.0
 11
197.633827
 21
305.766055
 31
0.0
  0
LINE
  8
0
  6
CENTER
 62
     1
  5
16D
 10
197.633827
 20
311.766055
 30
0.0
 11
197.633827
 21
46.516055
 31
0.0
  0
LINE
  8
0
  6
CENTER
 62
     1
  5
16E
 10
235.133827
 20
332.516055
 30
0.0
 11
235.133827
 21
46.516055
 31
0.0
  0
LINE
  8
0
  6
CENTER
 62
     1
  5
16F
 10
160.133827
 20
332.516055
 30
0.0
 11
160.133827
 21
46.516055
 31
0.0
  0
LINE
  8
0
  6
CENTER
 62
     1
  5
170
 10
247.633827
 20
276.391055
 30
0.0
 11
247.633827
 21
241.016055
 31
0.0
  0
LINE
  8
0
  6
CENTER
 62
     1
  5
171
 10
247.633827
 20
233.016055
 30
0.0
 11
247.633827
 21
247.016055
 31
0.0
  0
LINE
  8
0
  6
CENTER
 62
     1
  5
172
 10
247.633827
 20
248.516055
 30
0.0
 11
247.633827
 21
241.016055
 31
0.0
  0
LINE
  8
0
  6
CENTER
 62
     1
  5
173
 10
197.633827
 20
261.516055
 30
0.0
 11
197.633827
 21
270.016055
 31
0.0
  0
LINE
  8
0
  6
CENTER
 62
     1
  5
174
 10
197.633827
 20
193.516055
 30
0.0
 11
197.633827
 21
227.516055
 31
0.0
  0
LINE
  8
0
  6
CENTER
 62
     1
  5
175
 10
420.904666
 20
332.516055
 30
0.0
 11
420.904666
 21
46.516055
 31
0.0
  0
LINE
  8
0
  6
CENTER
 62
     1
  5
176
 10
536.654666
 20
276.391055
 30
0.0
 11
536.654666
 21
241.016055
 31
0.0
  0
LINE
  8
0
  6
CENTER
 62
     1
  5
177
 10
536.654666
 20
233.016055
 30
0.0
 11
536.654666
 21
274.016055
 31
0.0
  0
LINE
  8
0
  6
CENTER
 62
     1
  5
178
 10
134.633827
 20
-180.308102
 30
0.0
 11
185.633827
 21
-180.308102
 31
0.0
  0
LINE
  8
0
  6
CENTER
 62
     1
  5
179
 10
160.133827
 20
-205.808102
 30
0.0
 11
160.133827
 21
-154.808102
 31
0.0
  0
LINE
  8
0
  6
CENTER
 62
     1
  5
17A
 10
209.633827
 20
-180.308102
 30
0.0
 11
260.633827
 21
-180.308102
 31
0.0
  0
LINE
  8
0
  6
CENTER
 62
     1
  5
17B
 10
235.133827
 20
-205.808102
 30
0.0
 11
235.133827
 21
-154.808102
 31
0.0
  0
LINE
  8
0
  6
CENTER
 62
     1
  5
17C
 10
130.133827
 20
520.208856
 30
0.0
 11
147.133827
 21
520.208856
 31
0.0
  0
LINE
  8
0
  6
CENTER
 62
     1
  5
17D
 10
138.633827
 20
511.708856
 30
0.0
 11
138.633827
 21
528.708856
 31
0.0
  0
LINE
  8
0
  6
CENTER
 62
     1
  5
17E
 10
130.133827
 20
512.208856
 30
0.0
 11
147.133827
 21
512.208856
 31
0.0
  0
LINE
  8
0
  6
CENTER
 62
     1
  5
17F
 10
138.633827
 20
503.708856
 30
0.0
 11
138.633827
 21
520.708856
 31
0.0
  0
LINE
  8
0
  6
CENTER
 62
     1
  5
180
 10
248.133827
 20
520.208856
 30
0.0
 11
265.133827
 21
520.208856
 31
0.0
  0
LINE
  8
0
  6
CENTER
 62
     1
  5
181
 10
256.633827
 20
511.708856
 30
0.0
 11
256.633827
 21
528.708856
 31
0.0
  0
LINE
  8
0
  6
CENTER
 62
     1
  5
182
 10
248.133827
 20
512.208856
 30
0.0
 11
265.133827
 21
512.208856
 31
0.0
  0
LINE
  8
0
  6
CENTER
 62
     1
  5
183
 10
256.633827
 20
503.708856
 30
0.0
 11
256.633827
 21
520.708856
 31
0.0
  0
LINE
  8
0
  6
CENTER
 62
     1
  5
184
 10
248.133827
 20
420.208856
 30
0.0
 11
265.133827
 21
420.208856
 31
0.0
  0
LINE
  8
0
  6
CENTER
 62
     1
  5
185
 10
256.633827
 20
411.708856
 30
0.0
 11
256.633827
 21
428.708856
 31
0.0
  0
LINE
  8
0
  6
CENTER
 62
     1
  5
186
 10
248.133827
 20
412.208856
 30
0.0
 11
265.133827
 21
412.208856
 31
0.0
  0
LINE
  8
0
  6
CENTER
 62
     1
  5
187
 10
256.633827
 20
403.708856
 30
0.0
 11
256.633827
 21
420.708856
 31
0.0
  0
LINE
  8
0
  6
CENTER
 62
     1
  5
188
 10
130.133827
 20
420.208856
 30
0.0
 11
147.133827
 21
420.208856
 31
0.0
  0
LINE
  8
0
  6
CENTER
 62
     1
  5
189
 10
138.633827
 20
411.708856
 30
0.0
 11
138.633827
 21
428.708856
 31
0.0
  0
LINE
  8
0
  6
CENTER
 62
     1
  5
18A
 10
130.133827
 20
412.208856
 30
0.0
 11
147.133827
 21
412.208856
 31
0.0
  0
LINE
  8
0
  6
CENTER
 62
     1
  5
18B
 10
138.633827
 20
403.708856
 30
0.0
 11
138.633827
 21
420.708856
 31
0.0
  0
LINE
  8
0
  6
CENTER
 62
     1
  5
18C
 10
189.133827
 20
-197.308102
 30
0.0
 11
206.133827
 21
-197.308102
 31
0.0
  0
LINE
  8
0
  6
CENTER
 62
     1
  5
18D
 10
192.633827
 20
-249.558102
 30
0.0
 11
202.633827
 21
-249.558102
 31
0.0
  0
LINE
  8
0
  6
CENTER
 62
     1
  5
18E
 10
192.633827
 20
-296.058102
 30
0.0
 11
202.633827
 21
-296.058102
 31
0.0
  0
LINE
  8
0
  6
CENTER
 62
     1
  5
18F
 10
240.383827
 20
-296.058102
 30
0.0
 11
254.883827
 21
-296.058102
 31
0.0
  0
LINE
  8
0
  6
CENTER
 62
     1
  5
190
 10
247.633827
 20
-303.308102
 30
0.0
 11
247.633827
 21
-288.808102
 31
0.0
  0
LINE
  8
0
  6
CENTER
 62
     1
  5
191
 10
240.383827
 20
-249.558102
 30
0.0
 11
254.883827
 21
-249.558102
 31
0.0
  0
LINE
  8
0
  6
CENTER
 62
     1
  5
192
 10
247.633827
 20
-256.808102
 30
0.0
 11
247.633827
 21
-242.308102
 31
0.0
  0
LINE
  8
0
  6
CENTER
 62
     1
  5
193
 10
141.258827
 20
-249.558102
 30
0.0
 11
154.008827
 21
-249.558102
 31
0.0
  0
LINE
  8
0
  6
CENTER
 62
     1
  5
194
 10
147.633827
 20
-255.933102
 30
0.0
 11
147.633827
 21
-243.183102
 31
0.0
  0
LINE
  8
0
  6
CENTER
 62
     1
  5
195
 10
141.258827
 20
-296.058102
 30
0.0
 11
154.008827
 21
-296.058102
 31
0.0
  0
LINE
  8
0
  6
CENTER
 62
     1
  5
196
 10
147.633827
 20
-302.433102
 30
0.0
 11
147.633827
 21
-289.683102
 31
0.0
  0
LINE
  8
0
  6
CENTER
 62
     1
  5
197
 10
197.633827
 20
-301.058102
 30
0.0
 11
197.633827
 21
-188.808102
 31
0.0
  0
LINE
  8
0
  6
CENTER
 62
     1
  5
198
 10
147.633827
 20
276.391055
 30
0.0
 11
147.633827
 21
231.516055
 31
0.0
  0
LINE
  8
0
  6
CENTER
 62
     1
  5
199
 10
-147.221304
 20
276.391055
 30
0.0
 11
-147.221304
 21
231.516055
 31
0.0
  0
LINE
  8
0
  6
CENTER
 62
     1
  5
19A
 10
-100.721304
 20
276.391055
 30
0.0
 11
-100.721304
 21
231.516055
 31
0.0
  0
LINE
  8
0
  6
CENTER
 62
     1
  5
19B
 10
490.154666
 20
276.391055
 30
0.0
 11
490.154666
 21
231.516055
 31
0.0
  0
LINE
  8
0
  6
CONTINUOUS
 62
     7
  5
19C
 10
560.404666
 20
264.516055
 30
0.0
 11
383.404666
 21
264.516055
 31
0.0
  0
LINE
  8
0
  6
CONTINUOUS
 62
     7
  5
19D
 10
6.028696
 20
264.516055
 30
0.0
 11
-170.971304
 21
264.516055
 31
0.0
  0
LINE
  8
0
  6
CENTER
 62
     1
  5
19E
 10
138.133827
 20
584.458856
 30
0.0
 11
157.133827
 21
584.458856
 31
0.0
  0
LINE
  8
0
  6
CENTER
 62
     1
  5
19F
 10
147.633827
 20
574.958856
 30
0.0
 11
147.633827
 21
593.958856
 31
0.0
  0
LINE
  8
0
  6
CENTER
 62
     1
  5
1A0
 10
138.133827
 20
537.958856
 30
0.0
 11
157.133827
 21
537.958856
 31
0.0
  0
LINE
  8
0
  6
CENTER
 62
     1
  5
1A1
 10
147.633827
 20
528.458856
 30
0.0
 11
147.633827
 21
547.458856
 31
0.0
  0
LINE
  8
0
  6
CENTER
 62
     1
  5
1A2
 10
238.133827
 20
537.958856
 30
0.0
 11
257.133827
 21
537.958856
 31
0.0
  0
LINE
  8
0
  6
CENTER
 62
     1
  5
1A3
 10
247.633827
 20
528.458856
 30
0.0
 11
247.633827
 21
547.458856
 31
0.0
  0
LINE
  8
0
  6
CENTER
 62
     1
  5
1A4
 10
238.133827
 20
584.458856
 30
0.0
 11
257.133827
 21
584.458856
 31
0.0
  0
LINE
  8
0
  6
CENTER
 62
     1
  5
1A5
 10
247.633827
 20
574.958856
 30
0.0
 11
247.633827
 21
593.958856
 31
0.0
  0
ENDSEC
  0
EOF
