  0
SECTION
  2
HEADER
  9
$ACADVER
  1
AC1009
  9
$DWGCODEPAGE
  3
ansi_1252
  9
$INSBASE
 10
0.0
 20
0.0
 30
0.0
  9
$EXTMIN
 10
0.0
 20
-46.538544
 30
0.0
  9
$EXTMAX
 10
378.327613
 20
351.452882
 30
5.0
  9
$LIMMIN
 10
0.0
 20
-46.538544
  9
$LIMMAX
 10
378.327613
 20
351.452882
  9
$ORTHOMODE
 70
     0
  9
$REGENMODE
 70
     1
  9
$FILLMODE
 70
     1
  9
$QTEXTMODE
 70
     0
  9
$MIRRTEXT
 70
     1
  9
$DRAGMODE
 70
     2
  9
$LTSCALE
 40
10.0
  9
$OSMODE
 70
     0
  9
$ATTMODE
 70
     1
  9
$TEXTSIZE
 40
0.2
  9
$TRACEWID
 40
0.05
  9
$TEXTSTYLE
  7
STANDARD
  9
$CLAYER
  8
0
  9
$CELTYPE
  6
CONTINUOUS
  9
$CECOLOR
 62
   256
  9
$DIMSCALE
 40
1.0
  9
$DIMASZ
 40
1.25
  9
$DIMEXO
 40
1.0
  9
$DIMDLI
 40
0.38
  9
$DIMRND
 40
0.0
  9
$DIMDLE
 40
0.0
  9
$DIMEXE
 40
0.75
  9
$DIMTP
 40
0.0
  9
$DIMTM
 40
0.0
  9
$DIMTXT
 40
2.5
  9
$DIMCEN
 40
0.09
  9
$DIMTSZ
 40
0.0
  9
$DIMTOL
 70
     0
  9
$DIMLIM
 70
     0
  9
$DIMTIH
 70
     0
  9
$DIMTOH
 70
     0
  9
$DIMSE1
 70
     0
  9
$DIMSE2
 70
     0
  9
$DIMTAD
 70
     1
  9
$DIMZIN
 70
     0
  9
$DIMBLK
  1

  9
$DIMASO
 70
     1
  9
$DIMSHO
 70
     1
  9
$DIMPOST
  1

  9
$DIMAPOST
  1

  9
$DIMALT
 70
     0
  9
$DIMALTD
 70
     2
  9
$DIMALTF
 40
25.4
  9
$DIMLFAC
 40
1.0
  9
$DIMTOFL
 70
     0
  9
$DIMTVP
 40
0.0
  9
$DIMTIX
 70
     0
  9
$DIMSOXD
 70
     0
  9
$DIMSAH
 70
     0
  9
$DIMBLK1
  1

  9
$DIMBLK2
  1

  9
$DIMSTYLE
  2
STANDARD
  9
$DIMCLRD
 70
     7
  9
$DIMCLRE
 70
     7
  9
$DIMCLRT
 70
     7
  9
$DIMTFAC
 40
0.8
  9
$DIMGAP
 40
1.25
  9
$LUNITS
 70
     2
  9
$LUPREC
 70
     4
  9
$AXISMODE
 70
     0
  9
$AXISUNIT
 10
0.0
 20
0.0
  9
$SKETCHINC
 40
0.1
  9
$FILLETRAD
 40
0.0
  9
$AUNITS
 70
     0
  9
$AUPREC
 70
     0
  9
$MENU
  1
acad
  9
$ELEVATION
 40
0.0
  9
$PELEVATION
 40
0.0
  9
$THICKNESS
 40
0.0
  9
$LIMCHECK
 70
     0
  9
$BLIPMODE
 70
     1
  9
$CHAMFERA
 40
0.0
  9
$CHAMFERB
 40
0.0
  9
$SKPOLY
 70
     0
  9
$TDCREATE
 40
2454334.738125000
  9
$TDUPDATE
 40
2454334.654479167
  9
$TDINDWG
 40
0.0000000000
  9
$TDUSRTIMER
 40
0.0000000000
  9
$USRTIMER
 70
     1
  9
$ANGBASE
 50
0.0
  9
$ANGDIR
 70
     0
  9
$PDMODE
 70
     0
  9
$PDSIZE
 40
0.0
  9
$PLINEWID
 40
0.0
  9
$COORDS
 70
     0
  9
$SPLFRAME
 70
     0
  9
$SPLINETYPE
 70
     6
  9
$SPLINESEGS
 70
     8
  9
$ATTDIA
 70
     0
  9
$ATTREQ
 70
     1
  9
$HANDLING
 70
     1
  9
$HANDSEED
  5
133
  9
$SURFTAB1
 70
     6
  9
$SURFTAB2
 70
     6
  9
$SURFTYPE
 70
     6
  9
$SURFU
 70
     6
  9
$SURFV
 70
     6
  9
$UCSNAME
  2

  9
$UCSORG
 10
0.0
 20
0.0
 30
0.0
  9
$UCSXDIR
 10
1.0
 20
0.0
 30
0.0
  9
$UCSYDIR
 10
0.0
 20
1.0
 30
0.0
  9
$PUCSNAME
  2

  9
$PUCSORG
 10
0.0
 20
0.0
 30
0.0
  9
$PUCSXDIR
 10
1.0
 20
0.0
 30
0.0
  9
$PUCSYDIR
 10
0.0
 20
1.0
 30
0.0
  9
$USERI1
 70
     0
  9
$USERI2
 70
     0
  9
$USERI3
 70
     0
  9
$USERI4
 70
     0
  9
$USERI5
 70
     0
  9
$USERR1
 40
0.0
  9
$USERR2
 40
0.0
  9
$USERR3
 40
0.0
  9
$USERR4
 40
0.0
  9
$USERR5
 40
0.0
  9
$WORLDVIEW
 70
     1
  9
$SHADEDGE
 70
     3
  9
$SHADEDIF
 70
    70
  9
$TILEMODE
 70
     1
  9
$MAXACTVP
 70
    16
  9
$PINSBASE
 10
0.0
 20
0.0
 30
0.0
  9
$PLIMCHECK
 70
     0
  9
$PEXTMIN
 10
1.000000E+20
 20
1.000000E+20
 30
1.000000E+20
  9
$PEXTMAX
 10
-1.000000E+20
 20
-1.000000E+20
 30
-1.000000E+20
  9
$PLIMMIN
 10
0.0
 20
0.0
  9
$PLIMMAX
 10
12.0
 20
9.0
  9
$UNITMODE
 70
     0
  9
$VISRETAIN
 70
     0
  9
$PLINEGEN
 70
     1
  9
$PSLTSCALE
 70
     0
  9
$TREEDEPTH
 70
  3020
  0
ENDSEC
  0
SECTION
  2
TABLES
  0
TABLE
  2
VPORT
 70
     1
  0
VPORT
  2
*ACTIVE
 70
     0
 10
0.0
 20
0.0
 11
1.0
 21
1.0
 12
6.591288
 22
4.579184
 13
0.0
 23
0.0
 14
1.0
 24
1.0
 15
0.0
 25
0.0
 16
0.0
 26
0.0
 36
1.0
 17
0.0
 27
0.0
 37
0.0
 40
9.158369
 41
0.688564
 42
50.0
 43
0.0
 44
0.0
 50
0.0
 51
0.0
 71
     0
 72
   100
 73
     1
 74
     1
 75
     0
 76
     0
 77
     0
 78
     0
  0
ENDTAB
  0
TABLE
  2
LTYPE
 70
     2
  0
LTYPE
  2
CONTINUOUS
 70
    64
  3
Solid line
 72
    65
 73
     0
 40
0.0
  0
LTYPE
  2
CENTER
 70
    64
  3
____ _ ____ _ ____ _ ____ _ ____ _ ____ _ ____
 72
    65
 73
     4
 40
2.0
 49
1.25
 49
-0.25
 49
0.25
 49
-0.25
  0
ENDTAB
  0
TABLE
  2
LAYER
 70
     1
  0
LAYER
  2
0
 70
     0
 62
     7
  6
CONTINUOUS
  0
ENDTAB
  0
TABLE
  2
STYLE
 70
     1
  0
STYLE
  2
STANDARD
 70
     0
 40
0.0
 41
1.0
 50
0.0
 71
     0
 42
0.0
  3
IsonormD
  4

  0
ENDTAB
  0
TABLE
  2
VIEW
 70
     0
  0
ENDTAB
  0
TABLE
  2
UCS
 70
     0
  0
ENDTAB
  0
TABLE
  2
APPID
 70
     2
  0
APPID
  2
ACAD
 70
     0
  0
APPID
  2
TopSolid_Draft
 70
     0
  0
ENDTAB
  0
TABLE
  2
DIMSTYLE
 70
     1
  0
DIMSTYLE
  2
STANDARD
 70
     0
  3

  4

  5

  6

  7

 40
1.0
 41
1.25
 42
1.0
 43
0.38
 44
0.75
 45
0.0
 46
0.0
 47
0.0
 48
0.0
 71
     0
 72
     0
 73
     0
 74
     0
 75
     0
 76
     0
 77
     1
 78
     0
140
2.5
141
0.09
142
0.0
143
25.4
144
1.0
145
0.0
146
0.8
147
1.25
170
     0
171
     2
172
     0
173
     0
174
     0
175
     0
176
     7
177
     7
178
     7
  0
ENDTAB
  0
ENDSEC
  0
SECTION
  2
BLOCKS
  0
BLOCK
  8
0
  5
25
  2
AID3
 70
     0
 10
0.0
 20
0.0
 30
0.0
  3
#draft view
  0
LINE
  8
0
  6
CONTINUOUS
 62
     7
  5
26
 10
75.340467
 20
140.223229
 30
0.0
 11
75.340467
 21
128.223229
 31
0.0
  0
LINE
  8
0
  6
CONTINUOUS
 62
     7
  5
27
 10
75.340467
 20
128.223229
 30
0.0
 11
72.340467
 21
128.223229
 31
0.0
  0
LINE
  8
0
  6
CONTINUOUS
 62
     7
  5
28
 10
72.340467
 20
128.223229
 30
0.0
 11
72.340467
 21
140.223229
 31
0.0
  0
LINE
  8
0
  6
CONTINUOUS
 62
     7
  5
29
 10
72.340467
 20
140.223229
 30
0.0
 11
75.340467
 21
140.223229
 31
0.0
  0
LINE
  8
0
  6
CONTINUOUS
 62
     7
  5
2A
 10
189.340467
 20
128.223229
 30
0.0
 11
189.340467
 21
140.223229
 31
0.0
  0
LINE
  8
0
  6
CONTINUOUS
 62
     7
  5
2B
 10
189.340467
 20
128.223229
 30
0.0
 11
75.340467
 21
128.223229
 31
0.0
  0
LINE
  8
0
  6
CONTINUOUS
 62
     7
  5
2C
 10
189.340467
 20
140.223229
 30
0.0
 11
75.340467
 21
140.223229
 31
0.0
  0
LINE
  8
0
  6
CONTINUOUS
 62
     7
  5
2D
 10
192.340467
 20
140.223229
 30
0.0
 11
192.340467
 21
128.223229
 31
0.0
  0
LINE
  8
0
  6
CONTINUOUS
 62
     7
  5
2E
 10
192.340467
 20
128.223229
 30
0.0
 11
189.340467
 21
128.223229
 31
0.0
  0
LINE
  8
0
  6
CONTINUOUS
 62
     7
  5
2F
 10
189.340467
 20
140.223229
 30
0.0
 11
192.340467
 21
140.223229
 31
0.0
  0
LINE
  8
0
  6
CONTINUOUS
 62
     7
  5
30
 10
104.090467
 20
186.223229
 30
0.0
 11
114.090467
 21
186.223229
 31
0.0
  0
LINE
  8
0
  6
CONTINUOUS
 62
     7
  5
31
 10
114.090467
 20
180.223229
 30
0.0
 11
104.090467
 21
180.223229
 31
0.0
  0
LINE
  8
0
  6
CONTINUOUS
 62
     7
  5
32
 10
150.590467
 20
180.223229
 30
0.0
 11
160.590467
 21
180.223229
 31
0.0
  0
LINE
  8
0
  6
CONTINUOUS
 62
     7
  5
33
 10
160.590467
 20
186.223229
 30
0.0
 11
150.590467
 21
186.223229
 31
0.0
  0
LINE
  8
0
  6
CONTINUOUS
 62
     7
  5
34
 10
86.340467
 20
116.348229
 30
0.0
 11
78.340467
 21
116.348229
 31
0.0
  0
LINE
  8
0
  6
CONTINUOUS
 62
     7
  5
35
 10
178.340467
 20
116.348229
 30
0.0
 11
186.340467
 21
116.348229
 31
0.0
  0
LINE
  8
0
  6
CONTINUOUS
 62
     7
  5
36
 10
185.715467
 20
115.723229
 30
0.0
 11
178.965467
 21
115.723229
 31
0.0
  0
LINE
  8
0
  6
CONTINUOUS
 62
     7
  5
37
 10
78.965467
 20
115.723229
 30
0.0
 11
85.715467
 21
115.723229
 31
0.0
  0
LINE
  8
0
  6
CONTINUOUS
 62
     7
  5
38
 10
111.590467
 20
124.023229
 30
0.0
 11
106.590467
 21
124.023229
 31
0.0
  0
LINE
  8
0
  6
CONTINUOUS
 62
     7
  5
39
 10
153.090467
 20
124.023229
 30
0.0
 11
158.090467
 21
124.023229
 31
0.0
  0
LINE
  8
0
  6
CONTINUOUS
 62
     7
  5
3A
 10
111.376108
 20
123.223229
 30
0.0
 11
106.804826
 21
123.223229
 31
0.0
  0
LINE
  8
0
  6
CONTINUOUS
 62
     7
  5
3B
 10
153.304826
 20
123.223229
 30
0.0
 11
157.876108
 21
123.223229
 31
0.0
  0
LINE
  8
0
  6
CONTINUOUS
 62
     7
  5
3C
 10
114.090467
 20
180.223229
 30
0.0
 11
114.090467
 21
186.223229
 31
0.0
  0
LINE
  8
0
  6
CONTINUOUS
 62
     7
  5
3D
 10
104.090467
 20
186.223229
 30
0.0
 11
104.090467
 21
180.223229
 31
0.0
  0
LINE
  8
0
  6
CONTINUOUS
 62
     7
  5
3E
 10
160.590467
 20
180.223229
 30
0.0
 11
160.590467
 21
186.223229
 31
0.0
  0
LINE
  8
0
  6
CONTINUOUS
 62
     7
  5
3F
 10
150.590467
 20
186.223229
 30
0.0
 11
150.590467
 21
180.223229
 31
0.0
  0
LINE
  8
0
  6
CONTINUOUS
 62
     7
  5
40
 10
106.090467
 20
180.223229
 30
0.0
 11
106.090467
 21
140.223229
 31
0.0
  0
LINE
  8
0
  6
CONTINUOUS
 62
     7
  5
41
 10
112.090467
 20
140.223229
 30
0.0
 11
112.090467
 21
180.223229
 31
0.0
  0
LINE
  8
0
  6
CONTINUOUS
 62
     7
  5
42
 10
152.590467
 20
180.223229
 30
0.0
 11
152.590467
 21
140.223229
 31
0.0
  0
LINE
  8
0
  6
CONTINUOUS
 62
     7
  5
43
 10
158.590467
 20
140.223229
 30
0.0
 11
158.590467
 21
180.223229
 31
0.0
  0
LINE
  8
0
  6
CONTINUOUS
 62
     7
  5
44
 10
78.340467
 20
128.223229
 30
0.0
 11
78.340467
 21
116.348229
 31
0.0
  0
LINE
  8
0
  6
CONTINUOUS
 62
     7
  5
45
 10
86.340467
 20
116.348229
 30
0.0
 11
86.340467
 21
128.223229
 31
0.0
  0
LINE
  8
0
  6
CONTINUOUS
 62
     7
  5
46
 10
178.340467
 20
116.348229
 30
0.0
 11
178.965467
 21
115.723229
 31
0.0
  0
LINE
  8
0
  6
CONTINUOUS
 62
     7
  5
47
 10
185.715467
 20
115.723229
 30
0.0
 11
186.340467
 21
116.348229
 31
0.0
  0
LINE
  8
0
  6
CONTINUOUS
 62
     7
  5
48
 10
78.340467
 20
116.348229
 30
0.0
 11
78.965467
 21
115.723229
 31
0.0
  0
LINE
  8
0
  6
CONTINUOUS
 62
     7
  5
49
 10
85.715467
 20
115.723229
 30
0.0
 11
86.340467
 21
116.348229
 31
0.0
  0
LINE
  8
0
  6
CONTINUOUS
 62
     7
  5
4A
 10
178.340467
 20
128.223229
 30
0.0
 11
178.340467
 21
116.348229
 31
0.0
  0
LINE
  8
0
  6
CONTINUOUS
 62
     7
  5
4B
 10
186.340467
 20
116.348229
 30
0.0
 11
186.340467
 21
128.223229
 31
0.0
  0
LINE
  8
0
  6
CONTINUOUS
 62
     7
  5
4C
 10
106.590467
 20
128.223229
 30
0.0
 11
106.590467
 21
124.023229
 31
0.0
  0
LINE
  8
0
  6
CONTINUOUS
 62
     7
  5
4D
 10
111.590467
 20
124.023229
 30
0.0
 11
111.590467
 21
128.223229
 31
0.0
  0
LINE
  8
0
  6
CONTINUOUS
 62
     7
  5
4E
 10
153.090467
 20
128.223229
 30
0.0
 11
153.090467
 21
124.023229
 31
0.0
  0
LINE
  8
0
  6
CONTINUOUS
 62
     7
  5
4F
 10
158.090467
 20
124.023229
 30
0.0
 11
158.090467
 21
128.223229
 31
0.0
  0
LINE
  8
0
  6
CONTINUOUS
 62
     7
  5
50
 10
106.590467
 20
124.023229
 30
0.0
 11
106.804826
 21
123.223229
 31
0.0
  0
LINE
  8
0
  6
CONTINUOUS
 62
     7
  5
51
 10
111.376108
 20
123.223229
 30
0.0
 11
111.590467
 21
124.023229
 31
0.0
  0
LINE
  8
0
  6
CONTINUOUS
 62
     7
  5
52
 10
153.090467
 20
124.023229
 30
0.0
 11
153.304826
 21
123.223229
 31
0.0
  0
LINE
  8
0
  6
CONTINUOUS
 62
     7
  5
53
 10
157.876108
 20
123.223229
 30
0.0
 11
158.090467
 21
124.023229
 31
0.0
  0
ENDBLK
  8
0
  5
54
  0
BLOCK
  8
0
  5
57
  2
AID99
 70
     0
 10
0.0
 20
0.0
 30
0.0
  3
#auxiliary draft view
  0
CIRCLE
  8
0
  6
CONTINUOUS
 62
     7
  5
58
 10
182.340467
 20
314.702882
 30
0.0
 40
3.375
210
0.0
220
0.0
230
1.0
  0
CIRCLE
  8
0
  6
CONTINUOUS
 62
     7
  5
59
 10
182.340467
 20
314.702882
 30
0.0
 40
4.0
210
0.0
220
0.0
230
1.0
  0
CIRCLE
  8
0
  6
CONTINUOUS
 62
     7
  5
5A
 10
82.340467
 20
314.702882
 30
0.0
 40
3.375
210
0.0
220
0.0
230
1.0
  0
CIRCLE
  8
0
  6
CONTINUOUS
 62
     7
  5
5B
 10
82.340467
 20
314.702882
 30
0.0
 40
4.0
210
0.0
220
0.0
230
1.0
  0
CIRCLE
  8
0
  6
CONTINUOUS
 62
     7
  5
5C
 10
82.340467
 20
268.202882
 30
0.0
 40
3.375
210
0.0
220
0.0
230
1.0
  0
CIRCLE
  8
0
  6
CONTINUOUS
 62
     7
  5
5D
 10
82.340467
 20
268.202882
 30
0.0
 40
4.0
210
0.0
220
0.0
230
1.0
  0
CIRCLE
  8
0
  6
CONTINUOUS
 62
     7
  5
5E
 10
182.340467
 20
268.202882
 30
0.0
 40
3.375
210
0.0
220
0.0
230
1.0
  0
CIRCLE
  8
0
  6
CONTINUOUS
 62
     7
  5
5F
 10
182.340467
 20
268.202882
 30
0.0
 40
4.0
210
0.0
220
0.0
230
1.0
  0
CIRCLE
  8
0
  6
CONTINUOUS
 62
     7
  5
60
 10
109.090467
 20
291.452882
 30
0.0
 40
2.285641
210
0.0
220
0.0
230
1.0
  0
CIRCLE
  8
0
  6
CONTINUOUS
 62
     7
  5
61
 10
109.090467
 20
291.452882
 30
0.0
 40
2.5
210
0.0
220
0.0
230
1.0
  0
CIRCLE
  8
0
  6
CONTINUOUS
 62
     7
  5
62
 10
155.590467
 20
291.452882
 30
0.0
 40
2.285641
210
0.0
220
0.0
230
1.0
  0
CIRCLE
  8
0
  6
CONTINUOUS
 62
     7
  5
63
 10
155.590467
 20
291.452882
 30
0.0
 40
2.5
210
0.0
220
0.0
230
1.0
  0
CIRCLE
  8
0
  6
CONTINUOUS
 62
     7
  5
64
 10
182.340467
 20
268.202882
 30
0.0
 40
4.5
210
0.0
220
0.0
230
1.0
  0
CIRCLE
  8
0
  6
CONTINUOUS
 62
     7
  5
65
 10
82.340467
 20
268.202882
 30
0.0
 40
4.5
210
0.0
220
0.0
230
1.0
  0
CIRCLE
  8
0
  6
CONTINUOUS
 62
     7
  5
66
 10
182.340467
 20
314.702882
 30
0.0
 40
4.5
210
0.0
220
0.0
230
1.0
  0
CIRCLE
  8
0
  6
CONTINUOUS
 62
     7
  5
67
 10
82.340467
 20
314.702882
 30
0.0
 40
4.5
210
0.0
220
0.0
230
1.0
  0
CIRCLE
  8
0
  6
CONTINUOUS
 62
     7
  5
68
 10
155.590467
 20
241.452882
 30
0.0
 40
3.0
210
0.0
220
0.0
230
1.0
  0
CIRCLE
  8
0
  6
CONTINUOUS
 62
     7
  5
69
 10
109.090467
 20
241.452882
 30
0.0
 40
3.0
210
0.0
220
0.0
230
1.0
  0
CIRCLE
  8
0
  6
CONTINUOUS
 62
     7
  5
6A
 10
155.590467
 20
341.452882
 30
0.0
 40
3.0
210
0.0
220
0.0
230
1.0
  0
CIRCLE
  8
0
  6
CONTINUOUS
 62
     7
  5
6B
 10
109.090467
 20
341.452882
 30
0.0
 40
3.0
210
0.0
220
0.0
230
1.0
  0
LINE
  8
0
  6
CONTINUOUS
 62
     7
  5
6C
 10
75.340467
 20
351.452882
 30
0.0
 11
72.340467
 21
348.452882
 31
0.0
  0
LINE
  8
0
  6
CONTINUOUS
 62
     7
  5
6D
 10
192.340467
 20
348.452882
 30
0.0
 11
189.340467
 21
351.452882
 31
0.0
  0
LINE
  8
0
  6
CONTINUOUS
 62
     7
  5
6E
 10
192.340467
 20
234.452882
 30
0.0
 11
192.340467
 21
348.452882
 31
0.0
  0
LINE
  8
0
  6
CONTINUOUS
 62
     7
  5
6F
 10
189.340467
 20
231.452882
 30
0.0
 11
192.340467
 21
234.452882
 31
0.0
  0
LINE
  8
0
  6
CONTINUOUS
 62
     7
  5
70
 10
75.340467
 20
231.452882
 30
0.0
 11
189.340467
 21
231.452882
 31
0.0
  0
LINE
  8
0
  6
CONTINUOUS
 62
     7
  5
71
 10
72.340467
 20
234.452882
 30
0.0
 11
75.340467
 21
231.452882
 31
0.0
  0
LINE
  8
0
  6
CONTINUOUS
 62
     7
  5
72
 10
72.340467
 20
348.452882
 30
0.0
 11
72.340467
 21
234.452882
 31
0.0
  0
LINE
  8
0
  6
CONTINUOUS
 62
     7
  5
73
 10
189.340467
 20
351.452882
 30
0.0
 11
75.340467
 21
351.452882
 31
0.0
  0
CIRCLE
  8
0
  6
CONTINUOUS
 62
     7
  5
74
 10
155.590467
 20
341.452882
 30
0.0
 40
2.459
210
0.0
220
0.0
230
1.0
  0
CIRCLE
  8
0
  6
CONTINUOUS
 62
     7
  5
75
 10
109.090467
 20
341.452882
 30
0.0
 40
2.459
210
0.0
220
0.0
230
1.0
  0
CIRCLE
  8
0
  6
CONTINUOUS
 62
     7
  5
76
 10
155.590467
 20
241.452882
 30
0.0
 40
2.459
210
0.0
220
0.0
230
1.0
  0
CIRCLE
  8
0
  6
CONTINUOUS
 62
     7
  5
77
 10
109.090467
 20
241.452882
 30
0.0
 40
2.459
210
0.0
220
0.0
230
1.0
  0
ENDBLK
  8
0
  5
78
  0
BLOCK
  8
0
  5
7B
  2
AID167
 70
     0
 10
0.0
 20
0.0
 30
0.0
  3
#auxiliary draft view
  0
LINE
  8
0
  6
CONTINUOUS
 62
     7
  5
7C
 10
106.590467
 20
64.904831
 30
0.0
 11
109.090467
 21
66.348207
 31
0.0
  0
LINE
  8
0
  6
CONTINUOUS
 62
     7
  5
7D
 10
106.590467
 20
62.01808
 30
0.0
 11
106.590467
 21
64.904831
 31
0.0
  0
LINE
  8
0
  6
CONTINUOUS
 62
     7
  5
7E
 10
109.090467
 20
60.574704
 30
0.0
 11
106.590467
 21
62.01808
 31
0.0
  0
LINE
  8
0
  6
CONTINUOUS
 62
     7
  5
7F
 10
111.590467
 20
62.01808
 30
0.0
 11
109.090467
 21
60.574704
 31
0.0
  0
LINE
  8
0
  6
CONTINUOUS
 62
     7
  5
80
 10
111.590467
 20
64.904831
 30
0.0
 11
111.590467
 21
62.01808
 31
0.0
  0
LINE
  8
0
  6
CONTINUOUS
 62
     7
  5
81
 10
109.090467
 20
66.348207
 30
0.0
 11
111.590467
 21
64.904831
 31
0.0
  0
CIRCLE
  8
0
  6
CONTINUOUS
 62
     7
  5
82
 10
109.090467
 20
63.461456
 30
0.0
 40
5.0
210
0.0
220
0.0
230
1.0
  0
LINE
  8
0
  6
CONTINUOUS
 62
     7
  5
83
 10
158.090467
 20
-37.98192
 30
0.0
 11
155.590467
 21
-39.425296
 31
0.0
  0
LINE
  8
0
  6
CONTINUOUS
 62
     7
  5
84
 10
158.090467
 20
-35.095169
 30
0.0
 11
158.090467
 21
-37.98192
 31
0.0
  0
LINE
  8
0
  6
CONTINUOUS
 62
     7
  5
85
 10
155.590467
 20
-33.651793
 30
0.0
 11
158.090467
 21
-35.095169
 31
0.0
  0
LINE
  8
0
  6
CONTINUOUS
 62
     7
  5
86
 10
153.090467
 20
-35.095169
 30
0.0
 11
155.590467
 21
-33.651793
 31
0.0
  0
CIRCLE
  8
0
  6
CONTINUOUS
 62
     7
  5
87
 10
155.590467
 20
-36.538544
 30
0.0
 40
5.0
210
0.0
220
0.0
230
1.0
  0
LINE
  8
0
  6
CONTINUOUS
 62
     7
  5
88
 10
153.090467
 20
-37.98192
 30
0.0
 11
153.090467
 21
-35.095169
 31
0.0
  0
LINE
  8
0
  6
CONTINUOUS
 62
     7
  5
89
 10
155.590467
 20
-39.425296
 30
0.0
 11
153.090467
 21
-37.98192
 31
0.0
  0
LINE
  8
0
  6
CONTINUOUS
 62
     7
  5
8A
 10
111.590467
 20
-37.98192
 30
0.0
 11
111.590467
 21
-35.095169
 31
0.0
  0
CIRCLE
  8
0
  6
CONTINUOUS
 62
     7
  5
8B
 10
109.090467
 20
-36.538544
 30
0.0
 40
5.0
210
0.0
220
0.0
230
1.0
  0
LINE
  8
0
  6
CONTINUOUS
 62
     7
  5
8C
 10
109.090467
 20
-39.425296
 30
0.0
 11
111.590467
 21
-37.98192
 31
0.0
  0
LINE
  8
0
  6
CONTINUOUS
 62
     7
  5
8D
 10
106.590467
 20
-35.095169
 30
0.0
 11
106.590467
 21
-37.98192
 31
0.0
  0
LINE
  8
0
  6
CONTINUOUS
 62
     7
  5
8E
 10
109.090467
 20
-33.651793
 30
0.0
 11
106.590467
 21
-35.095169
 31
0.0
  0
LINE
  8
0
  6
CONTINUOUS
 62
     7
  5
8F
 10
111.590467
 20
-35.095169
 30
0.0
 11
109.090467
 21
-33.651793
 31
0.0
  0
LINE
  8
0
  6
CONTINUOUS
 62
     7
  5
90
 10
106.590467
 20
-37.98192
 30
0.0
 11
109.090467
 21
-39.425296
 31
0.0
  0
LINE
  8
0
  6
CONTINUOUS
 62
     7
  5
91
 10
155.590467
 20
60.574704
 30
0.0
 11
158.090467
 21
62.01808
 31
0.0
  0
LINE
  8
0
  6
CONTINUOUS
 62
     7
  5
92
 10
158.090467
 20
62.01808
 30
0.0
 11
158.090467
 21
64.904831
 31
0.0
  0
LINE
  8
0
  6
CONTINUOUS
 62
     7
  5
93
 10
158.090467
 20
64.904831
 30
0.0
 11
155.590467
 21
66.348207
 31
0.0
  0
LINE
  8
0
  6
CONTINUOUS
 62
     7
  5
94
 10
155.590467
 20
66.348207
 30
0.0
 11
153.090467
 21
64.904831
 31
0.0
  0
CIRCLE
  8
0
  6
CONTINUOUS
 62
     7
  5
95
 10
155.590467
 20
63.461456
 30
0.0
 40
5.0
210
0.0
220
0.0
230
1.0
  0
LINE
  8
0
  6
CONTINUOUS
 62
     7
  5
96
 10
153.090467
 20
62.01808
 30
0.0
 11
155.590467
 21
60.574704
 31
0.0
  0
LINE
  8
0
  6
CONTINUOUS
 62
     7
  5
97
 10
153.090467
 20
64.904831
 30
0.0
 11
153.090467
 21
62.01808
 31
0.0
  0
CIRCLE
  8
0
  6
CONTINUOUS
 62
     7
  5
98
 10
109.090467
 20
13.461456
 30
0.0
 40
2.5
210
0.0
220
0.0
230
1.0
  0
CIRCLE
  8
0
  6
CONTINUOUS
 62
     7
  5
99
 10
155.590467
 20
13.461456
 30
0.0
 40
2.5
210
0.0
220
0.0
230
1.0
  0
CIRCLE
  8
0
  6
CONTINUOUS
 62
     7
  5
9A
 10
182.340467
 20
36.711456
 30
0.0
 40
7.5
210
0.0
220
0.0
230
1.0
  0
CIRCLE
  8
0
  6
CONTINUOUS
 62
     7
  5
9B
 10
82.340467
 20
36.711456
 30
0.0
 40
7.5
210
0.0
220
0.0
230
1.0
  0
CIRCLE
  8
0
  6
CONTINUOUS
 62
     7
  5
9C
 10
182.340467
 20
-9.788544
 30
0.0
 40
7.5
210
0.0
220
0.0
230
1.0
  0
CIRCLE
  8
0
  6
CONTINUOUS
 62
     7
  5
9D
 10
82.340467
 20
-9.788544
 30
0.0
 40
7.5
210
0.0
220
0.0
230
1.0
  0
LINE
  8
0
  6
CONTINUOUS
 62
     7
  5
9E
 10
192.340467
 20
70.461456
 30
0.0
 11
189.340467
 21
73.461456
 31
0.0
  0
LINE
  8
0
  6
CONTINUOUS
 62
     7
  5
9F
 10
192.340467
 20
70.461456
 30
0.0
 11
192.340467
 21
-43.538544
 31
0.0
  0
LINE
  8
0
  6
CONTINUOUS
 62
     7
  5
A0
 10
189.340467
 20
-46.538544
 30
0.0
 11
192.340467
 21
-43.538544
 31
0.0
  0
LINE
  8
0
  6
CONTINUOUS
 62
     7
  5
A1
 10
75.340467
 20
73.461456
 30
0.0
 11
72.340467
 21
70.461456
 31
0.0
  0
LINE
  8
0
  6
CONTINUOUS
 62
     7
  5
A2
 10
189.340467
 20
-46.538544
 30
0.0
 11
75.340467
 21
-46.538544
 31
0.0
  0
LINE
  8
0
  6
CONTINUOUS
 62
     7
  5
A3
 10
72.340467
 20
-43.538544
 30
0.0
 11
72.340467
 21
70.461456
 31
0.0
  0
LINE
  8
0
  6
CONTINUOUS
 62
     7
  5
A4
 10
72.340467
 20
-43.538544
 30
0.0
 11
75.340467
 21
-46.538544
 31
0.0
  0
LINE
  8
0
  6
CONTINUOUS
 62
     7
  5
A5
 10
75.340467
 20
73.461456
 30
0.0
 11
189.340467
 21
73.461456
 31
0.0
  0
LINE
  8
0
  6
CONTINUOUS
 62
     7
  5
A6
 10
79.340467
 20
38.443507
 30
0.0
 11
82.340467
 21
40.175557
 31
0.0
  0
LINE
  8
0
  6
CONTINUOUS
 62
     7
  5
A7
 10
79.340467
 20
34.979405
 30
0.0
 11
79.340467
 21
38.443507
 31
0.0
  0
LINE
  8
0
  6
CONTINUOUS
 62
     7
  5
A8
 10
82.340467
 20
33.247354
 30
0.0
 11
79.340467
 21
34.979405
 31
0.0
  0
LINE
  8
0
  6
CONTINUOUS
 62
     7
  5
A9
 10
85.340467
 20
34.979405
 30
0.0
 11
82.340467
 21
33.247354
 31
0.0
  0
LINE
  8
0
  6
CONTINUOUS
 62
     7
  5
AA
 10
85.340467
 20
38.443507
 30
0.0
 11
85.340467
 21
34.979405
 31
0.0
  0
LINE
  8
0
  6
CONTINUOUS
 62
     7
  5
AB
 10
82.340467
 20
40.175557
 30
0.0
 11
85.340467
 21
38.443507
 31
0.0
  0
CIRCLE
  8
0
  6
CONTINUOUS
 62
     7
  5
AC
 10
82.340467
 20
36.711456
 30
0.0
 40
6.5
210
0.0
220
0.0
230
1.0
  0
LINE
  8
0
  6
CONTINUOUS
 62
     7
  5
AD
 10
185.340467
 20
-11.520595
 30
0.0
 11
182.340467
 21
-13.252646
 31
0.0
  0
LINE
  8
0
  6
CONTINUOUS
 62
     7
  5
AE
 10
185.340467
 20
-8.056493
 30
0.0
 11
185.340467
 21
-11.520595
 31
0.0
  0
LINE
  8
0
  6
CONTINUOUS
 62
     7
  5
AF
 10
182.340467
 20
-6.324443
 30
0.0
 11
185.340467
 21
-8.056493
 31
0.0
  0
LINE
  8
0
  6
CONTINUOUS
 62
     7
  5
B0
 10
179.340467
 20
-8.056493
 30
0.0
 11
182.340467
 21
-6.324443
 31
0.0
  0
LINE
  8
0
  6
CONTINUOUS
 62
     7
  5
B1
 10
179.340467
 20
-11.520595
 30
0.0
 11
179.340467
 21
-8.056493
 31
0.0
  0
CIRCLE
  8
0
  6
CONTINUOUS
 62
     7
  5
B2
 10
182.340467
 20
-9.788544
 30
0.0
 40
6.5
210
0.0
220
0.0
230
1.0
  0
LINE
  8
0
  6
CONTINUOUS
 62
     7
  5
B3
 10
182.340467
 20
-13.252646
 30
0.0
 11
179.340467
 21
-11.520595
 31
0.0
  0
LINE
  8
0
  6
CONTINUOUS
 62
     7
  5
B4
 10
179.340467
 20
38.443507
 30
0.0
 11
179.340467
 21
34.979405
 31
0.0
  0
LINE
  8
0
  6
CONTINUOUS
 62
     7
  5
B5
 10
185.340467
 20
38.443507
 30
0.0
 11
182.340467
 21
40.175557
 31
0.0
  0
LINE
  8
0
  6
CONTINUOUS
 62
     7
  5
B6
 10
182.340467
 20
40.175557
 30
0.0
 11
179.340467
 21
38.443507
 31
0.0
  0
CIRCLE
  8
0
  6
CONTINUOUS
 62
     7
  5
B7
 10
182.340467
 20
36.711456
 30
0.0
 40
6.5
210
0.0
220
0.0
230
1.0
  0
LINE
  8
0
  6
CONTINUOUS
 62
     7
  5
B8
 10
185.340467
 20
34.979405
 30
0.0
 11
185.340467
 21
38.443507
 31
0.0
  0
LINE
  8
0
  6
CONTINUOUS
 62
     7
  5
B9
 10
179.340467
 20
34.979405
 30
0.0
 11
182.340467
 21
33.247354
 31
0.0
  0
LINE
  8
0
  6
CONTINUOUS
 62
     7
  5
BA
 10
182.340467
 20
33.247354
 30
0.0
 11
185.340467
 21
34.979405
 31
0.0
  0
CIRCLE
  8
0
  6
CONTINUOUS
 62
     7
  5
BB
 10
82.340467
 20
-9.788544
 30
0.0
 40
6.5
210
0.0
220
0.0
230
1.0
  0
LINE
  8
0
  6
CONTINUOUS
 62
     7
  5
BC
 10
79.340467
 20
-11.520595
 30
0.0
 11
82.340467
 21
-13.252646
 31
0.0
  0
LINE
  8
0
  6
CONTINUOUS
 62
     7
  5
BD
 10
79.340467
 20
-8.056493
 30
0.0
 11
79.340467
 21
-11.520595
 31
0.0
  0
LINE
  8
0
  6
CONTINUOUS
 62
     7
  5
BE
 10
82.340467
 20
-13.252646
 30
0.0
 11
85.340467
 21
-11.520595
 31
0.0
  0
LINE
  8
0
  6
CONTINUOUS
 62
     7
  5
BF
 10
85.340467
 20
-8.056493
 30
0.0
 11
82.340467
 21
-6.324443
 31
0.0
  0
LINE
  8
0
  6
CONTINUOUS
 62
     7
  5
C0
 10
82.340467
 20
-6.324443
 30
0.0
 11
79.340467
 21
-8.056493
 31
0.0
  0
LINE
  8
0
  6
CONTINUOUS
 62
     7
  5
C1
 10
85.340467
 20
-11.520595
 30
0.0
 11
85.340467
 21
-8.056493
 31
0.0
  0
ENDBLK
  8
0
  5
C2
  0
BLOCK
  8
0
  5
C5
  2
AID311
 70
     0
 10
0.0
 20
0.0
 30
0.0
  3
#auxiliary draft view
  0
LINE
  8
0
  6
CONTINUOUS
 62
     7
  5
C6
 10
375.327613
 20
128.223229
 30
0.0
 11
375.327613
 21
140.223229
 31
0.0
  0
LINE
  8
0
  6
CONTINUOUS
 62
     7
  5
C7
 10
375.327613
 20
128.223229
 30
0.0
 11
261.327613
 21
128.223229
 31
0.0
  0
LINE
  8
0
  6
CONTINUOUS
 62
     7
  5
C8
 10
261.327613
 20
140.223229
 30
0.0
 11
261.327613
 21
128.223229
 31
0.0
  0
LINE
  8
0
  6
CONTINUOUS
 62
     7
  5
C9
 10
375.327613
 20
140.223229
 30
0.0
 11
261.327613
 21
140.223229
 31
0.0
  0
LINE
  8
0
  6
CONTINUOUS
 62
     7
  5
CA
 10
378.327613
 20
140.223229
 30
0.0
 11
378.327613
 21
128.223229
 31
0.0
  0
LINE
  8
0
  6
CONTINUOUS
 62
     7
  5
CB
 10
378.327613
 20
128.223229
 30
0.0
 11
375.327613
 21
128.223229
 31
0.0
  0
LINE
  8
0
  6
CONTINUOUS
 62
     7
  5
CC
 10
375.327613
 20
140.223229
 30
0.0
 11
378.327613
 21
140.223229
 31
0.0
  0
LINE
  8
0
  6
CONTINUOUS
 62
     7
  5
CD
 10
258.327613
 20
128.223229
 30
0.0
 11
258.327613
 21
140.223229
 31
0.0
  0
LINE
  8
0
  6
CONTINUOUS
 62
     7
  5
CE
 10
261.327613
 20
128.223229
 30
0.0
 11
258.327613
 21
128.223229
 31
0.0
  0
LINE
  8
0
  6
CONTINUOUS
 62
     7
  5
CF
 10
258.327613
 20
140.223229
 30
0.0
 11
261.327613
 21
140.223229
 31
0.0
  0
LINE
  8
0
  6
CONTINUOUS
 62
     7
  5
D0
 10
338.202613
 20
115.723229
 30
0.0
 11
344.952613
 21
115.723229
 31
0.0
  0
LINE
  8
0
  6
CONTINUOUS
 62
     7
  5
D1
 10
345.577613
 20
116.348229
 30
0.0
 11
337.577613
 21
116.348229
 31
0.0
  0
LINE
  8
0
  6
CONTINUOUS
 62
     7
  5
D2
 10
298.452613
 20
115.723229
 30
0.0
 11
291.702613
 21
115.723229
 31
0.0
  0
LINE
  8
0
  6
CONTINUOUS
 62
     7
  5
D3
 10
291.077613
 20
116.348229
 30
0.0
 11
299.077613
 21
116.348229
 31
0.0
  0
LINE
  8
0
  6
CONTINUOUS
 62
     7
  5
D4
 10
363.327613
 20
186.223229
 30
0.0
 11
373.327613
 21
186.223229
 31
0.0
  0
LINE
  8
0
  6
CONTINUOUS
 62
     7
  5
D5
 10
373.327613
 20
180.223229
 30
0.0
 11
368.327613
 21
180.223229
 31
0.0
  0
LINE
  8
0
  6
CONTINUOUS
 62
     7
  5
D6
 10
368.327613
 20
180.223229
 30
0.0
 11
363.327613
 21
180.223229
 31
0.0
  0
LINE
  8
0
  6
CONTINUOUS
 62
     7
  5
D7
 10
273.327613
 20
186.223229
 30
0.0
 11
263.327613
 21
186.223229
 31
0.0
  0
LINE
  8
0
  6
CONTINUOUS
 62
     7
  5
D8
 10
263.327613
 20
180.223229
 30
0.0
 11
268.327613
 21
180.223229
 31
0.0
  0
LINE
  8
0
  6
CONTINUOUS
 62
     7
  5
D9
 10
268.327613
 20
180.223229
 30
0.0
 11
273.327613
 21
180.223229
 31
0.0
  0
LINE
  8
0
  6
CONTINUOUS
 62
     7
  5
DA
 10
320.827613
 20
144.573229
 30
0.0
 11
318.327613
 21
144.573229
 31
0.0
  0
LINE
  8
0
  6
CONTINUOUS
 62
     7
  5
DB
 10
318.327613
 20
144.573229
 30
0.0
 11
315.827613
 21
144.573229
 31
0.0
  0
LINE
  8
0
  6
CONTINUOUS
 62
     7
  5
DC
 10
320.827613
 20
124.023229
 30
0.0
 11
315.827613
 21
124.023229
 31
0.0
  0
LINE
  8
0
  6
CONTINUOUS
 62
     7
  5
DD
 10
320.613254
 20
123.223229
 30
0.0
 11
318.327613
 21
123.223229
 31
0.0
  0
LINE
  8
0
  6
CONTINUOUS
 62
     7
  5
DE
 10
318.327613
 20
123.223229
 30
0.0
 11
316.041973
 21
123.223229
 31
0.0
  0
LINE
  8
0
  6
CONTINUOUS
 62
     7
  5
DF
 10
337.577613
 20
116.348229
 30
0.0
 11
338.202613
 21
115.723229
 31
0.0
  0
LINE
  8
0
  6
CONTINUOUS
 62
     7
  5
E0
 10
344.952613
 20
115.723229
 30
0.0
 11
345.577613
 21
116.348229
 31
0.0
  0
LINE
  8
0
  6
CONTINUOUS
 62
     7
  5
E1
 10
291.077613
 20
116.348229
 30
0.0
 11
291.702613
 21
115.723229
 31
0.0
  0
LINE
  8
0
  6
CONTINUOUS
 62
     7
  5
E2
 10
298.452613
 20
115.723229
 30
0.0
 11
299.077613
 21
116.348229
 31
0.0
  0
LINE
  8
0
  6
CONTINUOUS
 62
     7
  5
E3
 10
337.577613
 20
128.223229
 30
0.0
 11
337.577613
 21
116.348229
 31
0.0
  0
LINE
  8
0
  6
CONTINUOUS
 62
     7
  5
E4
 10
345.577613
 20
116.348229
 30
0.0
 11
345.577613
 21
128.223229
 31
0.0
  0
LINE
  8
0
  6
CONTINUOUS
 62
     7
  5
E5
 10
291.077613
 20
128.223229
 30
0.0
 11
291.077613
 21
116.348229
 31
0.0
  0
LINE
  8
0
  6
CONTINUOUS
 62
     7
  5
E6
 10
299.077613
 20
116.348229
 30
0.0
 11
299.077613
 21
128.223229
 31
0.0
  0
LINE
  8
0
  6
CONTINUOUS
 62
     7
  5
E7
 10
373.327613
 20
180.223229
 30
0.0
 11
373.327613
 21
186.223229
 31
0.0
  0
LINE
  8
0
  6
CONTINUOUS
 62
     7
  5
E8
 10
363.327613
 20
186.223229
 30
0.0
 11
363.327613
 21
180.223229
 31
0.0
  0
LINE
  8
0
  6
CONTINUOUS
 62
     7
  5
E9
 10
273.327613
 20
180.223229
 30
0.0
 11
273.327613
 21
186.223229
 31
0.0
  0
LINE
  8
0
  6
CONTINUOUS
 62
     7
  5
EA
 10
263.327613
 20
186.223229
 30
0.0
 11
263.327613
 21
180.223229
 31
0.0
  0
LINE
  8
0
  6
CONTINUOUS
 62
     7
  5
EB
 10
365.327613
 20
180.223229
 30
0.0
 11
365.327613
 21
140.223229
 31
0.0
  0
LINE
  8
0
  6
CONTINUOUS
 62
     7
  5
EC
 10
371.327613
 20
140.223229
 30
0.0
 11
371.327613
 21
180.223229
 31
0.0
  0
LINE
  8
0
  6
CONTINUOUS
 62
     7
  5
ED
 10
265.327613
 20
180.223229
 30
0.0
 11
265.327613
 21
140.223229
 31
0.0
  0
LINE
  8
0
  6
CONTINUOUS
 62
     7
  5
EE
 10
271.327613
 20
140.223229
 30
0.0
 11
271.327613
 21
180.223229
 31
0.0
  0
LINE
  8
0
  6
CONTINUOUS
 62
     7
  5
EF
 10
315.827613
 20
144.573229
 30
0.0
 11
315.827613
 21
140.223229
 31
0.0
  0
LINE
  8
0
  6
CONTINUOUS
 62
     7
  5
F0
 10
320.827613
 20
140.223229
 30
0.0
 11
320.827613
 21
144.573229
 31
0.0
  0
LINE
  8
0
  6
CONTINUOUS
 62
     7
  5
F1
 10
315.827613
 20
128.223229
 30
0.0
 11
315.827613
 21
124.023229
 31
0.0
  0
LINE
  8
0
  6
CONTINUOUS
 62
     7
  5
F2
 10
320.827613
 20
124.023229
 30
0.0
 11
320.827613
 21
128.223229
 31
0.0
  0
LINE
  8
0
  6
CONTINUOUS
 62
     7
  5
F3
 10
315.827613
 20
124.023229
 30
0.0
 11
316.041973
 21
123.223229
 31
0.0
  0
LINE
  8
0
  6
CONTINUOUS
 62
     7
  5
F4
 10
320.613254
 20
123.223229
 30
0.0
 11
320.827613
 21
124.023229
 31
0.0
  0
ARC
  8
0
  6
CONTINUOUS
 62
     7
  5
F5
 10
318.362144
 20
140.223348
 30
0.0
 40
5.0
 50
60.455868
 51
90.0
210
0.0
220
0.0
230
1.0
  0
ARC
  8
0
  6
CONTINUOUS
 62
     7
  5
F6
 10
318.293082
 20
140.223348
 30
0.0
 40
5.0
 50
90.0
 51
119.544132
210
0.0
220
0.0
230
1.0
  0
LINE
  8
0
  6
CONTINUOUS
 62
     7
  5
F7
 10
318.362144
 20
145.223348
 30
0.0
 11
318.293082
 21
145.223348
 31
0.0
  0
ENDBLK
  8
0
  5
F8
  0
ENDSEC
  0
SECTION
  2
ENTITIES
  0
INSERT
  8
0
  5
55
  2
AID3
 10
0.0
 20
0.0
 30
0.0
  0
INSERT
  8
0
  5
79
  2
AID99
 10
0.0
 20
0.0
 30
0.0
  0
INSERT
  8
0
  5
C3
  2
AID167
 10
0.0
 20
0.0
 30
0.0
  0
INSERT
  8
0
  5
F9
  2
AID311
 10
0.0
 20
0.0
 30
0.0
  0
LINE
  8
0
  6
CENTER
 62
     1
  5
FB
 10
74.840467
 20
268.202882
 30
0.0
 11
89.840467
 21
268.202882
 31
0.0
  0
LINE
  8
0
  6
CENTER
 62
     1
  5
FC
 10
82.340467
 20
260.702882
 30
0.0
 11
82.340467
 21
275.702882
 31
0.0
  0
LINE
  8
0
  6
CENTER
 62
     1
  5
FD
 10
74.840467
 20
314.702882
 30
0.0
 11
89.840467
 21
314.702882
 31
0.0
  0
LINE
  8
0
  6
CENTER
 62
     1
  5
FE
 10
82.340467
 20
307.202882
 30
0.0
 11
82.340467
 21
322.202882
 31
0.0
  0
LINE
  8
0
  6
CENTER
 62
     1
  5
FF
 10
103.090467
 20
241.452882
 30
0.0
 11
115.090467
 21
241.452882
 31
0.0
  0
LINE
  8
0
  6
CENTER
 62
     1
  5
100
 10
109.090467
 20
235.452882
 30
0.0
 11
109.090467
 21
247.452882
 31
0.0
  0
LINE
  8
0
  6
CENTER
 62
     1
  5
101
 10
103.590467
 20
291.452882
 30
0.0
 11
114.590467
 21
291.452882
 31
0.0
  0
LINE
  8
0
  6
CENTER
 62
     1
  5
102
 10
109.090467
 20
285.952882
 30
0.0
 11
109.090467
 21
296.952882
 31
0.0
  0
LINE
  8
0
  6
CENTER
 62
     1
  5
103
 10
103.090467
 20
341.452882
 30
0.0
 11
115.090467
 21
341.452882
 31
0.0
  0
LINE
  8
0
  6
CENTER
 62
     1
  5
104
 10
109.090467
 20
335.452882
 30
0.0
 11
109.090467
 21
347.452882
 31
0.0
  0
LINE
  8
0
  6
CENTER
 62
     1
  5
105
 10
149.590467
 20
241.452882
 30
0.0
 11
161.590467
 21
241.452882
 31
0.0
  0
LINE
  8
0
  6
CENTER
 62
     1
  5
106
 10
155.590467
 20
235.452882
 30
0.0
 11
155.590467
 21
247.452882
 31
0.0
  0
LINE
  8
0
  6
CENTER
 62
     1
  5
107
 10
150.090467
 20
291.452882
 30
0.0
 11
161.090467
 21
291.452882
 31
0.0
  0
LINE
  8
0
  6
CENTER
 62
     1
  5
108
 10
155.590467
 20
285.952882
 30
0.0
 11
155.590467
 21
296.952882
 31
0.0
  0
LINE
  8
0
  6
CENTER
 62
     1
  5
109
 10
149.590467
 20
341.452882
 30
0.0
 11
161.590467
 21
341.452882
 31
0.0
  0
LINE
  8
0
  6
CENTER
 62
     1
  5
10A
 10
155.590467
 20
335.452882
 30
0.0
 11
155.590467
 21
347.452882
 31
0.0
  0
LINE
  8
0
  6
CENTER
 62
     1
  5
10B
 10
174.840467
 20
268.202882
 30
0.0
 11
189.840467
 21
268.202882
 31
0.0
  0
LINE
  8
0
  6
CENTER
 62
     1
  5
10C
 10
182.340467
 20
260.702882
 30
0.0
 11
182.340467
 21
275.702882
 31
0.0
  0
LINE
  8
0
  6
CENTER
 62
     1
  5
10D
 10
174.840467
 20
314.702882
 30
0.0
 11
189.840467
 21
314.702882
 31
0.0
  0
LINE
  8
0
  6
CENTER
 62
     1
  5
10E
 10
182.340467
 20
307.202882
 30
0.0
 11
182.340467
 21
322.202882
 31
0.0
  0
LINE
  8
0
  6
CENTER
 62
     1
  5
10F
 10
182.340467
 20
112.723229
 30
0.0
 11
182.340467
 21
134.723229
 31
0.0
  0
LINE
  8
0
  6
CENTER
 62
     1
  5
110
 10
155.590467
 20
120.223229
 30
0.0
 11
155.590467
 21
131.223229
 31
0.0
  0
LINE
  8
0
  6
CENTER
 62
     1
  5
111
 10
155.590467
 20
137.223229
 30
0.0
 11
155.590467
 21
189.223229
 31
0.0
  0
LINE
  8
0
  6
CENTER
 62
     1
  5
112
 10
109.090467
 20
120.223229
 30
0.0
 11
109.090467
 21
131.223229
 31
0.0
  0
LINE
  8
0
  6
CENTER
 62
     1
  5
113
 10
109.090467
 20
137.223229
 30
0.0
 11
109.090467
 21
189.223229
 31
0.0
  0
LINE
  8
0
  6
CENTER
 62
     1
  5
114
 10
82.340467
 20
112.723229
 30
0.0
 11
82.340467
 21
134.723229
 31
0.0
  0
LINE
  8
0
  6
CENTER
 62
     1
  5
115
 10
71.840467
 20
-9.788544
 30
0.0
 11
92.840467
 21
-9.788544
 31
0.0
  0
LINE
  8
0
  6
CENTER
 62
     1
  5
116
 10
82.340467
 20
-20.288544
 30
0.0
 11
82.340467
 21
0.711456
 31
0.0
  0
LINE
  8
0
  6
CENTER
 62
     1
  5
117
 10
71.840467
 20
36.711456
 30
0.0
 11
92.840467
 21
36.711456
 31
0.0
  0
LINE
  8
0
  6
CENTER
 62
     1
  5
118
 10
82.340467
 20
26.211456
 30
0.0
 11
82.340467
 21
47.211456
 31
0.0
  0
LINE
  8
0
  6
CENTER
 62
     1
  5
119
 10
101.090467
 20
-36.538544
 30
0.0
 11
117.090467
 21
-36.538544
 31
0.0
  0
LINE
  8
0
  6
CENTER
 62
     1
  5
11A
 10
109.090467
 20
-44.538544
 30
0.0
 11
109.090467
 21
-28.538544
 31
0.0
  0
LINE
  8
0
  6
CENTER
 62
     1
  5
11B
 10
103.590467
 20
13.461456
 30
0.0
 11
114.590467
 21
13.461456
 31
0.0
  0
LINE
  8
0
  6
CENTER
 62
     1
  5
11C
 10
109.090467
 20
7.961456
 30
0.0
 11
109.090467
 21
18.961456
 31
0.0
  0
LINE
  8
0
  6
CENTER
 62
     1
  5
11D
 10
101.090467
 20
63.461456
 30
0.0
 11
117.090467
 21
63.461456
 31
0.0
  0
LINE
  8
0
  6
CENTER
 62
     1
  5
11E
 10
109.090467
 20
55.461456
 30
0.0
 11
109.090467
 21
71.461456
 31
0.0
  0
LINE
  8
0
  6
CENTER
 62
     1
  5
11F
 10
147.590467
 20
-36.538544
 30
0.0
 11
163.590467
 21
-36.538544
 31
0.0
  0
LINE
  8
0
  6
CENTER
 62
     1
  5
120
 10
155.590467
 20
-44.538544
 30
0.0
 11
155.590467
 21
-28.538544
 31
0.0
  0
LINE
  8
0
  6
CENTER
 62
     1
  5
121
 10
150.090467
 20
13.461456
 30
0.0
 11
161.090467
 21
13.461456
 31
0.0
  0
LINE
  8
0
  6
CENTER
 62
     1
  5
122
 10
155.590467
 20
7.961456
 30
0.0
 11
155.590467
 21
18.961456
 31
0.0
  0
LINE
  8
0
  6
CENTER
 62
     1
  5
123
 10
147.590467
 20
63.461456
 30
0.0
 11
163.590467
 21
63.461456
 31
0.0
  0
LINE
  8
0
  6
CENTER
 62
     1
  5
124
 10
155.590467
 20
55.461456
 30
0.0
 11
155.590467
 21
71.461456
 31
0.0
  0
LINE
  8
0
  6
CENTER
 62
     1
  5
125
 10
171.840467
 20
-9.788544
 30
0.0
 11
192.840467
 21
-9.788544
 31
0.0
  0
LINE
  8
0
  6
CENTER
 62
     1
  5
126
 10
182.340467
 20
-20.288544
 30
0.0
 11
182.340467
 21
0.711456
 31
0.0
  0
LINE
  8
0
  6
CENTER
 62
     1
  5
127
 10
171.840467
 20
36.711456
 30
0.0
 11
192.840467
 21
36.711456
 31
0.0
  0
LINE
  8
0
  6
CENTER
 62
     1
  5
128
 10
182.340467
 20
26.211456
 30
0.0
 11
182.340467
 21
47.211456
 31
0.0
  0
LINE
  8
0
  6
CENTER
 62
     1
  5
129
 10
268.327613
 20
131.764229
 30
0.0
 11
268.327613
 21
125.223229
 31
0.0
  0
LINE
  8
0
  6
CENTER
 62
     1
  5
12A
 10
318.327613
 20
137.223229
 30
0.0
 11
318.327613
 21
147.573229
 31
0.0
  0
LINE
  8
0
  6
CENTER
 62
     1
  5
12B
 10
268.327613
 20
189.223229
 30
0.0
 11
268.327613
 21
137.223229
 31
0.0
  0
LINE
  8
0
  6
CENTER
 62
     1
  5
12C
 10
295.077613
 20
112.723229
 30
0.0
 11
295.077613
 21
134.723229
 31
0.0
  0
LINE
  8
0
  6
CENTER
 62
     1
  5
12D
 10
318.327613
 20
120.223229
 30
0.0
 11
318.327613
 21
131.223229
 31
0.0
  0
LINE
  8
0
  6
CENTER
 62
     1
  5
12E
 10
341.577613
 20
112.723229
 30
0.0
 11
341.577613
 21
134.723229
 31
0.0
  0
LINE
  8
0
  6
CENTER
 62
     1
  5
12F
 10
368.327613
 20
189.223229
 30
0.0
 11
368.327613
 21
137.223229
 31
0.0
  0
LINE
  8
0
  6
CENTER
 62
     1
  5
130
 10
368.327613
 20
133.223229
 30
0.0
 11
368.327613
 21
125.223229
 31
0.0
  0
ENDSEC
  0
EOF
