  0
SECTION
  2
HEADER
  9
$ACADVER
  1
AC1009
  9
$DWGCODEPAGE
  3
ansi_1252
  9
$INSBASE
 10
0.0
 20
0.0
 30
0.0
  9
$EXTMIN
 10
0.0
 20
-18.038544
 30
0.0
  9
$EXTMAX
 10
349.327613
 20
324.702882
 30
5.0
  9
$LIMMIN
 10
0.0
 20
-18.038544
  9
$LIMMAX
 10
349.327613
 20
324.702882
  9
$ORTHOMODE
 70
     0
  9
$REGENMODE
 70
     1
  9
$FILLMODE
 70
     1
  9
$QTEXTMODE
 70
     0
  9
$MIRRTEXT
 70
     1
  9
$DRAGMODE
 70
     2
  9
$LTSCALE
 40
10.0
  9
$OSMODE
 70
     0
  9
$ATTMODE
 70
     1
  9
$TEXTSIZE
 40
0.2
  9
$TRACEWID
 40
0.05
  9
$TEXTSTYLE
  7
STANDARD
  9
$CLAYER
  8
0
  9
$CELTYPE
  6
CONTINUOUS
  9
$CECOLOR
 62
   256
  9
$DIMSCALE
 40
1.0
  9
$DIMASZ
 40
1.25
  9
$DIMEXO
 40
1.0
  9
$DIMDLI
 40
0.38
  9
$DIMRND
 40
0.0
  9
$DIMDLE
 40
0.0
  9
$DIMEXE
 40
0.75
  9
$DIMTP
 40
0.0
  9
$DIMTM
 40
0.0
  9
$DIMTXT
 40
2.5
  9
$DIMCEN
 40
0.09
  9
$DIMTSZ
 40
0.0
  9
$DIMTOL
 70
     0
  9
$DIMLIM
 70
     0
  9
$DIMTIH
 70
     0
  9
$DIMTOH
 70
     0
  9
$DIMSE1
 70
     0
  9
$DIMSE2
 70
     0
  9
$DIMTAD
 70
     1
  9
$DIMZIN
 70
     0
  9
$DIMBLK
  1

  9
$DIMASO
 70
     1
  9
$DIMSHO
 70
     1
  9
$DIMPOST
  1

  9
$DIMAPOST
  1

  9
$DIMALT
 70
     0
  9
$DIMALTD
 70
     2
  9
$DIMALTF
 40
25.4
  9
$DIMLFAC
 40
1.0
  9
$DIMTOFL
 70
     0
  9
$DIMTVP
 40
0.0
  9
$DIMTIX
 70
     0
  9
$DIMSOXD
 70
     0
  9
$DIMSAH
 70
     0
  9
$DIMBLK1
  1

  9
$DIMBLK2
  1

  9
$DIMSTYLE
  2
STANDARD
  9
$DIMCLRD
 70
     7
  9
$DIMCLRE
 70
     7
  9
$DIMCLRT
 70
     7
  9
$DIMTFAC
 40
0.8
  9
$DIMGAP
 40
1.25
  9
$LUNITS
 70
     2
  9
$LUPREC
 70
     4
  9
$AXISMODE
 70
     0
  9
$AXISUNIT
 10
0.0
 20
0.0
  9
$SKETCHINC
 40
0.1
  9
$FILLETRAD
 40
0.0
  9
$AUNITS
 70
     0
  9
$AUPREC
 70
     0
  9
$MENU
  1
acad
  9
$ELEVATION
 40
0.0
  9
$PELEVATION
 40
0.0
  9
$THICKNESS
 40
0.0
  9
$LIMCHECK
 70
     0
  9
$BLIPMODE
 70
     1
  9
$CHAMFERA
 40
0.0
  9
$CHAMFERB
 40
0.0
  9
$SKPOLY
 70
     0
  9
$TDCREATE
 40
2454334.740196759
  9
$TDUPDATE
 40
2454334.656631944
  9
$TDINDWG
 40
0.0000000000
  9
$TDUSRTIMER
 40
0.0000000000
  9
$USRTIMER
 70
     1
  9
$ANGBASE
 50
0.0
  9
$ANGDIR
 70
     0
  9
$PDMODE
 70
     0
  9
$PDSIZE
 40
0.0
  9
$PLINEWID
 40
0.0
  9
$COORDS
 70
     0
  9
$SPLFRAME
 70
     0
  9
$SPLINETYPE
 70
     6
  9
$SPLINESEGS
 70
     8
  9
$ATTDIA
 70
     0
  9
$ATTREQ
 70
     1
  9
$HANDLING
 70
     1
  9
$HANDSEED
  5
126
  9
$SURFTAB1
 70
     6
  9
$SURFTAB2
 70
     6
  9
$SURFTYPE
 70
     6
  9
$SURFU
 70
     6
  9
$SURFV
 70
     6
  9
$UCSNAME
  2

  9
$UCSORG
 10
0.0
 20
0.0
 30
0.0
  9
$UCSXDIR
 10
1.0
 20
0.0
 30
0.0
  9
$UCSYDIR
 10
0.0
 20
1.0
 30
0.0
  9
$PUCSNAME
  2

  9
$PUCSORG
 10
0.0
 20
0.0
 30
0.0
  9
$PUCSXDIR
 10
1.0
 20
0.0
 30
0.0
  9
$PUCSYDIR
 10
0.0
 20
1.0
 30
0.0
  9
$USERI1
 70
     0
  9
$USERI2
 70
     0
  9
$USERI3
 70
     0
  9
$USERI4
 70
     0
  9
$USERI5
 70
     0
  9
$USERR1
 40
0.0
  9
$USERR2
 40
0.0
  9
$USERR3
 40
0.0
  9
$USERR4
 40
0.0
  9
$USERR5
 40
0.0
  9
$WORLDVIEW
 70
     1
  9
$SHADEDGE
 70
     3
  9
$SHADEDIF
 70
    70
  9
$TILEMODE
 70
     1
  9
$MAXACTVP
 70
    16
  9
$PINSBASE
 10
0.0
 20
0.0
 30
0.0
  9
$PLIMCHECK
 70
     0
  9
$PEXTMIN
 10
1.000000E+20
 20
1.000000E+20
 30
1.000000E+20
  9
$PEXTMAX
 10
-1.000000E+20
 20
-1.000000E+20
 30
-1.000000E+20
  9
$PLIMMIN
 10
0.0
 20
0.0
  9
$PLIMMAX
 10
12.0
 20
9.0
  9
$UNITMODE
 70
     0
  9
$VISRETAIN
 70
     0
  9
$PLINEGEN
 70
     1
  9
$PSLTSCALE
 70
     0
  9
$TREEDEPTH
 70
  3020
  0
ENDSEC
  0
SECTION
  2
TABLES
  0
TABLE
  2
VPORT
 70
     1
  0
VPORT
  2
*ACTIVE
 70
     0
 10
0.0
 20
0.0
 11
1.0
 21
1.0
 12
6.591288
 22
4.579184
 13
0.0
 23
0.0
 14
1.0
 24
1.0
 15
0.0
 25
0.0
 16
0.0
 26
0.0
 36
1.0
 17
0.0
 27
0.0
 37
0.0
 40
9.158369
 41
0.688564
 42
50.0
 43
0.0
 44
0.0
 50
0.0
 51
0.0
 71
     0
 72
   100
 73
     1
 74
     1
 75
     0
 76
     0
 77
     0
 78
     0
  0
ENDTAB
  0
TABLE
  2
LTYPE
 70
     2
  0
LTYPE
  2
CONTINUOUS
 70
    64
  3
Solid line
 72
    65
 73
     0
 40
0.0
  0
LTYPE
  2
CENTER
 70
    64
  3
____ _ ____ _ ____ _ ____ _ ____ _ ____ _ ____
 72
    65
 73
     4
 40
2.0
 49
1.25
 49
-0.25
 49
0.25
 49
-0.25
  0
ENDTAB
  0
TABLE
  2
LAYER
 70
     1
  0
LAYER
  2
0
 70
     0
 62
     7
  6
CONTINUOUS
  0
ENDTAB
  0
TABLE
  2
STYLE
 70
     1
  0
STYLE
  2
STANDARD
 70
     0
 40
0.0
 41
1.0
 50
0.0
 71
     0
 42
0.0
  3
IsonormD
  4

  0
ENDTAB
  0
TABLE
  2
VIEW
 70
     0
  0
ENDTAB
  0
TABLE
  2
UCS
 70
     0
  0
ENDTAB
  0
TABLE
  2
APPID
 70
     2
  0
APPID
  2
ACAD
 70
     0
  0
APPID
  2
TopSolid_Draft
 70
     0
  0
ENDTAB
  0
TABLE
  2
DIMSTYLE
 70
     1
  0
DIMSTYLE
  2
STANDARD
 70
     0
  3

  4

  5

  6

  7

 40
1.0
 41
1.25
 42
1.0
 43
0.38
 44
0.75
 45
0.0
 46
0.0
 47
0.0
 48
0.0
 71
     0
 72
     0
 73
     0
 74
     0
 75
     0
 76
     0
 77
     1
 78
     0
140
2.5
141
0.09
142
0.0
143
25.4
144
1.0
145
0.0
146
0.8
147
1.25
170
     0
171
     2
172
     0
173
     0
174
     0
175
     0
176
     7
177
     7
178
     7
  0
ENDTAB
  0
ENDSEC
  0
SECTION
  2
BLOCKS
  0
BLOCK
  8
0
  5
25
  2
AID3
 70
     0
 10
0.0
 20
0.0
 30
0.0
  3
#draft view
  0
LINE
  8
0
  6
CONTINUOUS
 62
     7
  5
26
 10
163.340467
 20
150.973229
 30
0.0
 11
163.340467
 21
141.973229
 31
0.0
  0
LINE
  8
0
  6
CONTINUOUS
 62
     7
  5
27
 10
161.340467
 20
141.973229
 30
0.0
 11
161.340467
 21
150.973229
 31
0.0
  0
LINE
  8
0
  6
CONTINUOUS
 62
     7
  5
28
 10
163.340467
 20
141.973229
 30
0.0
 11
161.340467
 21
141.973229
 31
0.0
  0
LINE
  8
0
  6
CONTINUOUS
 62
     7
  5
29
 10
161.340467
 20
150.973229
 30
0.0
 11
163.340467
 21
150.973229
 31
0.0
  0
LINE
  8
0
  6
CONTINUOUS
 62
     7
  5
2A
 10
103.340467
 20
150.973229
 30
0.0
 11
103.340467
 21
141.973229
 31
0.0
  0
LINE
  8
0
  6
CONTINUOUS
 62
     7
  5
2B
 10
161.340467
 20
141.973229
 30
0.0
 11
103.340467
 21
141.973229
 31
0.0
  0
LINE
  8
0
  6
CONTINUOUS
 62
     7
  5
2C
 10
161.340467
 20
150.973229
 30
0.0
 11
103.340467
 21
150.973229
 31
0.0
  0
LINE
  8
0
  6
CONTINUOUS
 62
     7
  5
2D
 10
101.340467
 20
141.973229
 30
0.0
 11
101.340467
 21
150.973229
 31
0.0
  0
LINE
  8
0
  6
CONTINUOUS
 62
     7
  5
2E
 10
103.340467
 20
141.973229
 30
0.0
 11
101.340467
 21
141.973229
 31
0.0
  0
LINE
  8
0
  6
CONTINUOUS
 62
     7
  5
2F
 10
101.340467
 20
150.973229
 30
0.0
 11
103.340467
 21
150.973229
 31
0.0
  0
LINE
  8
0
  6
CONTINUOUS
 62
     7
  5
30
 10
110.590467
 20
123.973229
 30
0.0
 11
106.340467
 21
123.973229
 31
0.0
  0
LINE
  8
0
  6
CONTINUOUS
 62
     7
  5
31
 10
102.090467
 20
118.973229
 30
0.0
 11
110.590467
 21
118.973229
 31
0.0
  0
LINE
  8
0
  6
CONTINUOUS
 62
     7
  5
32
 10
106.340467
 20
123.973229
 30
0.0
 11
102.090467
 21
123.973229
 31
0.0
  0
LINE
  8
0
  6
CONTINUOUS
 62
     7
  5
33
 10
162.590467
 20
118.973229
 30
0.0
 11
154.090467
 21
118.973229
 31
0.0
  0
LINE
  8
0
  6
CONTINUOUS
 62
     7
  5
34
 10
154.090467
 20
123.973229
 30
0.0
 11
158.340467
 21
123.973229
 31
0.0
  0
LINE
  8
0
  6
CONTINUOUS
 62
     7
  5
35
 10
158.340467
 20
123.973229
 30
0.0
 11
162.590467
 21
123.973229
 31
0.0
  0
LINE
  8
0
  6
CONTINUOUS
 62
     7
  5
36
 10
151.590467
 20
182.973229
 30
0.0
 11
143.090467
 21
182.973229
 31
0.0
  0
LINE
  8
0
  6
CONTINUOUS
 62
     7
  5
37
 10
143.090467
 20
177.973229
 30
0.0
 11
151.590467
 21
177.973229
 31
0.0
  0
LINE
  8
0
  6
CONTINUOUS
 62
     7
  5
38
 10
113.090467
 20
182.973229
 30
0.0
 11
121.590467
 21
182.973229
 31
0.0
  0
LINE
  8
0
  6
CONTINUOUS
 62
     7
  5
39
 10
121.590467
 20
177.973229
 30
0.0
 11
113.090467
 21
177.973229
 31
0.0
  0
LINE
  8
0
  6
CONTINUOUS
 62
     7
  5
3A
 10
102.090467
 20
123.973229
 30
0.0
 11
102.090467
 21
118.973229
 31
0.0
  0
LINE
  8
0
  6
CONTINUOUS
 62
     7
  5
3B
 10
110.590467
 20
118.973229
 30
0.0
 11
110.590467
 21
123.973229
 31
0.0
  0
LINE
  8
0
  6
CONTINUOUS
 62
     7
  5
3C
 10
154.090467
 20
123.973229
 30
0.0
 11
154.090467
 21
118.973229
 31
0.0
  0
LINE
  8
0
  6
CONTINUOUS
 62
     7
  5
3D
 10
162.590467
 20
118.973229
 30
0.0
 11
162.590467
 21
123.973229
 31
0.0
  0
LINE
  8
0
  6
CONTINUOUS
 62
     7
  5
3E
 10
108.840467
 20
123.973229
 30
0.0
 11
108.840467
 21
141.973229
 31
0.0
  0
LINE
  8
0
  6
CONTINUOUS
 62
     7
  5
3F
 10
103.840467
 20
141.973229
 30
0.0
 11
103.840467
 21
123.973229
 31
0.0
  0
LINE
  8
0
  6
CONTINUOUS
 62
     7
  5
40
 10
160.840467
 20
123.973229
 30
0.0
 11
160.840467
 21
141.973229
 31
0.0
  0
LINE
  8
0
  6
CONTINUOUS
 62
     7
  5
41
 10
155.840467
 20
141.973229
 30
0.0
 11
155.840467
 21
123.973229
 31
0.0
  0
LINE
  8
0
  6
CONTINUOUS
 62
     7
  5
42
 10
151.590467
 20
177.973229
 30
0.0
 11
151.590467
 21
182.973229
 31
0.0
  0
LINE
  8
0
  6
CONTINUOUS
 62
     7
  5
43
 10
143.090467
 20
182.973229
 30
0.0
 11
143.090467
 21
177.973229
 31
0.0
  0
LINE
  8
0
  6
CONTINUOUS
 62
     7
  5
44
 10
121.590467
 20
177.973229
 30
0.0
 11
121.590467
 21
182.973229
 31
0.0
  0
LINE
  8
0
  6
CONTINUOUS
 62
     7
  5
45
 10
113.090467
 20
182.973229
 30
0.0
 11
113.090467
 21
177.973229
 31
0.0
  0
LINE
  8
0
  6
CONTINUOUS
 62
     7
  5
46
 10
144.840467
 20
177.973229
 30
0.0
 11
144.840467
 21
150.973229
 31
0.0
  0
LINE
  8
0
  6
CONTINUOUS
 62
     7
  5
47
 10
149.840467
 20
150.973229
 30
0.0
 11
149.840467
 21
177.973229
 31
0.0
  0
LINE
  8
0
  6
CONTINUOUS
 62
     7
  5
48
 10
114.840467
 20
177.973229
 30
0.0
 11
114.840467
 21
150.973229
 31
0.0
  0
LINE
  8
0
  6
CONTINUOUS
 62
     7
  5
49
 10
119.840467
 20
150.973229
 30
0.0
 11
119.840467
 21
177.973229
 31
0.0
  0
ENDBLK
  8
0
  5
4A
  0
BLOCK
  8
0
  5
4D
  2
AID79
 70
     0
 10
0.0
 20
0.0
 30
0.0
  3
#auxiliary draft view
  0
LINE
  8
0
  6
CONTINUOUS
 62
     7
  5
4E
 10
107.495167
 20
315.452882
 30
0.0
 11
105.185766
 21
315.452882
 31
0.0
  0
LINE
  8
0
  6
CONTINUOUS
 62
     7
  5
4F
 10
108.649868
 20
317.452882
 30
0.0
 11
107.495167
 21
315.452882
 31
0.0
  0
LINE
  8
0
  6
CONTINUOUS
 62
     7
  5
50
 10
105.185766
 20
319.452882
 30
0.0
 11
107.495167
 21
319.452882
 31
0.0
  0
LINE
  8
0
  6
CONTINUOUS
 62
     7
  5
51
 10
104.031066
 20
317.452882
 30
0.0
 11
105.185766
 21
319.452882
 31
0.0
  0
CIRCLE
  8
0
  6
CONTINUOUS
 62
     7
  5
52
 10
106.340467
 20
317.452882
 30
0.0
 40
4.25
210
0.0
220
0.0
230
1.0
  0
LINE
  8
0
  6
CONTINUOUS
 62
     7
  5
53
 10
105.185766
 20
315.452882
 30
0.0
 11
104.031066
 21
317.452882
 31
0.0
  0
LINE
  8
0
  6
CONTINUOUS
 62
     7
  5
54
 10
107.495167
 20
319.452882
 30
0.0
 11
108.649868
 21
317.452882
 31
0.0
  0
LINE
  8
0
  6
CONTINUOUS
 62
     7
  5
55
 10
157.185766
 20
315.452882
 30
0.0
 11
159.495167
 21
315.452882
 31
0.0
  0
LINE
  8
0
  6
CONTINUOUS
 62
     7
  5
56
 10
159.495167
 20
315.452882
 30
0.0
 11
160.649868
 21
317.452882
 31
0.0
  0
CIRCLE
  8
0
  6
CONTINUOUS
 62
     7
  5
57
 10
158.340467
 20
317.452882
 30
0.0
 40
4.25
210
0.0
220
0.0
230
1.0
  0
LINE
  8
0
  6
CONTINUOUS
 62
     7
  5
58
 10
160.649868
 20
317.452882
 30
0.0
 11
159.495167
 21
319.452882
 31
0.0
  0
LINE
  8
0
  6
CONTINUOUS
 62
     7
  5
59
 10
159.495167
 20
319.452882
 30
0.0
 11
157.185766
 21
319.452882
 31
0.0
  0
LINE
  8
0
  6
CONTINUOUS
 62
     7
  5
5A
 10
156.031066
 20
317.452882
 30
0.0
 11
157.185766
 21
315.452882
 31
0.0
  0
LINE
  8
0
  6
CONTINUOUS
 62
     7
  5
5B
 10
157.185766
 20
319.452882
 30
0.0
 11
156.031066
 21
317.452882
 31
0.0
  0
LINE
  8
0
  6
CONTINUOUS
 62
     7
  5
5C
 10
105.185766
 20
263.452882
 30
0.0
 11
107.495167
 21
263.452882
 31
0.0
  0
LINE
  8
0
  6
CONTINUOUS
 62
     7
  5
5D
 10
107.495167
 20
263.452882
 30
0.0
 11
108.649868
 21
265.452882
 31
0.0
  0
LINE
  8
0
  6
CONTINUOUS
 62
     7
  5
5E
 10
108.649868
 20
265.452882
 30
0.0
 11
107.495167
 21
267.452882
 31
0.0
  0
LINE
  8
0
  6
CONTINUOUS
 62
     7
  5
5F
 10
105.185766
 20
267.452882
 30
0.0
 11
104.031066
 21
265.452882
 31
0.0
  0
CIRCLE
  8
0
  6
CONTINUOUS
 62
     7
  5
60
 10
106.340467
 20
265.452882
 30
0.0
 40
4.25
210
0.0
220
0.0
230
1.0
  0
LINE
  8
0
  6
CONTINUOUS
 62
     7
  5
61
 10
104.031066
 20
265.452882
 30
0.0
 11
105.185766
 21
263.452882
 31
0.0
  0
LINE
  8
0
  6
CONTINUOUS
 62
     7
  5
62
 10
107.495167
 20
267.452882
 30
0.0
 11
105.185766
 21
267.452882
 31
0.0
  0
LINE
  8
0
  6
CONTINUOUS
 62
     7
  5
63
 10
156.031066
 20
265.452882
 30
0.0
 11
157.185766
 21
267.452882
 31
0.0
  0
LINE
  8
0
  6
CONTINUOUS
 62
     7
  5
64
 10
157.185766
 20
267.452882
 30
0.0
 11
159.495167
 21
267.452882
 31
0.0
  0
LINE
  8
0
  6
CONTINUOUS
 62
     7
  5
65
 10
159.495167
 20
263.452882
 30
0.0
 11
157.185766
 21
263.452882
 31
0.0
  0
CIRCLE
  8
0
  6
CONTINUOUS
 62
     7
  5
66
 10
158.340467
 20
265.452882
 30
0.0
 40
4.25
210
0.0
220
0.0
230
1.0
  0
LINE
  8
0
  6
CONTINUOUS
 62
     7
  5
67
 10
157.185766
 20
263.452882
 30
0.0
 11
156.031066
 21
265.452882
 31
0.0
  0
LINE
  8
0
  6
CONTINUOUS
 62
     7
  5
68
 10
159.495167
 20
267.452882
 30
0.0
 11
160.649868
 21
265.452882
 31
0.0
  0
LINE
  8
0
  6
CONTINUOUS
 62
     7
  5
69
 10
160.649868
 20
265.452882
 30
0.0
 11
159.495167
 21
263.452882
 31
0.0
  0
CIRCLE
  8
0
  6
CONTINUOUS
 62
     7
  5
6A
 10
106.340467
 20
291.452882
 30
0.0
 40
2.285641
210
0.0
220
0.0
230
1.0
  0
CIRCLE
  8
0
  6
CONTINUOUS
 62
     7
  5
6B
 10
158.340467
 20
291.452882
 30
0.0
 40
2.285641
210
0.0
220
0.0
230
1.0
  0
CIRCLE
  8
0
  6
CONTINUOUS
 62
     7
  5
6C
 10
158.340467
 20
291.452882
 30
0.0
 40
2.5
210
0.0
220
0.0
230
1.0
  0
CIRCLE
  8
0
  6
CONTINUOUS
 62
     7
  5
6D
 10
106.340467
 20
291.452882
 30
0.0
 40
2.5
210
0.0
220
0.0
230
1.0
  0
CIRCLE
  8
0
  6
CONTINUOUS
 62
     7
  5
6E
 10
147.340467
 20
276.452882
 30
0.0
 40
2.5
210
0.0
220
0.0
230
1.0
  0
CIRCLE
  8
0
  6
CONTINUOUS
 62
     7
  5
6F
 10
117.340467
 20
276.452882
 30
0.0
 40
2.5
210
0.0
220
0.0
230
1.0
  0
CIRCLE
  8
0
  6
CONTINUOUS
 62
     7
  5
70
 10
147.340467
 20
306.452882
 30
0.0
 40
2.5
210
0.0
220
0.0
230
1.0
  0
CIRCLE
  8
0
  6
CONTINUOUS
 62
     7
  5
71
 10
117.340467
 20
306.452882
 30
0.0
 40
2.5
210
0.0
220
0.0
230
1.0
  0
LINE
  8
0
  6
CONTINUOUS
 62
     7
  5
72
 10
103.340467
 20
322.452882
 30
0.0
 11
101.340467
 21
320.452882
 31
0.0
  0
LINE
  8
0
  6
CONTINUOUS
 62
     7
  5
73
 10
161.340467
 20
322.452882
 30
0.0
 11
103.340467
 21
322.452882
 31
0.0
  0
LINE
  8
0
  6
CONTINUOUS
 62
     7
  5
74
 10
163.340467
 20
320.452882
 30
0.0
 11
161.340467
 21
322.452882
 31
0.0
  0
LINE
  8
0
  6
CONTINUOUS
 62
     7
  5
75
 10
163.340467
 20
262.452882
 30
0.0
 11
163.340467
 21
320.452882
 31
0.0
  0
LINE
  8
0
  6
CONTINUOUS
 62
     7
  5
76
 10
161.340467
 20
260.452882
 30
0.0
 11
163.340467
 21
262.452882
 31
0.0
  0
LINE
  8
0
  6
CONTINUOUS
 62
     7
  5
77
 10
103.340467
 20
260.452882
 30
0.0
 11
161.340467
 21
260.452882
 31
0.0
  0
LINE
  8
0
  6
CONTINUOUS
 62
     7
  5
78
 10
101.340467
 20
262.452882
 30
0.0
 11
103.340467
 21
260.452882
 31
0.0
  0
LINE
  8
0
  6
CONTINUOUS
 62
     7
  5
79
 10
101.340467
 20
320.452882
 30
0.0
 11
101.340467
 21
262.452882
 31
0.0
  0
CIRCLE
  8
0
  6
CONTINUOUS
 62
     7
  5
7A
 10
147.340467
 20
306.452882
 30
0.0
 40
2.067
210
0.0
220
0.0
230
1.0
  0
CIRCLE
  8
0
  6
CONTINUOUS
 62
     7
  5
7B
 10
117.340467
 20
306.452882
 30
0.0
 40
2.067
210
0.0
220
0.0
230
1.0
  0
CIRCLE
  8
0
  6
CONTINUOUS
 62
     7
  5
7C
 10
147.340467
 20
276.452882
 30
0.0
 40
2.067
210
0.0
220
0.0
230
1.0
  0
CIRCLE
  8
0
  6
CONTINUOUS
 62
     7
  5
7D
 10
117.340467
 20
276.452882
 30
0.0
 40
2.067
210
0.0
220
0.0
230
1.0
  0
ENDBLK
  8
0
  5
7E
  0
BLOCK
  8
0
  5
81
  2
AID179
 70
     0
 10
0.0
 20
0.0
 30
0.0
  3
#auxiliary draft view
  0
LINE
  8
0
  6
CONTINUOUS
 62
     7
  5
82
 10
119.340467
 20
29.616156
 30
0.0
 11
119.340467
 21
27.306755
 31
0.0
  0
CIRCLE
  8
0
  6
CONTINUOUS
 62
     7
  5
83
 10
117.340467
 20
28.461456
 30
0.0
 40
4.25
210
0.0
220
0.0
230
1.0
  0
LINE
  8
0
  6
CONTINUOUS
 62
     7
  5
84
 10
117.340467
 20
30.770857
 30
0.0
 11
119.340467
 21
29.616156
 31
0.0
  0
LINE
  8
0
  6
CONTINUOUS
 62
     7
  5
85
 10
115.340467
 20
29.616156
 30
0.0
 11
117.340467
 21
30.770857
 31
0.0
  0
LINE
  8
0
  6
CONTINUOUS
 62
     7
  5
86
 10
115.340467
 20
27.306755
 30
0.0
 11
115.340467
 21
29.616156
 31
0.0
  0
LINE
  8
0
  6
CONTINUOUS
 62
     7
  5
87
 10
117.340467
 20
26.152055
 30
0.0
 11
115.340467
 21
27.306755
 31
0.0
  0
LINE
  8
0
  6
CONTINUOUS
 62
     7
  5
88
 10
119.340467
 20
27.306755
 30
0.0
 11
117.340467
 21
26.152055
 31
0.0
  0
LINE
  8
0
  6
CONTINUOUS
 62
     7
  5
89
 10
145.340467
 20
29.616156
 30
0.0
 11
145.340467
 21
27.306755
 31
0.0
  0
CIRCLE
  8
0
  6
CONTINUOUS
 62
     7
  5
8A
 10
147.340467
 20
28.461456
 30
0.0
 40
4.25
210
0.0
220
0.0
230
1.0
  0
LINE
  8
0
  6
CONTINUOUS
 62
     7
  5
8B
 10
147.340467
 20
30.770857
 30
0.0
 11
145.340467
 21
29.616156
 31
0.0
  0
LINE
  8
0
  6
CONTINUOUS
 62
     7
  5
8C
 10
149.340467
 20
29.616156
 30
0.0
 11
147.340467
 21
30.770857
 31
0.0
  0
LINE
  8
0
  6
CONTINUOUS
 62
     7
  5
8D
 10
149.340467
 20
27.306755
 30
0.0
 11
149.340467
 21
29.616156
 31
0.0
  0
LINE
  8
0
  6
CONTINUOUS
 62
     7
  5
8E
 10
147.340467
 20
26.152055
 30
0.0
 11
149.340467
 21
27.306755
 31
0.0
  0
LINE
  8
0
  6
CONTINUOUS
 62
     7
  5
8F
 10
145.340467
 20
27.306755
 30
0.0
 11
147.340467
 21
26.152055
 31
0.0
  0
LINE
  8
0
  6
CONTINUOUS
 62
     7
  5
90
 10
145.340467
 20
-2.693245
 30
0.0
 11
145.340467
 21
-0.383844
 31
0.0
  0
CIRCLE
  8
0
  6
CONTINUOUS
 62
     7
  5
91
 10
147.340467
 20
-1.538544
 30
0.0
 40
4.25
210
0.0
220
0.0
230
1.0
  0
LINE
  8
0
  6
CONTINUOUS
 62
     7
  5
92
 10
147.340467
 20
-3.847945
 30
0.0
 11
145.340467
 21
-2.693245
 31
0.0
  0
LINE
  8
0
  6
CONTINUOUS
 62
     7
  5
93
 10
149.340467
 20
-2.693245
 30
0.0
 11
147.340467
 21
-3.847945
 31
0.0
  0
LINE
  8
0
  6
CONTINUOUS
 62
     7
  5
94
 10
149.340467
 20
-0.383844
 30
0.0
 11
149.340467
 21
-2.693245
 31
0.0
  0
LINE
  8
0
  6
CONTINUOUS
 62
     7
  5
95
 10
147.340467
 20
0.770857
 30
0.0
 11
149.340467
 21
-0.383844
 31
0.0
  0
LINE
  8
0
  6
CONTINUOUS
 62
     7
  5
96
 10
145.340467
 20
-0.383844
 30
0.0
 11
147.340467
 21
0.770857
 31
0.0
  0
LINE
  8
0
  6
CONTINUOUS
 62
     7
  5
97
 10
119.340467
 20
-2.693245
 30
0.0
 11
119.340467
 21
-0.383844
 31
0.0
  0
CIRCLE
  8
0
  6
CONTINUOUS
 62
     7
  5
98
 10
117.340467
 20
-1.538544
 30
0.0
 40
4.25
210
0.0
220
0.0
230
1.0
  0
LINE
  8
0
  6
CONTINUOUS
 62
     7
  5
99
 10
115.340467
 20
-2.693245
 30
0.0
 11
117.340467
 21
-3.847945
 31
0.0
  0
LINE
  8
0
  6
CONTINUOUS
 62
     7
  5
9A
 10
115.340467
 20
-0.383844
 30
0.0
 11
115.340467
 21
-2.693245
 31
0.0
  0
LINE
  8
0
  6
CONTINUOUS
 62
     7
  5
9B
 10
117.340467
 20
0.770857
 30
0.0
 11
115.340467
 21
-0.383844
 31
0.0
  0
LINE
  8
0
  6
CONTINUOUS
 62
     7
  5
9C
 10
117.340467
 20
-3.847945
 30
0.0
 11
119.340467
 21
-2.693245
 31
0.0
  0
LINE
  8
0
  6
CONTINUOUS
 62
     7
  5
9D
 10
119.340467
 20
-0.383844
 30
0.0
 11
117.340467
 21
0.770857
 31
0.0
  0
CIRCLE
  8
0
  6
CONTINUOUS
 62
     7
  5
9E
 10
117.340467
 20
13.461456
 30
0.0
 40
2.5
210
0.0
220
0.0
230
1.0
  0
CIRCLE
  8
0
  6
CONTINUOUS
 62
     7
  5
9F
 10
147.340467
 20
13.461456
 30
0.0
 40
2.5
210
0.0
220
0.0
230
1.0
  0
CIRCLE
  8
0
  6
CONTINUOUS
 62
     7
  5
A0
 10
106.340467
 20
39.461456
 30
0.0
 40
2.067
210
0.0
220
0.0
230
1.0
  0
CIRCLE
  8
0
  6
CONTINUOUS
 62
     7
  5
A1
 10
106.340467
 20
39.461456
 30
0.0
 40
2.5
210
0.0
220
0.0
230
1.0
  0
CIRCLE
  8
0
  6
CONTINUOUS
 62
     7
  5
A2
 10
158.340467
 20
-12.538544
 30
0.0
 40
2.067
210
0.0
220
0.0
230
1.0
  0
CIRCLE
  8
0
  6
CONTINUOUS
 62
     7
  5
A3
 10
158.340467
 20
-12.538544
 30
0.0
 40
2.5
210
0.0
220
0.0
230
1.0
  0
CIRCLE
  8
0
  6
CONTINUOUS
 62
     7
  5
A4
 10
158.340467
 20
39.461456
 30
0.0
 40
2.5
210
0.0
220
0.0
230
1.0
  0
CIRCLE
  8
0
  6
CONTINUOUS
 62
     7
  5
A5
 10
106.340467
 20
-12.538544
 30
0.0
 40
2.5
210
0.0
220
0.0
230
1.0
  0
CIRCLE
  8
0
  6
CONTINUOUS
 62
     7
  5
A6
 10
158.340467
 20
13.461456
 30
0.0
 40
2.5
210
0.0
220
0.0
230
1.0
  0
CIRCLE
  8
0
  6
CONTINUOUS
 62
     7
  5
A7
 10
106.340467
 20
13.461456
 30
0.0
 40
2.5
210
0.0
220
0.0
230
1.0
  0
LINE
  8
0
  6
CONTINUOUS
 62
     7
  5
A8
 10
163.340467
 20
42.461456
 30
0.0
 11
161.340467
 21
44.461456
 31
0.0
  0
LINE
  8
0
  6
CONTINUOUS
 62
     7
  5
A9
 10
163.340467
 20
42.461456
 30
0.0
 11
163.340467
 21
-15.538544
 31
0.0
  0
LINE
  8
0
  6
CONTINUOUS
 62
     7
  5
AA
 10
161.340467
 20
-17.538544
 30
0.0
 11
163.340467
 21
-15.538544
 31
0.0
  0
LINE
  8
0
  6
CONTINUOUS
 62
     7
  5
AB
 10
161.340467
 20
-17.538544
 30
0.0
 11
103.340467
 21
-17.538544
 31
0.0
  0
LINE
  8
0
  6
CONTINUOUS
 62
     7
  5
AC
 10
101.340467
 20
-15.538544
 30
0.0
 11
103.340467
 21
-17.538544
 31
0.0
  0
LINE
  8
0
  6
CONTINUOUS
 62
     7
  5
AD
 10
101.340467
 20
-15.538544
 30
0.0
 11
101.340467
 21
42.461456
 31
0.0
  0
LINE
  8
0
  6
CONTINUOUS
 62
     7
  5
AE
 10
103.340467
 20
44.461456
 30
0.0
 11
101.340467
 21
42.461456
 31
0.0
  0
LINE
  8
0
  6
CONTINUOUS
 62
     7
  5
AF
 10
103.340467
 20
44.461456
 30
0.0
 11
161.340467
 21
44.461456
 31
0.0
  0
CIRCLE
  8
0
  6
CONTINUOUS
 62
     7
  5
B0
 10
106.340467
 20
-12.538544
 30
0.0
 40
2.067
210
0.0
220
0.0
230
1.0
  0
CIRCLE
  8
0
  6
CONTINUOUS
 62
     7
  5
B1
 10
158.340467
 20
39.461456
 30
0.0
 40
2.067
210
0.0
220
0.0
230
1.0
  0
ENDBLK
  8
0
  5
B2
  0
BLOCK
  8
0
  5
B5
  2
AID279
 70
     0
 10
0.0
 20
0.0
 30
0.0
  3
#auxiliary draft view
  0
LINE
  8
0
  6
CONTINUOUS
 62
     7
  5
B6
 10
347.327613
 20
141.973229
 30
0.0
 11
347.327613
 21
150.973229
 31
0.0
  0
LINE
  8
0
  6
CONTINUOUS
 62
     7
  5
B7
 10
347.327613
 20
141.973229
 30
0.0
 11
289.327613
 21
141.973229
 31
0.0
  0
LINE
  8
0
  6
CONTINUOUS
 62
     7
  5
B8
 10
289.327613
 20
150.973229
 30
0.0
 11
289.327613
 21
141.973229
 31
0.0
  0
LINE
  8
0
  6
CONTINUOUS
 62
     7
  5
B9
 10
347.327613
 20
150.973229
 30
0.0
 11
289.327613
 21
150.973229
 31
0.0
  0
LINE
  8
0
  6
CONTINUOUS
 62
     7
  5
BA
 10
349.327613
 20
150.973229
 30
0.0
 11
349.327613
 21
141.973229
 31
0.0
  0
LINE
  8
0
  6
CONTINUOUS
 62
     7
  5
BB
 10
349.327613
 20
141.973229
 30
0.0
 11
347.327613
 21
141.973229
 31
0.0
  0
LINE
  8
0
  6
CONTINUOUS
 62
     7
  5
BC
 10
347.327613
 20
150.973229
 30
0.0
 11
349.327613
 21
150.973229
 31
0.0
  0
LINE
  8
0
  6
CONTINUOUS
 62
     7
  5
BD
 10
287.327613
 20
141.973229
 30
0.0
 11
287.327613
 21
150.973229
 31
0.0
  0
LINE
  8
0
  6
CONTINUOUS
 62
     7
  5
BE
 10
289.327613
 20
141.973229
 30
0.0
 11
287.327613
 21
141.973229
 31
0.0
  0
LINE
  8
0
  6
CONTINUOUS
 62
     7
  5
BF
 10
287.327613
 20
150.973229
 30
0.0
 11
289.327613
 21
150.973229
 31
0.0
  0
LINE
  8
0
  6
CONTINUOUS
 62
     7
  5
C0
 10
340.077613
 20
118.973229
 30
0.0
 11
344.327613
 21
118.973229
 31
0.0
  0
LINE
  8
0
  6
CONTINUOUS
 62
     7
  5
C1
 10
348.577613
 20
123.973229
 30
0.0
 11
340.077613
 21
123.973229
 31
0.0
  0
LINE
  8
0
  6
CONTINUOUS
 62
     7
  5
C2
 10
344.327613
 20
118.973229
 30
0.0
 11
348.577613
 21
118.973229
 31
0.0
  0
LINE
  8
0
  6
CONTINUOUS
 62
     7
  5
C3
 10
296.577613
 20
118.973229
 30
0.0
 11
292.327613
 21
118.973229
 31
0.0
  0
LINE
  8
0
  6
CONTINUOUS
 62
     7
  5
C4
 10
288.077613
 20
123.973229
 30
0.0
 11
296.577613
 21
123.973229
 31
0.0
  0
LINE
  8
0
  6
CONTINUOUS
 62
     7
  5
C5
 10
292.327613
 20
118.973229
 30
0.0
 11
288.077613
 21
118.973229
 31
0.0
  0
LINE
  8
0
  6
CONTINUOUS
 62
     7
  5
C6
 10
320.613254
 20
138.473229
 30
0.0
 11
318.327613
 21
138.473229
 31
0.0
  0
LINE
  8
0
  6
CONTINUOUS
 62
     7
  5
C7
 10
320.827613
 20
139.273229
 30
0.0
 11
315.827613
 21
139.273229
 31
0.0
  0
LINE
  8
0
  6
CONTINUOUS
 62
     7
  5
C8
 10
318.327613
 20
138.473229
 30
0.0
 11
316.041973
 21
138.473229
 31
0.0
  0
LINE
  8
0
  6
CONTINUOUS
 62
     7
  5
C9
 10
329.077613
 20
182.973229
 30
0.0
 11
337.577613
 21
182.973229
 31
0.0
  0
LINE
  8
0
  6
CONTINUOUS
 62
     7
  5
CA
 10
337.577613
 20
177.973229
 30
0.0
 11
333.327613
 21
177.973229
 31
0.0
  0
LINE
  8
0
  6
CONTINUOUS
 62
     7
  5
CB
 10
333.327613
 20
177.973229
 30
0.0
 11
329.077613
 21
177.973229
 31
0.0
  0
LINE
  8
0
  6
CONTINUOUS
 62
     7
  5
CC
 10
307.577613
 20
182.973229
 30
0.0
 11
299.077613
 21
182.973229
 31
0.0
  0
LINE
  8
0
  6
CONTINUOUS
 62
     7
  5
CD
 10
299.077613
 20
177.973229
 30
0.0
 11
303.327613
 21
177.973229
 31
0.0
  0
LINE
  8
0
  6
CONTINUOUS
 62
     7
  5
CE
 10
303.327613
 20
177.973229
 30
0.0
 11
307.577613
 21
177.973229
 31
0.0
  0
LINE
  8
0
  6
CONTINUOUS
 62
     7
  5
CF
 10
320.827613
 20
153.323229
 30
0.0
 11
318.327613
 21
153.323229
 31
0.0
  0
LINE
  8
0
  6
CONTINUOUS
 62
     7
  5
D0
 10
318.327613
 20
153.323229
 30
0.0
 11
315.827613
 21
153.323229
 31
0.0
  0
LINE
  8
0
  6
CONTINUOUS
 62
     7
  5
D1
 10
340.077613
 20
123.973229
 30
0.0
 11
340.077613
 21
118.973229
 31
0.0
  0
LINE
  8
0
  6
CONTINUOUS
 62
     7
  5
D2
 10
348.577613
 20
118.973229
 30
0.0
 11
348.577613
 21
123.973229
 31
0.0
  0
LINE
  8
0
  6
CONTINUOUS
 62
     7
  5
D3
 10
288.077613
 20
123.973229
 30
0.0
 11
288.077613
 21
118.973229
 31
0.0
  0
LINE
  8
0
  6
CONTINUOUS
 62
     7
  5
D4
 10
296.577613
 20
118.973229
 30
0.0
 11
296.577613
 21
123.973229
 31
0.0
  0
LINE
  8
0
  6
CONTINUOUS
 62
     7
  5
D5
 10
315.827613
 20
139.273229
 30
0.0
 11
316.041973
 21
138.473229
 31
0.0
  0
LINE
  8
0
  6
CONTINUOUS
 62
     7
  5
D6
 10
320.613254
 20
138.473229
 30
0.0
 11
320.827613
 21
139.273229
 31
0.0
  0
LINE
  8
0
  6
CONTINUOUS
 62
     7
  5
D7
 10
315.827613
 20
141.973229
 30
0.0
 11
315.827613
 21
139.273229
 31
0.0
  0
LINE
  8
0
  6
CONTINUOUS
 62
     7
  5
D8
 10
320.827613
 20
139.273229
 30
0.0
 11
320.827613
 21
141.973229
 31
0.0
  0
LINE
  8
0
  6
CONTINUOUS
 62
     7
  5
D9
 10
346.827613
 20
123.973229
 30
0.0
 11
346.827613
 21
141.973229
 31
0.0
  0
LINE
  8
0
  6
CONTINUOUS
 62
     7
  5
DA
 10
341.827613
 20
141.973229
 30
0.0
 11
341.827613
 21
123.973229
 31
0.0
  0
LINE
  8
0
  6
CONTINUOUS
 62
     7
  5
DB
 10
294.827613
 20
123.973229
 30
0.0
 11
294.827613
 21
141.973229
 31
0.0
  0
LINE
  8
0
  6
CONTINUOUS
 62
     7
  5
DC
 10
289.827613
 20
141.973229
 30
0.0
 11
289.827613
 21
123.973229
 31
0.0
  0
LINE
  8
0
  6
CONTINUOUS
 62
     7
  5
DD
 10
337.577613
 20
177.973229
 30
0.0
 11
337.577613
 21
182.973229
 31
0.0
  0
LINE
  8
0
  6
CONTINUOUS
 62
     7
  5
DE
 10
329.077613
 20
182.973229
 30
0.0
 11
329.077613
 21
177.973229
 31
0.0
  0
LINE
  8
0
  6
CONTINUOUS
 62
     7
  5
DF
 10
307.577613
 20
177.973229
 30
0.0
 11
307.577613
 21
182.973229
 31
0.0
  0
LINE
  8
0
  6
CONTINUOUS
 62
     7
  5
E0
 10
299.077613
 20
182.973229
 30
0.0
 11
299.077613
 21
177.973229
 31
0.0
  0
LINE
  8
0
  6
CONTINUOUS
 62
     7
  5
E1
 10
315.827613
 20
153.323229
 30
0.0
 11
315.827613
 21
150.973229
 31
0.0
  0
LINE
  8
0
  6
CONTINUOUS
 62
     7
  5
E2
 10
320.827613
 20
150.973229
 30
0.0
 11
320.827613
 21
153.323229
 31
0.0
  0
ARC
  8
0
  6
CONTINUOUS
 62
     7
  5
E3
 10
318.362144
 20
148.973348
 30
0.0
 40
5.0
 50
60.455868
 51
90.0
210
0.0
220
0.0
230
1.0
  0
ARC
  8
0
  6
CONTINUOUS
 62
     7
  5
E4
 10
318.293082
 20
148.973348
 30
0.0
 40
5.0
 50
90.0
 51
119.544132
210
0.0
220
0.0
230
1.0
  0
LINE
  8
0
  6
CONTINUOUS
 62
     7
  5
E5
 10
318.362144
 20
153.973348
 30
0.0
 11
318.293082
 21
153.973348
 31
0.0
  0
LINE
  8
0
  6
CONTINUOUS
 62
     7
  5
E6
 10
330.827613
 20
177.973229
 30
0.0
 11
330.827613
 21
150.973229
 31
0.0
  0
LINE
  8
0
  6
CONTINUOUS
 62
     7
  5
E7
 10
335.827613
 20
150.973229
 30
0.0
 11
335.827613
 21
177.973229
 31
0.0
  0
LINE
  8
0
  6
CONTINUOUS
 62
     7
  5
E8
 10
300.827613
 20
177.973229
 30
0.0
 11
300.827613
 21
150.973229
 31
0.0
  0
LINE
  8
0
  6
CONTINUOUS
 62
     7
  5
E9
 10
305.827613
 20
150.973229
 30
0.0
 11
305.827613
 21
177.973229
 31
0.0
  0
ENDBLK
  8
0
  5
EA
  0
ENDSEC
  0
SECTION
  2
ENTITIES
  0
INSERT
  8
0
  5
4B
  2
AID3
 10
0.0
 20
0.0
 30
0.0
  0
INSERT
  8
0
  5
7F
  2
AID79
 10
0.0
 20
0.0
 30
0.0
  0
INSERT
  8
0
  5
B3
  2
AID179
 10
0.0
 20
0.0
 30
0.0
  0
INSERT
  8
0
  5
EB
  2
AID279
 10
0.0
 20
0.0
 30
0.0
  0
LINE
  8
0
  6
CENTER
 62
     1
  5
ED
 10
99.090467
 20
265.452882
 30
0.0
 11
113.590467
 21
265.452882
 31
0.0
  0
LINE
  8
0
  6
CENTER
 62
     1
  5
EE
 10
106.340467
 20
258.202882
 30
0.0
 11
106.340467
 21
272.702882
 31
0.0
  0
LINE
  8
0
  6
CENTER
 62
     1
  5
EF
 10
100.840467
 20
291.452882
 30
0.0
 11
111.840467
 21
291.452882
 31
0.0
  0
LINE
  8
0
  6
CENTER
 62
     1
  5
F0
 10
106.340467
 20
285.952882
 30
0.0
 11
106.340467
 21
296.952882
 31
0.0
  0
LINE
  8
0
  6
CENTER
 62
     1
  5
F1
 10
99.090467
 20
317.452882
 30
0.0
 11
113.590467
 21
317.452882
 31
0.0
  0
LINE
  8
0
  6
CENTER
 62
     1
  5
F2
 10
106.340467
 20
310.202882
 30
0.0
 11
106.340467
 21
324.702882
 31
0.0
  0
LINE
  8
0
  6
CENTER
 62
     1
  5
F3
 10
111.840467
 20
276.452882
 30
0.0
 11
122.840467
 21
276.452882
 31
0.0
  0
LINE
  8
0
  6
CENTER
 62
     1
  5
F4
 10
117.340467
 20
270.952882
 30
0.0
 11
117.340467
 21
281.952882
 31
0.0
  0
LINE
  8
0
  6
CENTER
 62
     1
  5
F5
 10
111.840467
 20
306.452882
 30
0.0
 11
122.840467
 21
306.452882
 31
0.0
  0
LINE
  8
0
  6
CENTER
 62
     1
  5
F6
 10
117.340467
 20
300.952882
 30
0.0
 11
117.340467
 21
311.952882
 31
0.0
  0
LINE
  8
0
  6
CENTER
 62
     1
  5
F7
 10
141.840467
 20
276.452882
 30
0.0
 11
152.840467
 21
276.452882
 31
0.0
  0
LINE
  8
0
  6
CENTER
 62
     1
  5
F8
 10
147.340467
 20
270.952882
 30
0.0
 11
147.340467
 21
281.952882
 31
0.0
  0
LINE
  8
0
  6
CENTER
 62
     1
  5
F9
 10
141.840467
 20
306.452882
 30
0.0
 11
152.840467
 21
306.452882
 31
0.0
  0
LINE
  8
0
  6
CENTER
 62
     1
  5
FA
 10
147.340467
 20
300.952882
 30
0.0
 11
147.340467
 21
311.952882
 31
0.0
  0
LINE
  8
0
  6
CENTER
 62
     1
  5
FB
 10
151.090467
 20
265.452882
 30
0.0
 11
165.590467
 21
265.452882
 31
0.0
  0
LINE
  8
0
  6
CENTER
 62
     1
  5
FC
 10
158.340467
 20
258.202882
 30
0.0
 11
158.340467
 21
272.702882
 31
0.0
  0
LINE
  8
0
  6
CENTER
 62
     1
  5
FD
 10
152.840467
 20
291.452882
 30
0.0
 11
163.840467
 21
291.452882
 31
0.0
  0
LINE
  8
0
  6
CENTER
 62
     1
  5
FE
 10
158.340467
 20
285.952882
 30
0.0
 11
158.340467
 21
296.952882
 31
0.0
  0
LINE
  8
0
  6
CENTER
 62
     1
  5
FF
 10
151.090467
 20
317.452882
 30
0.0
 11
165.590467
 21
317.452882
 31
0.0
  0
LINE
  8
0
  6
CENTER
 62
     1
  5
100
 10
158.340467
 20
310.202882
 30
0.0
 11
158.340467
 21
324.702882
 31
0.0
  0
LINE
  8
0
  6
CENTER
 62
     1
  5
101
 10
106.340467
 20
144.973229
 30
0.0
 11
106.340467
 21
115.973229
 31
0.0
  0
LINE
  8
0
  6
CENTER
 62
     1
  5
102
 10
117.340467
 20
185.973229
 30
0.0
 11
117.340467
 21
147.973229
 31
0.0
  0
LINE
  8
0
  6
CENTER
 62
     1
  5
103
 10
147.340467
 20
185.973229
 30
0.0
 11
147.340467
 21
147.973229
 31
0.0
  0
LINE
  8
0
  6
CENTER
 62
     1
  5
104
 10
158.340467
 20
144.973229
 30
0.0
 11
158.340467
 21
115.973229
 31
0.0
  0
LINE
  8
0
  6
CENTER
 62
     1
  5
105
 10
344.327613
 20
147.540229
 30
0.0
 11
344.327613
 21
153.973229
 31
0.0
  0
LINE
  8
0
  6
CENTER
 62
     1
  5
106
 10
292.327613
 20
144.973229
 30
0.0
 11
292.327613
 21
115.973229
 31
0.0
  0
LINE
  8
0
  6
CENTER
 62
     1
  5
107
 10
303.327613
 20
185.973229
 30
0.0
 11
303.327613
 21
147.973229
 31
0.0
  0
LINE
  8
0
  6
CENTER
 62
     1
  5
108
 10
303.327613
 20
145.973229
 30
0.0
 11
303.327613
 21
138.973229
 31
0.0
  0
LINE
  8
0
  6
CENTER
 62
     1
  5
109
 10
318.327613
 20
146.823229
 30
0.0
 11
318.327613
 21
156.323229
 31
0.0
  0
LINE
  8
0
  6
CENTER
 62
     1
  5
10A
 10
318.327613
 20
135.473229
 30
0.0
 11
318.327613
 21
144.973229
 31
0.0
  0
LINE
  8
0
  6
CENTER
 62
     1
  5
10B
 10
333.327613
 20
185.973229
 30
0.0
 11
333.327613
 21
147.973229
 31
0.0
  0
LINE
  8
0
  6
CENTER
 62
     1
  5
10C
 10
344.327613
 20
144.973229
 30
0.0
 11
344.327613
 21
115.973229
 31
0.0
  0
LINE
  8
0
  6
CENTER
 62
     1
  5
10D
 10
100.840467
 20
-12.538544
 30
0.0
 11
111.840467
 21
-12.538544
 31
0.0
  0
LINE
  8
0
  6
CENTER
 62
     1
  5
10E
 10
106.340467
 20
-18.038544
 30
0.0
 11
106.340467
 21
-7.038544
 31
0.0
  0
LINE
  8
0
  6
CENTER
 62
     1
  5
10F
 10
106.340467
 20
7.961456
 30
0.0
 11
106.340467
 21
18.961456
 31
0.0
  0
LINE
  8
0
  6
CENTER
 62
     1
  5
110
 10
100.840467
 20
39.461456
 30
0.0
 11
111.840467
 21
39.461456
 31
0.0
  0
LINE
  8
0
  6
CENTER
 62
     1
  5
111
 10
106.340467
 20
33.961456
 30
0.0
 11
106.340467
 21
44.961456
 31
0.0
  0
LINE
  8
0
  6
CENTER
 62
     1
  5
112
 10
110.090467
 20
-1.538544
 30
0.0
 11
124.590467
 21
-1.538544
 31
0.0
  0
LINE
  8
0
  6
CENTER
 62
     1
  5
113
 10
117.340467
 20
-8.788544
 30
0.0
 11
117.340467
 21
5.711456
 31
0.0
  0
LINE
  8
0
  6
CENTER
 62
     1
  5
114
 10
117.340467
 20
7.961456
 30
0.0
 11
117.340467
 21
18.961456
 31
0.0
  0
LINE
  8
0
  6
CENTER
 62
     1
  5
115
 10
110.090467
 20
28.461456
 30
0.0
 11
124.590467
 21
28.461456
 31
0.0
  0
LINE
  8
0
  6
CENTER
 62
     1
  5
116
 10
117.340467
 20
21.211456
 30
0.0
 11
117.340467
 21
35.711456
 31
0.0
  0
LINE
  8
0
  6
CENTER
 62
     1
  5
117
 10
140.090467
 20
-1.538544
 30
0.0
 11
154.590467
 21
-1.538544
 31
0.0
  0
LINE
  8
0
  6
CENTER
 62
     1
  5
118
 10
147.340467
 20
-8.788544
 30
0.0
 11
147.340467
 21
5.711456
 31
0.0
  0
LINE
  8
0
  6
CENTER
 62
     1
  5
119
 10
141.840467
 20
13.461456
 30
0.0
 11
152.840467
 21
13.461456
 31
0.0
  0
LINE
  8
0
  6
CENTER
 62
     1
  5
11A
 10
147.340467
 20
7.961456
 30
0.0
 11
147.340467
 21
18.961456
 31
0.0
  0
LINE
  8
0
  6
CENTER
 62
     1
  5
11B
 10
140.090467
 20
28.461456
 30
0.0
 11
154.590467
 21
28.461456
 31
0.0
  0
LINE
  8
0
  6
CENTER
 62
     1
  5
11C
 10
147.340467
 20
21.211456
 30
0.0
 11
147.340467
 21
35.711456
 31
0.0
  0
LINE
  8
0
  6
CENTER
 62
     1
  5
11D
 10
152.840467
 20
-12.538544
 30
0.0
 11
163.840467
 21
-12.538544
 31
0.0
  0
LINE
  8
0
  6
CENTER
 62
     1
  5
11E
 10
158.340467
 20
-18.038544
 30
0.0
 11
158.340467
 21
-7.038544
 31
0.0
  0
LINE
  8
0
  6
CENTER
 62
     1
  5
11F
 10
152.840467
 20
13.461456
 30
0.0
 11
163.840467
 21
13.461456
 31
0.0
  0
LINE
  8
0
  6
CENTER
 62
     1
  5
120
 10
158.340467
 20
7.961456
 30
0.0
 11
158.340467
 21
18.961456
 31
0.0
  0
LINE
  8
0
  6
CENTER
 62
     1
  5
121
 10
152.840467
 20
39.461456
 30
0.0
 11
163.840467
 21
39.461456
 31
0.0
  0
LINE
  8
0
  6
CENTER
 62
     1
  5
122
 10
158.340467
 20
33.961456
 30
0.0
 11
158.340467
 21
44.961456
 31
0.0
  0
LINE
  8
0
  6
CENTER
 62
     1
  5
123
 10
100.840467
 20
13.461456
 30
0.0
 11
122.840467
 21
13.461456
 31
0.0
  0
ENDSEC
  0
EOF
