  0
SECTION
  2
HEADER
  9
$ACADVER
  1
AC1009
  9
$DWGCODEPAGE
  3
ansi_1252
  9
$INSBASE
 10
0.0
 20
0.0
 30
0.0
  9
$EXTMIN
 10
-29.544681
 20
-9.693617
 30
0.0
  9
$EXTMAX
 10
423.004243
 20
427.855307
 30
5.0
  9
$LIMMIN
 10
-29.544681
 20
-9.693617
  9
$LIMMAX
 10
423.004243
 20
427.855307
  9
$ORTHOMODE
 70
     0
  9
$REGENMODE
 70
     1
  9
$FILLMODE
 70
     1
  9
$QTEXTMODE
 70
     0
  9
$MIRRTEXT
 70
     1
  9
$DRAGMODE
 70
     2
  9
$LTSCALE
 40
10.0
  9
$OSMODE
 70
     0
  9
$ATTMODE
 70
     1
  9
$TEXTSIZE
 40
0.2
  9
$TRACEWID
 40
0.05
  9
$TEXTSTYLE
  7
STANDARD
  9
$CLAYER
  8
0
  9
$CELTYPE
  6
CONTINUOUS
  9
$CECOLOR
 62
   256
  9
$DIMSCALE
 40
1.0
  9
$DIMASZ
 40
1.25
  9
$DIMEXO
 40
1.0
  9
$DIMDLI
 40
0.38
  9
$DIMRND
 40
0.0
  9
$DIMDLE
 40
0.0
  9
$DIMEXE
 40
0.75
  9
$DIMTP
 40
0.0
  9
$DIMTM
 40
0.0
  9
$DIMTXT
 40
2.5
  9
$DIMCEN
 40
0.09
  9
$DIMTSZ
 40
0.0
  9
$DIMTOL
 70
     0
  9
$DIMLIM
 70
     0
  9
$DIMTIH
 70
     0
  9
$DIMTOH
 70
     0
  9
$DIMSE1
 70
     0
  9
$DIMSE2
 70
     0
  9
$DIMTAD
 70
     1
  9
$DIMZIN
 70
     0
  9
$DIMBLK
  1

  9
$DIMASO
 70
     1
  9
$DIMSHO
 70
     1
  9
$DIMPOST
  1

  9
$DIMAPOST
  1

  9
$DIMALT
 70
     0
  9
$DIMALTD
 70
     2
  9
$DIMALTF
 40
25.4
  9
$DIMLFAC
 40
1.0
  9
$DIMTOFL
 70
     0
  9
$DIMTVP
 40
0.0
  9
$DIMTIX
 70
     0
  9
$DIMSOXD
 70
     0
  9
$DIMSAH
 70
     0
  9
$DIMBLK1
  1

  9
$DIMBLK2
  1

  9
$DIMSTYLE
  2
STANDARD
  9
$DIMCLRD
 70
     7
  9
$DIMCLRE
 70
     7
  9
$DIMCLRT
 70
     7
  9
$DIMTFAC
 40
0.8
  9
$DIMGAP
 40
1.25
  9
$LUNITS
 70
     2
  9
$LUPREC
 70
     4
  9
$AXISMODE
 70
     0
  9
$AXISUNIT
 10
0.0
 20
0.0
  9
$SKETCHINC
 40
0.1
  9
$FILLETRAD
 40
0.0
  9
$AUNITS
 70
     0
  9
$AUPREC
 70
     0
  9
$MENU
  1
acad
  9
$ELEVATION
 40
0.0
  9
$PELEVATION
 40
0.0
  9
$THICKNESS
 40
0.0
  9
$LIMCHECK
 70
     0
  9
$BLIPMODE
 70
     1
  9
$CHAMFERA
 40
0.0
  9
$CHAMFERB
 40
0.0
  9
$SKPOLY
 70
     0
  9
$TDCREATE
 40
2454266.498113426
  9
$TDUPDATE
 40
2454266.414282408
  9
$TDINDWG
 40
0.0000000000
  9
$TDUSRTIMER
 40
0.0000000000
  9
$USRTIMER
 70
     1
  9
$ANGBASE
 50
0.0
  9
$ANGDIR
 70
     0
  9
$PDMODE
 70
     0
  9
$PDSIZE
 40
0.0
  9
$PLINEWID
 40
0.0
  9
$COORDS
 70
     0
  9
$SPLFRAME
 70
     0
  9
$SPLINETYPE
 70
     6
  9
$SPLINESEGS
 70
     8
  9
$ATTDIA
 70
     0
  9
$ATTREQ
 70
     1
  9
$HANDLING
 70
     1
  9
$HANDSEED
  5
2C4
  9
$SURFTAB1
 70
     6
  9
$SURFTAB2
 70
     6
  9
$SURFTYPE
 70
     6
  9
$SURFU
 70
     6
  9
$SURFV
 70
     6
  9
$UCSNAME
  2

  9
$UCSORG
 10
0.0
 20
0.0
 30
0.0
  9
$UCSXDIR
 10
1.0
 20
0.0
 30
0.0
  9
$UCSYDIR
 10
0.0
 20
1.0
 30
0.0
  9
$PUCSNAME
  2

  9
$PUCSORG
 10
0.0
 20
0.0
 30
0.0
  9
$PUCSXDIR
 10
1.0
 20
0.0
 30
0.0
  9
$PUCSYDIR
 10
0.0
 20
1.0
 30
0.0
  9
$USERI1
 70
     0
  9
$USERI2
 70
     0
  9
$USERI3
 70
     0
  9
$USERI4
 70
     0
  9
$USERI5
 70
     0
  9
$USERR1
 40
0.0
  9
$USERR2
 40
0.0
  9
$USERR3
 40
0.0
  9
$USERR4
 40
0.0
  9
$USERR5
 40
0.0
  9
$WORLDVIEW
 70
     1
  9
$SHADEDGE
 70
     3
  9
$SHADEDIF
 70
    70
  9
$TILEMODE
 70
     1
  9
$MAXACTVP
 70
    16
  9
$PINSBASE
 10
0.0
 20
0.0
 30
0.0
  9
$PLIMCHECK
 70
     0
  9
$PEXTMIN
 10
1.000000E+20
 20
1.000000E+20
 30
1.000000E+20
  9
$PEXTMAX
 10
-1.000000E+20
 20
-1.000000E+20
 30
-1.000000E+20
  9
$PLIMMIN
 10
0.0
 20
0.0
  9
$PLIMMAX
 10
12.0
 20
9.0
  9
$UNITMODE
 70
     0
  9
$VISRETAIN
 70
     0
  9
$PLINEGEN
 70
     1
  9
$PSLTSCALE
 70
     0
  9
$TREEDEPTH
 70
  3020
  9
$DWGCODEPAGE
  3
ansi_1252
  0
ENDSEC
  0
SECTION
  2
TABLES
  0
TABLE
  2
VPORT
 70
     1
  0
VPORT
  2
*ACTIVE
 70
     0
 10
0.0
 20
0.0
 11
1.0
 21
1.0
 12
6.591288
 22
4.579184
 13
0.0
 23
0.0
 14
1.0
 24
1.0
 15
0.0
 25
0.0
 16
0.0
 26
0.0
 36
1.0
 17
0.0
 27
0.0
 37
0.0
 40
9.158369
 41
0.688564
 42
50.0
 43
0.0
 44
0.0
 50
0.0
 51
0.0
 71
     0
 72
   100
 73
     1
 74
     1
 75
     0
 76
     0
 77
     0
 78
     0
  0
ENDTAB
  0
TABLE
  2
LTYPE
 70
     2
  0
LTYPE
  2
CONTINUOUS
 70
    64
  3
Solid line
 72
    65
 73
     0
 40
0.0
  0
LTYPE
  2
CENTER
 70
    64
  3
____ _ ____ _ ____ _ ____ _ ____ _ ____ _ ____
 72
    65
 73
     4
 40
2.0
 49
1.25
 49
-0.25
 49
0.25
 49
-0.25
  0
ENDTAB
  0
TABLE
  2
LAYER
 70
     1
  0
LAYER
  2
0
 70
     0
 62
     7
  6
CONTINUOUS
  0
ENDTAB
  0
TABLE
  2
STYLE
 70
     1
  0
STYLE
  2
STANDARD
 70
     0
 40
0.0
 41
1.0
 50
0.0
 71
     0
 42
0.0
  3
IsonormD
  4

  0
ENDTAB
  0
TABLE
  2
VIEW
 70
     0
  0
ENDTAB
  0
TABLE
  2
UCS
 70
     0
  0
ENDTAB
  0
TABLE
  2
APPID
 70
     2
  0
APPID
  2
ACAD
 70
     0
  0
APPID
  2
TopSolid_Draft
 70
     0
  0
ENDTAB
  0
TABLE
  2
DIMSTYLE
 70
     1
  0
DIMSTYLE
  2
STANDARD
 70
     0
  3

  4

  5

  6

  7

 40
1.0
 41
1.25
 42
1.0
 43
0.38
 44
0.75
 45
0.0
 46
0.0
 47
0.0
 48
0.0
 71
     0
 72
     0
 73
     0
 74
     0
 75
     0
 76
     0
 77
     1
 78
     0
140
2.5
141
0.09
142
0.0
143
25.4
144
1.0
145
0.0
146
0.8
147
1.25
170
     0
171
     2
172
     0
173
     0
174
     0
175
     0
176
     7
177
     7
178
     7
  0
ENDTAB
  0
ENDSEC
  0
SECTION
  2
BLOCKS
  0
BLOCK
  8
0
  5
25
  2
AID3
 70
     0
 10
0.0
 20
0.0
 30
0.0
  3
#draft view
  0
LINE
  8
0
  6
CONTINUOUS
 62
     7
  5
26
 10
131.153185
 20
181.288292
 30
0.0
 11
131.153185
 21
169.288292
 31
0.0
  0
LINE
  8
0
  6
CONTINUOUS
 62
     7
  5
27
 10
271.153185
 20
181.288292
 30
0.0
 11
131.153185
 21
181.288292
 31
0.0
  0
LINE
  8
0
  6
CONTINUOUS
 62
     7
  5
28
 10
271.153185
 20
181.288292
 30
0.0
 11
271.153185
 21
169.288292
 31
0.0
  0
LINE
  8
0
  6
CONTINUOUS
 62
     7
  5
29
 10
271.153185
 20
169.288292
 30
0.0
 11
131.153185
 21
169.288292
 31
0.0
  0
LINE
  8
0
  6
CONTINUOUS
 62
     7
  5
2A
 10
241.153185
 20
181.288292
 30
0.0
 11
241.153185
 21
186.288292
 31
0.0
  0
LINE
  8
0
  6
CONTINUOUS
 62
     7
  5
2B
 10
166.153185
 20
251.288292
 30
0.0
 11
241.153185
 21
186.288292
 31
0.0
  0
LINE
  8
0
  6
CONTINUOUS
 62
     7
  5
2C
 10
161.153185
 20
181.288292
 30
0.0
 11
161.153185
 21
251.288292
 31
0.0
  0
LINE
  8
0
  6
CONTINUOUS
 62
     7
  5
2D
 10
166.153185
 20
251.288292
 30
0.0
 11
161.153185
 21
251.288292
 31
0.0
  0
LINE
  8
0
  6
CONTINUOUS
 62
     7
  5
2E
 10
147.153185
 20
157.413292
 30
0.0
 11
155.153185
 21
157.413292
 31
0.0
  0
LINE
  8
0
  6
CONTINUOUS
 62
     7
  5
2F
 10
255.153185
 20
157.413292
 30
0.0
 11
247.153185
 21
157.413292
 31
0.0
  0
LINE
  8
0
  6
CONTINUOUS
 62
     7
  5
30
 10
247.778185
 20
156.788292
 30
0.0
 11
254.528185
 21
156.788292
 31
0.0
  0
LINE
  8
0
  6
CONTINUOUS
 62
     7
  5
31
 10
154.528185
 20
156.788292
 30
0.0
 11
147.778185
 21
156.788292
 31
0.0
  0
LINE
  8
0
  6
CONTINUOUS
 62
     7
  5
32
 10
222.153185
 20
202.754958
 30
0.0
 11
222.153185
 21
207.788292
 31
0.0
  0
LINE
  8
0
  6
CONTINUOUS
 62
     7
  5
33
 10
177.153185
 20
241.754958
 30
0.0
 11
177.153185
 21
247.788292
 31
0.0
  0
LINE
  8
0
  6
CONTINUOUS
 62
     7
  5
34
 10
149.778185
 20
205.288292
 30
0.0
 11
149.778185
 21
197.288292
 31
0.0
  0
LINE
  8
0
  6
CONTINUOUS
 62
     7
  5
35
 10
149.153185
 20
197.913292
 30
0.0
 11
149.153185
 21
204.663292
 31
0.0
  0
LINE
  8
0
  6
CONTINUOUS
 62
     7
  5
36
 10
149.778185
 20
245.288292
 30
0.0
 11
149.778185
 21
237.288292
 31
0.0
  0
LINE
  8
0
  6
CONTINUOUS
 62
     7
  5
37
 10
149.153185
 20
237.913292
 30
0.0
 11
149.153185
 21
244.663292
 31
0.0
  0
LINE
  8
0
  6
CONTINUOUS
 62
     7
  5
38
 10
175.403185
 20
165.788292
 30
0.0
 11
180.403185
 21
165.788292
 31
0.0
  0
LINE
  8
0
  6
CONTINUOUS
 62
     7
  5
39
 10
221.903185
 20
165.788292
 30
0.0
 11
226.903185
 21
165.788292
 31
0.0
  0
LINE
  8
0
  6
CONTINUOUS
 62
     7
  5
3A
 10
226.403185
 20
165.288292
 30
0.0
 11
222.403185
 21
165.288292
 31
0.0
  0
LINE
  8
0
  6
CONTINUOUS
 62
     7
  5
3B
 10
179.903185
 20
165.288292
 30
0.0
 11
175.903185
 21
165.288292
 31
0.0
  0
LINE
  8
0
  6
CONTINUOUS
 62
     7
  5
3C
 10
147.153185
 20
169.288292
 30
0.0
 11
147.153185
 21
157.413292
 31
0.0
  0
LINE
  8
0
  6
CONTINUOUS
 62
     7
  5
3D
 10
155.153185
 20
157.413292
 30
0.0
 11
155.153185
 21
169.288292
 31
0.0
  0
LINE
  8
0
  6
CONTINUOUS
 62
     7
  5
3E
 10
247.153185
 20
169.288292
 30
0.0
 11
247.153185
 21
157.413292
 31
0.0
  0
LINE
  8
0
  6
CONTINUOUS
 62
     7
  5
3F
 10
255.153185
 20
157.413292
 30
0.0
 11
255.153185
 21
169.288292
 31
0.0
  0
LINE
  8
0
  6
CONTINUOUS
 62
     7
  5
40
 10
247.153185
 20
157.413292
 30
0.0
 11
247.778185
 21
156.788292
 31
0.0
  0
LINE
  8
0
  6
CONTINUOUS
 62
     7
  5
41
 10
254.528185
 20
156.788292
 30
0.0
 11
255.153185
 21
157.413292
 31
0.0
  0
LINE
  8
0
  6
CONTINUOUS
 62
     7
  5
42
 10
147.153185
 20
157.413292
 30
0.0
 11
147.778185
 21
156.788292
 31
0.0
  0
LINE
  8
0
  6
CONTINUOUS
 62
     7
  5
43
 10
154.528185
 20
156.788292
 30
0.0
 11
155.153185
 21
157.413292
 31
0.0
  0
LINE
  8
0
  6
CONTINUOUS
 62
     7
  5
44
 10
222.153185
 20
207.788292
 30
0.0
 11
216.345493
 21
207.788292
 31
0.0
  0
LINE
  8
0
  6
CONTINUOUS
 62
     7
  5
45
 10
177.153185
 20
247.788292
 30
0.0
 11
170.191647
 21
247.788292
 31
0.0
  0
LINE
  8
0
  6
CONTINUOUS
 62
     7
  5
46
 10
149.778185
 20
205.288292
 30
0.0
 11
149.153185
 21
204.663292
 31
0.0
  0
LINE
  8
0
  6
CONTINUOUS
 62
     7
  5
47
 10
149.153185
 20
197.913292
 30
0.0
 11
149.778185
 21
197.288292
 31
0.0
  0
LINE
  8
0
  6
CONTINUOUS
 62
     7
  5
48
 10
161.153185
 20
205.288292
 30
0.0
 11
149.778185
 21
205.288292
 31
0.0
  0
LINE
  8
0
  6
CONTINUOUS
 62
     7
  5
49
 10
149.778185
 20
197.288292
 30
0.0
 11
161.153185
 21
197.288292
 31
0.0
  0
LINE
  8
0
  6
CONTINUOUS
 62
     7
  5
4A
 10
149.778185
 20
245.288292
 30
0.0
 11
149.153185
 21
244.663292
 31
0.0
  0
LINE
  8
0
  6
CONTINUOUS
 62
     7
  5
4B
 10
149.153185
 20
237.913292
 30
0.0
 11
149.778185
 21
237.288292
 31
0.0
  0
LINE
  8
0
  6
CONTINUOUS
 62
     7
  5
4C
 10
161.153185
 20
245.288292
 30
0.0
 11
149.778185
 21
245.288292
 31
0.0
  0
LINE
  8
0
  6
CONTINUOUS
 62
     7
  5
4D
 10
149.778185
 20
237.288292
 30
0.0
 11
161.153185
 21
237.288292
 31
0.0
  0
LINE
  8
0
  6
CONTINUOUS
 62
     7
  5
4E
 10
175.403185
 20
169.288292
 30
0.0
 11
175.403185
 21
165.788292
 31
0.0
  0
LINE
  8
0
  6
CONTINUOUS
 62
     7
  5
4F
 10
180.403185
 20
165.788292
 30
0.0
 11
180.403185
 21
169.288292
 31
0.0
  0
LINE
  8
0
  6
CONTINUOUS
 62
     7
  5
50
 10
221.903185
 20
165.788292
 30
0.0
 11
222.403185
 21
165.288292
 31
0.0
  0
LINE
  8
0
  6
CONTINUOUS
 62
     7
  5
51
 10
226.403185
 20
165.288292
 30
0.0
 11
226.903185
 21
165.788292
 31
0.0
  0
LINE
  8
0
  6
CONTINUOUS
 62
     7
  5
52
 10
175.403185
 20
165.788292
 30
0.0
 11
175.903185
 21
165.288292
 31
0.0
  0
LINE
  8
0
  6
CONTINUOUS
 62
     7
  5
53
 10
179.903185
 20
165.288292
 30
0.0
 11
180.403185
 21
165.788292
 31
0.0
  0
LINE
  8
0
  6
CONTINUOUS
 62
     7
  5
54
 10
221.903185
 20
169.288292
 30
0.0
 11
221.903185
 21
165.788292
 31
0.0
  0
LINE
  8
0
  6
CONTINUOUS
 62
     7
  5
55
 10
226.903185
 20
165.788292
 30
0.0
 11
226.903185
 21
169.288292
 31
0.0
  0
ENDBLK
  8
0
  5
56
  0
BLOCK
  8
0
  5
59
  2
AID103
 70
     0
 10
0.0
 20
0.0
 30
0.0
  3
#auxiliary draft view
  0
LINE
  8
0
  6
CONTINUOUS
 62
     7
  5
5A
 10
166.153185
 20
1.306383
 30
0.0
 11
241.153185
 21
1.306383
 31
0.0
  0
LINE
  8
0
  6
CONTINUOUS
 62
     7
  5
5B
 10
166.153185
 20
1.306383
 30
0.0
 11
166.153185
 21
59.306383
 31
0.0
  0
LINE
  8
0
  6
CONTINUOUS
 62
     7
  5
5C
 10
241.153185
 20
1.306383
 30
0.0
 11
241.153185
 21
59.306383
 31
0.0
  0
POLYLINE
  8
0
  6
CONTINUOUS
 62
     7
  5
5D
 66
     1
 10
0.0
 20
0.0
 30
0.0
 40
0.1
 41
0.1
  0
VERTEX
  8
0
 62
     7
  5
5E
 10
169.153185
 20
49.085727
 30
0.0
  0
VERTEX
  8
0
 62
     7
  5
5F
 10
169.27334
 20
48.568471
 30
0.0
  0
VERTEX
  8
0
 62
     7
  5
60
 10
169.435159
 20
48.059816
 30
0.0
  0
VERTEX
  8
0
 62
     7
  5
61
 10
169.637842
 20
47.56228
 30
0.0
  0
VERTEX
  8
0
 62
     7
  5
62
 10
169.880385
 20
47.078326
 30
0.0
  0
VERTEX
  8
0
 62
     7
  5
63
 10
170.161589
 20
46.610348
 30
0.0
  0
VERTEX
  8
0
 62
     7
  5
64
 10
170.480062
 20
46.160662
 30
0.0
  0
VERTEX
  8
0
 62
     7
  5
65
 10
170.834226
 20
45.731496
 30
0.0
  0
VERTEX
  8
0
 62
     7
  5
66
 10
171.22233
 20
45.324971
 30
0.0
  0
VERTEX
  8
0
 62
     7
  5
67
 10
171.642453
 20
44.943102
 30
0.0
  0
VERTEX
  8
0
 62
     7
  5
68
 10
172.092515
 20
44.587776
 30
0.0
  0
VERTEX
  8
0
 62
     7
  5
69
 10
172.570289
 20
44.260754
 30
0.0
  0
VERTEX
  8
0
 62
     7
  5
6A
 10
173.073409
 20
43.963653
 30
0.0
  0
VERTEX
  8
0
 62
     7
  5
6B
 10
173.599387
 20
43.697945
 30
0.0
  0
VERTEX
  8
0
 62
     7
  5
6C
 10
174.145619
 20
43.464943
 30
0.0
  0
VERTEX
  8
0
 62
     7
  5
6D
 10
174.709401
 20
43.265802
 30
0.0
  0
VERTEX
  8
0
 62
     7
  5
6E
 10
175.287942
 20
43.101507
 30
0.0
  0
VERTEX
  8
0
 62
     7
  5
6F
 10
175.878381
 20
42.972871
 30
0.0
  0
VERTEX
  8
0
 62
     7
  5
70
 10
176.477794
 20
42.88053
 30
0.0
  0
VERTEX
  8
0
 62
     7
  5
71
 10
177.083215
 20
42.824942
 30
0.0
  0
VERTEX
  8
0
 62
     7
  5
72
 10
177.691647
 20
42.806383
 30
0.0
  0
SEQEND
  8
0
  5
73
  0
LINE
  8
0
  6
CONTINUOUS
 62
     7
  5
74
 10
169.153185
 20
51.527038
 30
0.0
 11
169.153185
 21
49.085727
 31
0.0
  0
POLYLINE
  8
0
  6
CONTINUOUS
 62
     7
  5
75
 66
     1
 10
0.0
 20
0.0
 30
0.0
 40
0.1
 41
0.1
  0
VERTEX
  8
0
 62
     7
  5
76
 10
169.153185
 20
9.085727
 30
0.0
  0
VERTEX
  8
0
 62
     7
  5
77
 10
169.27334
 20
8.568471
 30
0.0
  0
VERTEX
  8
0
 62
     7
  5
78
 10
169.435159
 20
8.059816
 30
0.0
  0
VERTEX
  8
0
 62
     7
  5
79
 10
169.637842
 20
7.56228
 30
0.0
  0
VERTEX
  8
0
 62
     7
  5
7A
 10
169.880385
 20
7.078326
 30
0.0
  0
VERTEX
  8
0
 62
     7
  5
7B
 10
170.161589
 20
6.610348
 30
0.0
  0
VERTEX
  8
0
 62
     7
  5
7C
 10
170.480062
 20
6.160662
 30
0.0
  0
VERTEX
  8
0
 62
     7
  5
7D
 10
170.834226
 20
5.731496
 30
0.0
  0
VERTEX
  8
0
 62
     7
  5
7E
 10
171.22233
 20
5.324971
 30
0.0
  0
VERTEX
  8
0
 62
     7
  5
7F
 10
171.642453
 20
4.943102
 30
0.0
  0
VERTEX
  8
0
 62
     7
  5
80
 10
172.092515
 20
4.587776
 30
0.0
  0
VERTEX
  8
0
 62
     7
  5
81
 10
172.570289
 20
4.260754
 30
0.0
  0
VERTEX
  8
0
 62
     7
  5
82
 10
173.073409
 20
3.963653
 30
0.0
  0
VERTEX
  8
0
 62
     7
  5
83
 10
173.599387
 20
3.697945
 30
0.0
  0
VERTEX
  8
0
 62
     7
  5
84
 10
174.145619
 20
3.464943
 30
0.0
  0
VERTEX
  8
0
 62
     7
  5
85
 10
174.709401
 20
3.265802
 30
0.0
  0
VERTEX
  8
0
 62
     7
  5
86
 10
175.287942
 20
3.101507
 30
0.0
  0
VERTEX
  8
0
 62
     7
  5
87
 10
175.878381
 20
2.972871
 30
0.0
  0
VERTEX
  8
0
 62
     7
  5
88
 10
176.477794
 20
2.88053
 30
0.0
  0
VERTEX
  8
0
 62
     7
  5
89
 10
177.083215
 20
2.824942
 30
0.0
  0
VERTEX
  8
0
 62
     7
  5
8A
 10
177.691647
 20
2.806383
 30
0.0
  0
SEQEND
  8
0
  5
8B
  0
LINE
  8
0
  6
CONTINUOUS
 62
     7
  5
8C
 10
169.153185
 20
11.527038
 30
0.0
 11
169.153185
 21
9.085727
 31
0.0
  0
POLYLINE
  8
0
  6
CONTINUOUS
 62
     7
  5
8D
 66
     1
 10
0.0
 20
0.0
 30
0.0
 40
0.1
 41
0.1
  0
VERTEX
  8
0
 62
     7
  5
8E
 10
215.191647
 20
10.306383
 30
0.0
  0
VERTEX
  8
0
 62
     7
  5
8F
 10
215.218324
 20
9.717939
 30
0.0
  0
VERTEX
  8
0
 62
     7
  5
90
 10
215.29819
 20
9.133124
 30
0.0
  0
VERTEX
  8
0
 62
     7
  5
91
 10
215.430753
 20
8.555542
 30
0.0
  0
VERTEX
  8
0
 62
     7
  5
92
 10
215.615196
 20
7.988755
 30
0.0
  0
VERTEX
  8
0
 62
     7
  5
93
 10
215.850382
 20
7.436257
 30
0.0
  0
VERTEX
  8
0
 62
     7
  5
94
 10
216.13486
 20
6.901454
 30
0.0
  0
VERTEX
  8
0
 62
     7
  5
95
 10
216.466876
 20
6.387643
 30
0.0
  0
VERTEX
  8
0
 62
     7
  5
96
 10
216.844384
 20
5.897993
 30
0.0
  0
VERTEX
  8
0
 62
     7
  5
97
 10
217.265057
 20
5.435522
 30
0.0
  0
VERTEX
  8
0
 62
     7
  5
98
 10
217.7263
 20
5.003082
 30
0.0
  0
VERTEX
  8
0
 62
     7
  5
99
 10
218.225269
 20
4.603338
 30
0.0
  0
VERTEX
  8
0
 62
     7
  5
9A
 10
218.75889
 20
4.238755
 30
0.0
  0
VERTEX
  8
0
 62
     7
  5
9B
 10
219.323871
 20
3.911581
 30
0.0
  0
VERTEX
  8
0
 62
     7
  5
9C
 10
219.916729
 20
3.623834
 30
0.0
  0
VERTEX
  8
0
 62
     7
  5
9D
 10
220.533809
 20
3.377286
 30
0.0
  0
VERTEX
  8
0
 62
     7
  5
9E
 10
221.171307
 20
3.173459
 30
0.0
  0
VERTEX
  8
0
 62
     7
  5
9F
 10
221.825293
 20
3.013608
 30
0.0
  0
VERTEX
  8
0
 62
     7
  5
A0
 10
222.491733
 20
2.89872
 30
0.0
  0
VERTEX
  8
0
 62
     7
  5
A1
 10
223.16652
 20
2.829503
 30
0.0
  0
VERTEX
  8
0
 62
     7
  5
A2
 10
223.845493
 20
2.806383
 30
0.0
  0
SEQEND
  8
0
  5
A3
  0
POLYLINE
  8
0
  6
CONTINUOUS
 62
     7
  5
A4
 66
     1
 10
0.0
 20
0.0
 30
0.0
 40
0.1
 41
0.1
  0
VERTEX
  8
0
 62
     7
  5
A5
 10
215.191647
 20
50.306383
 30
0.0
  0
VERTEX
  8
0
 62
     7
  5
A6
 10
215.218324
 20
49.717939
 30
0.0
  0
VERTEX
  8
0
 62
     7
  5
A7
 10
215.29819
 20
49.133124
 30
0.0
  0
VERTEX
  8
0
 62
     7
  5
A8
 10
215.430753
 20
48.555542
 30
0.0
  0
VERTEX
  8
0
 62
     7
  5
A9
 10
215.615196
 20
47.988755
 30
0.0
  0
VERTEX
  8
0
 62
     7
  5
AA
 10
215.850382
 20
47.436257
 30
0.0
  0
VERTEX
  8
0
 62
     7
  5
AB
 10
216.13486
 20
46.901454
 30
0.0
  0
VERTEX
  8
0
 62
     7
  5
AC
 10
216.466876
 20
46.387643
 30
0.0
  0
VERTEX
  8
0
 62
     7
  5
AD
 10
216.844384
 20
45.897993
 30
0.0
  0
VERTEX
  8
0
 62
     7
  5
AE
 10
217.265057
 20
45.435522
 30
0.0
  0
VERTEX
  8
0
 62
     7
  5
AF
 10
217.7263
 20
45.003082
 30
0.0
  0
VERTEX
  8
0
 62
     7
  5
B0
 10
218.225269
 20
44.603338
 30
0.0
  0
VERTEX
  8
0
 62
     7
  5
B1
 10
218.75889
 20
44.238755
 30
0.0
  0
VERTEX
  8
0
 62
     7
  5
B2
 10
219.323871
 20
43.911581
 30
0.0
  0
VERTEX
  8
0
 62
     7
  5
B3
 10
219.916729
 20
43.623834
 30
0.0
  0
VERTEX
  8
0
 62
     7
  5
B4
 10
220.533809
 20
43.377286
 30
0.0
  0
VERTEX
  8
0
 62
     7
  5
B5
 10
221.171307
 20
43.173459
 30
0.0
  0
VERTEX
  8
0
 62
     7
  5
B6
 10
221.825293
 20
43.013608
 30
0.0
  0
VERTEX
  8
0
 62
     7
  5
B7
 10
222.491733
 20
42.89872
 30
0.0
  0
VERTEX
  8
0
 62
     7
  5
B8
 10
223.16652
 20
42.829503
 30
0.0
  0
VERTEX
  8
0
 62
     7
  5
B9
 10
223.845493
 20
42.806383
 30
0.0
  0
SEQEND
  8
0
  5
BA
  0
LINE
  8
0
  6
CONTINUOUS
 62
     7
  5
BB
 10
241.153185
 20
59.306383
 30
0.0
 11
166.153185
 21
59.306383
 31
0.0
  0
LINE
  8
0
  6
CONTINUOUS
 62
     7
  5
BC
 10
161.153185
 20
1.306383
 30
0.0
 11
161.153185
 21
59.306383
 31
0.0
  0
LINE
  8
0
  6
CONTINUOUS
 62
     7
  5
BD
 10
166.153185
 20
1.306383
 30
0.0
 11
161.153185
 21
1.306383
 31
0.0
  0
LINE
  8
0
  6
CONTINUOUS
 62
     7
  5
BE
 10
161.153185
 20
59.306383
 30
0.0
 11
166.153185
 21
59.306383
 31
0.0
  0
POLYLINE
  8
0
  6
CONTINUOUS
 62
     7
  5
BF
 66
     1
 10
0.0
 20
0.0
 30
0.0
 40
0.1
 41
0.1
  0
VERTEX
  8
0
 62
     7
  5
C0
 10
177.691647
 20
17.806383
 30
0.0
  0
VERTEX
  8
0
 62
     7
  5
C1
 10
177.083215
 20
17.787823
 30
0.0
  0
VERTEX
  8
0
 62
     7
  5
C2
 10
176.477794
 20
17.732235
 30
0.0
  0
VERTEX
  8
0
 62
     7
  5
C3
 10
175.878381
 20
17.639895
 30
0.0
  0
VERTEX
  8
0
 62
     7
  5
C4
 10
175.287942
 20
17.511258
 30
0.0
  0
VERTEX
  8
0
 62
     7
  5
C5
 10
174.709401
 20
17.346963
 30
0.0
  0
VERTEX
  8
0
 62
     7
  5
C6
 10
174.145619
 20
17.147822
 30
0.0
  0
VERTEX
  8
0
 62
     7
  5
C7
 10
173.599387
 20
16.91482
 30
0.0
  0
VERTEX
  8
0
 62
     7
  5
C8
 10
173.073409
 20
16.649112
 30
0.0
  0
VERTEX
  8
0
 62
     7
  5
C9
 10
172.570289
 20
16.352011
 30
0.0
  0
VERTEX
  8
0
 62
     7
  5
CA
 10
172.092515
 20
16.024989
 30
0.0
  0
VERTEX
  8
0
 62
     7
  5
CB
 10
171.642453
 20
15.669664
 30
0.0
  0
VERTEX
  8
0
 62
     7
  5
CC
 10
171.22233
 20
15.287794
 30
0.0
  0
VERTEX
  8
0
 62
     7
  5
CD
 10
170.834226
 20
14.88127
 30
0.0
  0
VERTEX
  8
0
 62
     7
  5
CE
 10
170.480062
 20
14.452103
 30
0.0
  0
VERTEX
  8
0
 62
     7
  5
CF
 10
170.161589
 20
14.002418
 30
0.0
  0
VERTEX
  8
0
 62
     7
  5
D0
 10
169.880385
 20
13.53444
 30
0.0
  0
VERTEX
  8
0
 62
     7
  5
D1
 10
169.637842
 20
13.050485
 30
0.0
  0
VERTEX
  8
0
 62
     7
  5
D2
 10
169.435159
 20
12.552949
 30
0.0
  0
VERTEX
  8
0
 62
     7
  5
D3
 10
169.27334
 20
12.044294
 30
0.0
  0
VERTEX
  8
0
 62
     7
  5
D4
 10
169.153185
 20
11.527038
 30
0.0
  0
SEQEND
  8
0
  5
D5
  0
POLYLINE
  8
0
  6
CONTINUOUS
 62
     7
  5
D6
 66
     1
 10
0.0
 20
0.0
 30
0.0
 40
0.1
 41
0.1
  0
VERTEX
  8
0
 62
     7
  5
D7
 10
177.691647
 20
2.806383
 30
0.0
  0
VERTEX
  8
0
 62
     7
  5
D8
 10
178.37062
 20
2.829503
 30
0.0
  0
VERTEX
  8
0
 62
     7
  5
D9
 10
179.045407
 20
2.89872
 30
0.0
  0
VERTEX
  8
0
 62
     7
  5
DA
 10
179.711847
 20
3.013608
 30
0.0
  0
VERTEX
  8
0
 62
     7
  5
DB
 10
180.365832
 20
3.173459
 30
0.0
  0
VERTEX
  8
0
 62
     7
  5
DC
 10
181.00333
 20
3.377286
 30
0.0
  0
VERTEX
  8
0
 62
     7
  5
DD
 10
181.620411
 20
3.623834
 30
0.0
  0
VERTEX
  8
0
 62
     7
  5
DE
 10
182.213269
 20
3.911581
 30
0.0
  0
VERTEX
  8
0
 62
     7
  5
DF
 10
182.77825
 20
4.238755
 30
0.0
  0
VERTEX
  8
0
 62
     7
  5
E0
 10
183.31187
 20
4.603338
 30
0.0
  0
VERTEX
  8
0
 62
     7
  5
E1
 10
183.81084
 20
5.003082
 30
0.0
  0
VERTEX
  8
0
 62
     7
  5
E2
 10
184.272083
 20
5.435522
 30
0.0
  0
VERTEX
  8
0
 62
     7
  5
E3
 10
184.692755
 20
5.897993
 30
0.0
  0
VERTEX
  8
0
 62
     7
  5
E4
 10
185.070264
 20
6.387643
 30
0.0
  0
VERTEX
  8
0
 62
     7
  5
E5
 10
185.40228
 20
6.901454
 30
0.0
  0
VERTEX
  8
0
 62
     7
  5
E6
 10
185.686758
 20
7.436257
 30
0.0
  0
VERTEX
  8
0
 62
     7
  5
E7
 10
185.921944
 20
7.988755
 30
0.0
  0
VERTEX
  8
0
 62
     7
  5
E8
 10
186.106386
 20
8.555542
 30
0.0
  0
VERTEX
  8
0
 62
     7
  5
E9
 10
186.23895
 20
9.133124
 30
0.0
  0
VERTEX
  8
0
 62
     7
  5
EA
 10
186.318816
 20
9.717939
 30
0.0
  0
VERTEX
  8
0
 62
     7
  5
EB
 10
186.345493
 20
10.306383
 30
0.0
  0
VERTEX
  8
0
 62
     7
  5
EC
 10
186.318816
 20
10.894826
 30
0.0
  0
VERTEX
  8
0
 62
     7
  5
ED
 10
186.23895
 20
11.479641
 30
0.0
  0
VERTEX
  8
0
 62
     7
  5
EE
 10
186.106386
 20
12.057223
 30
0.0
  0
VERTEX
  8
0
 62
     7
  5
EF
 10
185.921944
 20
12.62401
 30
0.0
  0
VERTEX
  8
0
 62
     7
  5
F0
 10
185.686758
 20
13.176508
 30
0.0
  0
VERTEX
  8
0
 62
     7
  5
F1
 10
185.40228
 20
13.711311
 30
0.0
  0
VERTEX
  8
0
 62
     7
  5
F2
 10
185.070264
 20
14.225122
 30
0.0
  0
VERTEX
  8
0
 62
     7
  5
F3
 10
184.692755
 20
14.714772
 30
0.0
  0
VERTEX
  8
0
 62
     7
  5
F4
 10
184.272083
 20
15.177243
 30
0.0
  0
VERTEX
  8
0
 62
     7
  5
F5
 10
183.81084
 20
15.609683
 30
0.0
  0
VERTEX
  8
0
 62
     7
  5
F6
 10
183.31187
 20
16.009427
 30
0.0
  0
VERTEX
  8
0
 62
     7
  5
F7
 10
182.77825
 20
16.37401
 30
0.0
  0
VERTEX
  8
0
 62
     7
  5
F8
 10
182.213269
 20
16.701184
 30
0.0
  0
VERTEX
  8
0
 62
     7
  5
F9
 10
181.620411
 20
16.988932
 30
0.0
  0
VERTEX
  8
0
 62
     7
  5
FA
 10
181.00333
 20
17.235479
 30
0.0
  0
VERTEX
  8
0
 62
     7
  5
FB
 10
180.365832
 20
17.439306
 30
0.0
  0
VERTEX
  8
0
 62
     7
  5
FC
 10
179.711847
 20
17.599157
 30
0.0
  0
VERTEX
  8
0
 62
     7
  5
FD
 10
179.045407
 20
17.714045
 30
0.0
  0
VERTEX
  8
0
 62
     7
  5
FE
 10
178.37062
 20
17.783263
 30
0.0
  0
VERTEX
  8
0
 62
     7
  5
FF
 10
177.691647
 20
17.806383
 30
0.0
  0
SEQEND
  8
0
  5
100
  0
POLYLINE
  8
0
  6
CONTINUOUS
 62
     7
  5
101
 66
     1
 10
0.0
 20
0.0
 30
0.0
 40
0.1
 41
0.1
  0
VERTEX
  8
0
 62
     7
  5
102
 10
177.691647
 20
57.806383
 30
0.0
  0
VERTEX
  8
0
 62
     7
  5
103
 10
177.083215
 20
57.787823
 30
0.0
  0
VERTEX
  8
0
 62
     7
  5
104
 10
176.477794
 20
57.732235
 30
0.0
  0
VERTEX
  8
0
 62
     7
  5
105
 10
175.878381
 20
57.639895
 30
0.0
  0
VERTEX
  8
0
 62
     7
  5
106
 10
175.287942
 20
57.511258
 30
0.0
  0
VERTEX
  8
0
 62
     7
  5
107
 10
174.709401
 20
57.346963
 30
0.0
  0
VERTEX
  8
0
 62
     7
  5
108
 10
174.145619
 20
57.147822
 30
0.0
  0
VERTEX
  8
0
 62
     7
  5
109
 10
173.599387
 20
56.91482
 30
0.0
  0
VERTEX
  8
0
 62
     7
  5
10A
 10
173.073409
 20
56.649112
 30
0.0
  0
VERTEX
  8
0
 62
     7
  5
10B
 10
172.570289
 20
56.352011
 30
0.0
  0
VERTEX
  8
0
 62
     7
  5
10C
 10
172.092515
 20
56.024989
 30
0.0
  0
VERTEX
  8
0
 62
     7
  5
10D
 10
171.642453
 20
55.669664
 30
0.0
  0
VERTEX
  8
0
 62
     7
  5
10E
 10
171.22233
 20
55.287794
 30
0.0
  0
VERTEX
  8
0
 62
     7
  5
10F
 10
170.834226
 20
54.88127
 30
0.0
  0
VERTEX
  8
0
 62
     7
  5
110
 10
170.480062
 20
54.452103
 30
0.0
  0
VERTEX
  8
0
 62
     7
  5
111
 10
170.161589
 20
54.002418
 30
0.0
  0
VERTEX
  8
0
 62
     7
  5
112
 10
169.880385
 20
53.53444
 30
0.0
  0
VERTEX
  8
0
 62
     7
  5
113
 10
169.637842
 20
53.050485
 30
0.0
  0
VERTEX
  8
0
 62
     7
  5
114
 10
169.435159
 20
52.552949
 30
0.0
  0
VERTEX
  8
0
 62
     7
  5
115
 10
169.27334
 20
52.044294
 30
0.0
  0
VERTEX
  8
0
 62
     7
  5
116
 10
169.153185
 20
51.527038
 30
0.0
  0
SEQEND
  8
0
  5
117
  0
POLYLINE
  8
0
  6
CONTINUOUS
 62
     7
  5
118
 66
     1
 10
0.0
 20
0.0
 30
0.0
 40
0.1
 41
0.1
  0
VERTEX
  8
0
 62
     7
  5
119
 10
177.691647
 20
42.806383
 30
0.0
  0
VERTEX
  8
0
 62
     7
  5
11A
 10
178.37062
 20
42.829503
 30
0.0
  0
VERTEX
  8
0
 62
     7
  5
11B
 10
179.045407
 20
42.89872
 30
0.0
  0
VERTEX
  8
0
 62
     7
  5
11C
 10
179.711847
 20
43.013608
 30
0.0
  0
VERTEX
  8
0
 62
     7
  5
11D
 10
180.365832
 20
43.173459
 30
0.0
  0
VERTEX
  8
0
 62
     7
  5
11E
 10
181.00333
 20
43.377286
 30
0.0
  0
VERTEX
  8
0
 62
     7
  5
11F
 10
181.620411
 20
43.623834
 30
0.0
  0
VERTEX
  8
0
 62
     7
  5
120
 10
182.213269
 20
43.911581
 30
0.0
  0
VERTEX
  8
0
 62
     7
  5
121
 10
182.77825
 20
44.238755
 30
0.0
  0
VERTEX
  8
0
 62
     7
  5
122
 10
183.31187
 20
44.603338
 30
0.0
  0
VERTEX
  8
0
 62
     7
  5
123
 10
183.81084
 20
45.003082
 30
0.0
  0
VERTEX
  8
0
 62
     7
  5
124
 10
184.272083
 20
45.435522
 30
0.0
  0
VERTEX
  8
0
 62
     7
  5
125
 10
184.692755
 20
45.897993
 30
0.0
  0
VERTEX
  8
0
 62
     7
  5
126
 10
185.070264
 20
46.387643
 30
0.0
  0
VERTEX
  8
0
 62
     7
  5
127
 10
185.40228
 20
46.901454
 30
0.0
  0
VERTEX
  8
0
 62
     7
  5
128
 10
185.686758
 20
47.436257
 30
0.0
  0
VERTEX
  8
0
 62
     7
  5
129
 10
185.921944
 20
47.988755
 30
0.0
  0
VERTEX
  8
0
 62
     7
  5
12A
 10
186.106386
 20
48.555542
 30
0.0
  0
VERTEX
  8
0
 62
     7
  5
12B
 10
186.23895
 20
49.133124
 30
0.0
  0
VERTEX
  8
0
 62
     7
  5
12C
 10
186.318816
 20
49.717939
 30
0.0
  0
VERTEX
  8
0
 62
     7
  5
12D
 10
186.345493
 20
50.306383
 30
0.0
  0
VERTEX
  8
0
 62
     7
  5
12E
 10
186.318816
 20
50.894826
 30
0.0
  0
VERTEX
  8
0
 62
     7
  5
12F
 10
186.23895
 20
51.479641
 30
0.0
  0
VERTEX
  8
0
 62
     7
  5
130
 10
186.106386
 20
52.057223
 30
0.0
  0
VERTEX
  8
0
 62
     7
  5
131
 10
185.921944
 20
52.62401
 30
0.0
  0
VERTEX
  8
0
 62
     7
  5
132
 10
185.686758
 20
53.176508
 30
0.0
  0
VERTEX
  8
0
 62
     7
  5
133
 10
185.40228
 20
53.711311
 30
0.0
  0
VERTEX
  8
0
 62
     7
  5
134
 10
185.070264
 20
54.225122
 30
0.0
  0
VERTEX
  8
0
 62
     7
  5
135
 10
184.692755
 20
54.714772
 30
0.0
  0
VERTEX
  8
0
 62
     7
  5
136
 10
184.272083
 20
55.177243
 30
0.0
  0
VERTEX
  8
0
 62
     7
  5
137
 10
183.81084
 20
55.609683
 30
0.0
  0
VERTEX
  8
0
 62
     7
  5
138
 10
183.31187
 20
56.009427
 30
0.0
  0
VERTEX
  8
0
 62
     7
  5
139
 10
182.77825
 20
56.37401
 30
0.0
  0
VERTEX
  8
0
 62
     7
  5
13A
 10
182.213269
 20
56.701184
 30
0.0
  0
VERTEX
  8
0
 62
     7
  5
13B
 10
181.620411
 20
56.988932
 30
0.0
  0
VERTEX
  8
0
 62
     7
  5
13C
 10
181.00333
 20
57.235479
 30
0.0
  0
VERTEX
  8
0
 62
     7
  5
13D
 10
180.365832
 20
57.439306
 30
0.0
  0
VERTEX
  8
0
 62
     7
  5
13E
 10
179.711847
 20
57.599157
 30
0.0
  0
VERTEX
  8
0
 62
     7
  5
13F
 10
179.045407
 20
57.714045
 30
0.0
  0
VERTEX
  8
0
 62
     7
  5
140
 10
178.37062
 20
57.783263
 30
0.0
  0
VERTEX
  8
0
 62
     7
  5
141
 10
177.691647
 20
57.806383
 30
0.0
  0
SEQEND
  8
0
  5
142
  0
LINE
  8
0
  6
CONTINUOUS
 62
     7
  5
143
 10
177.153185
 20
43.806383
 30
0.0
 11
177.153185
 21
56.806383
 31
0.0
  0
LINE
  8
0
  6
CONTINUOUS
 62
     7
  5
144
 10
177.153185
 20
3.806383
 30
0.0
 11
177.153185
 21
16.806383
 31
0.0
  0
LINE
  8
0
  6
CONTINUOUS
 62
     7
  5
145
 10
149.778185
 20
14.306383
 30
0.0
 11
149.778185
 21
6.306383
 31
0.0
  0
LINE
  8
0
  6
CONTINUOUS
 62
     7
  5
146
 10
149.778185
 20
54.306383
 30
0.0
 11
149.778185
 21
46.306383
 31
0.0
  0
LINE
  8
0
  6
CONTINUOUS
 62
     7
  5
147
 10
149.153185
 20
46.931383
 30
0.0
 11
149.153185
 21
53.681383
 31
0.0
  0
LINE
  8
0
  6
CONTINUOUS
 62
     7
  5
148
 10
149.153185
 20
6.931383
 30
0.0
 11
149.153185
 21
13.681383
 31
0.0
  0
POLYLINE
  8
0
  6
CONTINUOUS
 62
     7
  5
149
 66
     1
 10
0.0
 20
0.0
 30
0.0
 40
0.1
 41
0.1
  0
VERTEX
  8
0
 62
     7
  5
14A
 10
223.845493
 20
17.806383
 30
0.0
  0
VERTEX
  8
0
 62
     7
  5
14B
 10
223.16652
 20
17.783263
 30
0.0
  0
VERTEX
  8
0
 62
     7
  5
14C
 10
222.491733
 20
17.714045
 30
0.0
  0
VERTEX
  8
0
 62
     7
  5
14D
 10
221.825293
 20
17.599157
 30
0.0
  0
VERTEX
  8
0
 62
     7
  5
14E
 10
221.171307
 20
17.439306
 30
0.0
  0
VERTEX
  8
0
 62
     7
  5
14F
 10
220.533809
 20
17.235479
 30
0.0
  0
VERTEX
  8
0
 62
     7
  5
150
 10
219.916729
 20
16.988932
 30
0.0
  0
VERTEX
  8
0
 62
     7
  5
151
 10
219.323871
 20
16.701184
 30
0.0
  0
VERTEX
  8
0
 62
     7
  5
152
 10
218.75889
 20
16.37401
 30
0.0
  0
VERTEX
  8
0
 62
     7
  5
153
 10
218.225269
 20
16.009427
 30
0.0
  0
VERTEX
  8
0
 62
     7
  5
154
 10
217.7263
 20
15.609683
 30
0.0
  0
VERTEX
  8
0
 62
     7
  5
155
 10
217.265057
 20
15.177243
 30
0.0
  0
VERTEX
  8
0
 62
     7
  5
156
 10
216.844384
 20
14.714772
 30
0.0
  0
VERTEX
  8
0
 62
     7
  5
157
 10
216.466876
 20
14.225122
 30
0.0
  0
VERTEX
  8
0
 62
     7
  5
158
 10
216.13486
 20
13.711311
 30
0.0
  0
VERTEX
  8
0
 62
     7
  5
159
 10
215.850382
 20
13.176508
 30
0.0
  0
VERTEX
  8
0
 62
     7
  5
15A
 10
215.615196
 20
12.62401
 30
0.0
  0
VERTEX
  8
0
 62
     7
  5
15B
 10
215.430753
 20
12.057223
 30
0.0
  0
VERTEX
  8
0
 62
     7
  5
15C
 10
215.29819
 20
11.479641
 30
0.0
  0
VERTEX
  8
0
 62
     7
  5
15D
 10
215.218324
 20
10.894826
 30
0.0
  0
VERTEX
  8
0
 62
     7
  5
15E
 10
215.191647
 20
10.306383
 30
0.0
  0
SEQEND
  8
0
  5
15F
  0
POLYLINE
  8
0
  6
CONTINUOUS
 62
     7
  5
160
 66
     1
 10
0.0
 20
0.0
 30
0.0
 40
0.1
 41
0.1
  0
VERTEX
  8
0
 62
     7
  5
161
 10
223.845493
 20
2.806383
 30
0.0
  0
VERTEX
  8
0
 62
     7
  5
162
 10
224.524466
 20
2.829503
 30
0.0
  0
VERTEX
  8
0
 62
     7
  5
163
 10
225.199253
 20
2.89872
 30
0.0
  0
VERTEX
  8
0
 62
     7
  5
164
 10
225.865693
 20
3.013608
 30
0.0
  0
VERTEX
  8
0
 62
     7
  5
165
 10
226.519678
 20
3.173459
 30
0.0
  0
VERTEX
  8
0
 62
     7
  5
166
 10
227.157176
 20
3.377286
 30
0.0
  0
VERTEX
  8
0
 62
     7
  5
167
 10
227.774257
 20
3.623834
 30
0.0
  0
VERTEX
  8
0
 62
     7
  5
168
 10
228.367115
 20
3.911581
 30
0.0
  0
VERTEX
  8
0
 62
     7
  5
169
 10
228.932096
 20
4.238755
 30
0.0
  0
VERTEX
  8
0
 62
     7
  5
16A
 10
229.465716
 20
4.603338
 30
0.0
  0
VERTEX
  8
0
 62
     7
  5
16B
 10
229.964686
 20
5.003082
 30
0.0
  0
VERTEX
  8
0
 62
     7
  5
16C
 10
230.425929
 20
5.435522
 30
0.0
  0
VERTEX
  8
0
 62
     7
  5
16D
 10
230.846602
 20
5.897993
 30
0.0
  0
VERTEX
  8
0
 62
     7
  5
16E
 10
231.22411
 20
6.387643
 30
0.0
  0
VERTEX
  8
0
 62
     7
  5
16F
 10
231.556126
 20
6.901454
 30
0.0
  0
VERTEX
  8
0
 62
     7
  5
170
 10
231.840604
 20
7.436257
 30
0.0
  0
VERTEX
  8
0
 62
     7
  5
171
 10
232.07579
 20
7.988755
 30
0.0
  0
VERTEX
  8
0
 62
     7
  5
172
 10
232.260233
 20
8.555542
 30
0.0
  0
VERTEX
  8
0
 62
     7
  5
173
 10
232.392796
 20
9.133124
 30
0.0
  0
VERTEX
  8
0
 62
     7
  5
174
 10
232.472662
 20
9.717939
 30
0.0
  0
VERTEX
  8
0
 62
     7
  5
175
 10
232.499339
 20
10.306383
 30
0.0
  0
VERTEX
  8
0
 62
     7
  5
176
 10
232.472662
 20
10.894826
 30
0.0
  0
VERTEX
  8
0
 62
     7
  5
177
 10
232.392796
 20
11.479641
 30
0.0
  0
VERTEX
  8
0
 62
     7
  5
178
 10
232.260233
 20
12.057223
 30
0.0
  0
VERTEX
  8
0
 62
     7
  5
179
 10
232.07579
 20
12.62401
 30
0.0
  0
VERTEX
  8
0
 62
     7
  5
17A
 10
231.840604
 20
13.176508
 30
0.0
  0
VERTEX
  8
0
 62
     7
  5
17B
 10
231.556126
 20
13.711311
 30
0.0
  0
VERTEX
  8
0
 62
     7
  5
17C
 10
231.22411
 20
14.225122
 30
0.0
  0
VERTEX
  8
0
 62
     7
  5
17D
 10
230.846602
 20
14.714772
 30
0.0
  0
VERTEX
  8
0
 62
     7
  5
17E
 10
230.425929
 20
15.177243
 30
0.0
  0
VERTEX
  8
0
 62
     7
  5
17F
 10
229.964686
 20
15.609683
 30
0.0
  0
VERTEX
  8
0
 62
     7
  5
180
 10
229.465716
 20
16.009427
 30
0.0
  0
VERTEX
  8
0
 62
     7
  5
181
 10
228.932096
 20
16.37401
 30
0.0
  0
VERTEX
  8
0
 62
     7
  5
182
 10
228.367115
 20
16.701184
 30
0.0
  0
VERTEX
  8
0
 62
     7
  5
183
 10
227.774257
 20
16.988932
 30
0.0
  0
VERTEX
  8
0
 62
     7
  5
184
 10
227.157176
 20
17.235479
 30
0.0
  0
VERTEX
  8
0
 62
     7
  5
185
 10
226.519678
 20
17.439306
 30
0.0
  0
VERTEX
  8
0
 62
     7
  5
186
 10
225.865693
 20
17.599157
 30
0.0
  0
VERTEX
  8
0
 62
     7
  5
187
 10
225.199253
 20
17.714045
 30
0.0
  0
VERTEX
  8
0
 62
     7
  5
188
 10
224.524466
 20
17.783263
 30
0.0
  0
VERTEX
  8
0
 62
     7
  5
189
 10
223.845493
 20
17.806383
 30
0.0
  0
SEQEND
  8
0
  5
18A
  0
POLYLINE
  8
0
  6
CONTINUOUS
 62
     7
  5
18B
 66
     1
 10
0.0
 20
0.0
 30
0.0
 40
0.1
 41
0.1
  0
VERTEX
  8
0
 62
     7
  5
18C
 10
223.845493
 20
57.806383
 30
0.0
  0
VERTEX
  8
0
 62
     7
  5
18D
 10
223.16652
 20
57.783263
 30
0.0
  0
VERTEX
  8
0
 62
     7
  5
18E
 10
222.491733
 20
57.714045
 30
0.0
  0
VERTEX
  8
0
 62
     7
  5
18F
 10
221.825293
 20
57.599157
 30
0.0
  0
VERTEX
  8
0
 62
     7
  5
190
 10
221.171307
 20
57.439306
 30
0.0
  0
VERTEX
  8
0
 62
     7
  5
191
 10
220.533809
 20
57.235479
 30
0.0
  0
VERTEX
  8
0
 62
     7
  5
192
 10
219.916729
 20
56.988932
 30
0.0
  0
VERTEX
  8
0
 62
     7
  5
193
 10
219.323871
 20
56.701184
 30
0.0
  0
VERTEX
  8
0
 62
     7
  5
194
 10
218.75889
 20
56.37401
 30
0.0
  0
VERTEX
  8
0
 62
     7
  5
195
 10
218.225269
 20
56.009427
 30
0.0
  0
VERTEX
  8
0
 62
     7
  5
196
 10
217.7263
 20
55.609683
 30
0.0
  0
VERTEX
  8
0
 62
     7
  5
197
 10
217.265057
 20
55.177243
 30
0.0
  0
VERTEX
  8
0
 62
     7
  5
198
 10
216.844384
 20
54.714772
 30
0.0
  0
VERTEX
  8
0
 62
     7
  5
199
 10
216.466876
 20
54.225122
 30
0.0
  0
VERTEX
  8
0
 62
     7
  5
19A
 10
216.13486
 20
53.711311
 30
0.0
  0
VERTEX
  8
0
 62
     7
  5
19B
 10
215.850382
 20
53.176508
 30
0.0
  0
VERTEX
  8
0
 62
     7
  5
19C
 10
215.615196
 20
52.62401
 30
0.0
  0
VERTEX
  8
0
 62
     7
  5
19D
 10
215.430753
 20
52.057223
 30
0.0
  0
VERTEX
  8
0
 62
     7
  5
19E
 10
215.29819
 20
51.479641
 30
0.0
  0
VERTEX
  8
0
 62
     7
  5
19F
 10
215.218324
 20
50.894826
 30
0.0
  0
VERTEX
  8
0
 62
     7
  5
1A0
 10
215.191647
 20
50.306383
 30
0.0
  0
SEQEND
  8
0
  5
1A1
  0
POLYLINE
  8
0
  6
CONTINUOUS
 62
     7
  5
1A2
 66
     1
 10
0.0
 20
0.0
 30
0.0
 40
0.1
 41
0.1
  0
VERTEX
  8
0
 62
     7
  5
1A3
 10
223.845493
 20
42.806383
 30
0.0
  0
VERTEX
  8
0
 62
     7
  5
1A4
 10
224.524466
 20
42.829503
 30
0.0
  0
VERTEX
  8
0
 62
     7
  5
1A5
 10
225.199253
 20
42.89872
 30
0.0
  0
VERTEX
  8
0
 62
     7
  5
1A6
 10
225.865693
 20
43.013608
 30
0.0
  0
VERTEX
  8
0
 62
     7
  5
1A7
 10
226.519678
 20
43.173459
 30
0.0
  0
VERTEX
  8
0
 62
     7
  5
1A8
 10
227.157176
 20
43.377286
 30
0.0
  0
VERTEX
  8
0
 62
     7
  5
1A9
 10
227.774257
 20
43.623834
 30
0.0
  0
VERTEX
  8
0
 62
     7
  5
1AA
 10
228.367115
 20
43.911581
 30
0.0
  0
VERTEX
  8
0
 62
     7
  5
1AB
 10
228.932096
 20
44.238755
 30
0.0
  0
VERTEX
  8
0
 62
     7
  5
1AC
 10
229.465716
 20
44.603338
 30
0.0
  0
VERTEX
  8
0
 62
     7
  5
1AD
 10
229.964686
 20
45.003082
 30
0.0
  0
VERTEX
  8
0
 62
     7
  5
1AE
 10
230.425929
 20
45.435522
 30
0.0
  0
VERTEX
  8
0
 62
     7
  5
1AF
 10
230.846602
 20
45.897993
 30
0.0
  0
VERTEX
  8
0
 62
     7
  5
1B0
 10
231.22411
 20
46.387643
 30
0.0
  0
VERTEX
  8
0
 62
     7
  5
1B1
 10
231.556126
 20
46.901454
 30
0.0
  0
VERTEX
  8
0
 62
     7
  5
1B2
 10
231.840604
 20
47.436257
 30
0.0
  0
VERTEX
  8
0
 62
     7
  5
1B3
 10
232.07579
 20
47.988755
 30
0.0
  0
VERTEX
  8
0
 62
     7
  5
1B4
 10
232.260233
 20
48.555542
 30
0.0
  0
VERTEX
  8
0
 62
     7
  5
1B5
 10
232.392796
 20
49.133124
 30
0.0
  0
VERTEX
  8
0
 62
     7
  5
1B6
 10
232.472662
 20
49.717939
 30
0.0
  0
VERTEX
  8
0
 62
     7
  5
1B7
 10
232.499339
 20
50.306383
 30
0.0
  0
VERTEX
  8
0
 62
     7
  5
1B8
 10
232.472662
 20
50.894826
 30
0.0
  0
VERTEX
  8
0
 62
     7
  5
1B9
 10
232.392796
 20
51.479641
 30
0.0
  0
VERTEX
  8
0
 62
     7
  5
1BA
 10
232.260233
 20
52.057223
 30
0.0
  0
VERTEX
  8
0
 62
     7
  5
1BB
 10
232.07579
 20
52.62401
 30
0.0
  0
VERTEX
  8
0
 62
     7
  5
1BC
 10
231.840604
 20
53.176508
 30
0.0
  0
VERTEX
  8
0
 62
     7
  5
1BD
 10
231.556126
 20
53.711311
 30
0.0
  0
VERTEX
  8
0
 62
     7
  5
1BE
 10
231.22411
 20
54.225122
 30
0.0
  0
VERTEX
  8
0
 62
     7
  5
1BF
 10
230.846602
 20
54.714772
 30
0.0
  0
VERTEX
  8
0
 62
     7
  5
1C0
 10
230.425929
 20
55.177243
 30
0.0
  0
VERTEX
  8
0
 62
     7
  5
1C1
 10
229.964686
 20
55.609683
 30
0.0
  0
VERTEX
  8
0
 62
     7
  5
1C2
 10
229.465716
 20
56.009427
 30
0.0
  0
VERTEX
  8
0
 62
     7
  5
1C3
 10
228.932096
 20
56.37401
 30
0.0
  0
VERTEX
  8
0
 62
     7
  5
1C4
 10
228.367115
 20
56.701184
 30
0.0
  0
VERTEX
  8
0
 62
     7
  5
1C5
 10
227.774257
 20
56.988932
 30
0.0
  0
VERTEX
  8
0
 62
     7
  5
1C6
 10
227.157176
 20
57.235479
 30
0.0
  0
VERTEX
  8
0
 62
     7
  5
1C7
 10
226.519678
 20
57.439306
 30
0.0
  0
VERTEX
  8
0
 62
     7
  5
1C8
 10
225.865693
 20
57.599157
 30
0.0
  0
VERTEX
  8
0
 62
     7
  5
1C9
 10
225.199253
 20
57.714045
 30
0.0
  0
VERTEX
  8
0
 62
     7
  5
1CA
 10
224.524466
 20
57.783263
 30
0.0
  0
VERTEX
  8
0
 62
     7
  5
1CB
 10
223.845493
 20
57.806383
 30
0.0
  0
SEQEND
  8
0
  5
1CC
  0
LINE
  8
0
  6
CONTINUOUS
 62
     7
  5
1CD
 10
222.153185
 20
3.806383
 30
0.0
 11
222.153185
 21
16.806383
 31
0.0
  0
LINE
  8
0
  6
CONTINUOUS
 62
     7
  5
1CE
 10
222.153185
 20
43.806383
 30
0.0
 11
222.153185
 21
56.806383
 31
0.0
  0
LINE
  8
0
  6
CONTINUOUS
 62
     7
  5
1CF
 10
131.153185
 20
70.306383
 30
0.0
 11
271.153185
 21
70.306383
 31
0.0
  0
LINE
  8
0
  6
CONTINUOUS
 62
     7
  5
1D0
 10
271.153185
 20
70.306383
 30
0.0
 11
271.153185
 21
-9.693617
 31
0.0
  0
LINE
  8
0
  6
CONTINUOUS
 62
     7
  5
1D1
 10
271.153185
 20
-9.693617
 30
0.0
 11
131.153185
 21
-9.693617
 31
0.0
  0
LINE
  8
0
  6
CONTINUOUS
 62
     7
  5
1D2
 10
131.153185
 20
-9.693617
 30
0.0
 11
131.153185
 21
70.306383
 31
0.0
  0
CIRCLE
  8
0
  6
CONTINUOUS
 62
     7
  5
1D3
 10
251.153185
 20
53.556383
 30
0.0
 40
7.5
210
0.0
220
0.0
230
1.0
  0
ARC
  8
0
  6
CONTINUOUS
 62
     7
  5
1D4
 10
151.153185
 20
53.556383
 30
0.0
 40
7.5
 50
180.0
 51
284.835112
210
0.0
220
0.0
230
1.0
  0
ARC
  8
0
  6
CONTINUOUS
 62
     7
  5
1D5
 10
151.153185
 20
53.556383
 30
0.0
 40
7.5
 50
5.73917
 51
180.0
210
0.0
220
0.0
230
1.0
  0
CIRCLE
  8
0
  6
CONTINUOUS
 62
     7
  5
1D6
 10
251.153185
 20
7.056383
 30
0.0
 40
7.5
210
0.0
220
0.0
230
1.0
  0
ARC
  8
0
  6
CONTINUOUS
 62
     7
  5
1D7
 10
151.153185
 20
7.056383
 30
0.0
 40
7.5
 50
75.164888
 51
180.0
210
0.0
220
0.0
230
1.0
  0
ARC
  8
0
  6
CONTINUOUS
 62
     7
  5
1D8
 10
151.153185
 20
7.056383
 30
0.0
 40
7.5
 50
180.0
 51
354.26083
210
0.0
220
0.0
230
1.0
  0
LINE
  8
0
  6
CONTINUOUS
 62
     7
  5
1D9
 10
148.153185
 20
51.824332
 30
0.0
 11
149.153185
 21
51.246982
 31
0.0
  0
LINE
  8
0
  6
CONTINUOUS
 62
     7
  5
1DA
 10
154.153185
 20
54.306383
 30
0.0
 11
154.153185
 21
55.288433
 31
0.0
  0
ARC
  8
0
  6
CONTINUOUS
 62
     7
  5
1DB
 10
151.153185
 20
53.556383
 30
0.0
 40
6.5
 50
6.62581
 51
252.079787
210
0.0
220
0.0
230
1.0
  0
LINE
  8
0
  6
CONTINUOUS
 62
     7
  5
1DC
 10
154.153185
 20
55.288433
 30
0.0
 11
151.153185
 21
57.020484
 31
0.0
  0
LINE
  8
0
  6
CONTINUOUS
 62
     7
  5
1DD
 10
151.153185
 20
57.020484
 30
0.0
 11
148.153185
 21
55.288433
 31
0.0
  0
LINE
  8
0
  6
CONTINUOUS
 62
     7
  5
1DE
 10
148.153185
 20
55.288433
 30
0.0
 11
148.153185
 21
51.824332
 31
0.0
  0
LINE
  8
0
  6
CONTINUOUS
 62
     7
  5
1DF
 10
248.153185
 20
55.288433
 30
0.0
 11
251.153185
 21
57.020484
 31
0.0
  0
LINE
  8
0
  6
CONTINUOUS
 62
     7
  5
1E0
 10
248.153185
 20
51.824332
 30
0.0
 11
248.153185
 21
55.288433
 31
0.0
  0
LINE
  8
0
  6
CONTINUOUS
 62
     7
  5
1E1
 10
251.153185
 20
50.092281
 30
0.0
 11
248.153185
 21
51.824332
 31
0.0
  0
LINE
  8
0
  6
CONTINUOUS
 62
     7
  5
1E2
 10
254.153185
 20
51.824332
 30
0.0
 11
251.153185
 21
50.092281
 31
0.0
  0
LINE
  8
0
  6
CONTINUOUS
 62
     7
  5
1E3
 10
254.153185
 20
55.288433
 30
0.0
 11
254.153185
 21
51.824332
 31
0.0
  0
LINE
  8
0
  6
CONTINUOUS
 62
     7
  5
1E4
 10
251.153185
 20
57.020484
 30
0.0
 11
254.153185
 21
55.288433
 31
0.0
  0
CIRCLE
  8
0
  6
CONTINUOUS
 62
     7
  5
1E5
 10
251.153185
 20
53.556383
 30
0.0
 40
6.5
210
0.0
220
0.0
230
1.0
  0
LINE
  8
0
  6
CONTINUOUS
 62
     7
  5
1E6
 10
154.153185
 20
5.324332
 30
0.0
 11
151.153185
 21
3.592281
 31
0.0
  0
LINE
  8
0
  6
CONTINUOUS
 62
     7
  5
1E7
 10
154.153185
 20
6.306383
 30
0.0
 11
154.153185
 21
5.324332
 31
0.0
  0
LINE
  8
0
  6
CONTINUOUS
 62
     7
  5
1E8
 10
148.153185
 20
8.788433
 30
0.0
 11
149.153185
 21
9.365784
 31
0.0
  0
LINE
  8
0
  6
CONTINUOUS
 62
     7
  5
1E9
 10
148.153185
 20
5.324332
 30
0.0
 11
148.153185
 21
8.788433
 31
0.0
  0
LINE
  8
0
  6
CONTINUOUS
 62
     7
  5
1EA
 10
151.153185
 20
3.592281
 30
0.0
 11
148.153185
 21
5.324332
 31
0.0
  0
ARC
  8
0
  6
CONTINUOUS
 62
     7
  5
1EB
 10
151.153185
 20
7.056383
 30
0.0
 40
6.5
 50
107.920213
 51
353.37419
210
0.0
220
0.0
230
1.0
  0
LINE
  8
0
  6
CONTINUOUS
 62
     7
  5
1EC
 10
248.153185
 20
5.324332
 30
0.0
 11
251.153185
 21
3.592281
 31
0.0
  0
CIRCLE
  8
0
  6
CONTINUOUS
 62
     7
  5
1ED
 10
251.153185
 20
7.056383
 30
0.0
 40
6.5
210
0.0
220
0.0
230
1.0
  0
LINE
  8
0
  6
CONTINUOUS
 62
     7
  5
1EE
 10
254.153185
 20
8.788433
 30
0.0
 11
251.153185
 21
10.520484
 31
0.0
  0
LINE
  8
0
  6
CONTINUOUS
 62
     7
  5
1EF
 10
251.153185
 20
3.592281
 30
0.0
 11
254.153185
 21
5.324332
 31
0.0
  0
LINE
  8
0
  6
CONTINUOUS
 62
     7
  5
1F0
 10
248.153185
 20
8.788433
 30
0.0
 11
248.153185
 21
5.324332
 31
0.0
  0
LINE
  8
0
  6
CONTINUOUS
 62
     7
  5
1F1
 10
254.153185
 20
5.324332
 30
0.0
 11
254.153185
 21
8.788433
 31
0.0
  0
LINE
  8
0
  6
CONTINUOUS
 62
     7
  5
1F2
 10
251.153185
 20
10.520484
 30
0.0
 11
248.153185
 21
8.788433
 31
0.0
  0
LINE
  8
0
  6
CONTINUOUS
 62
     7
  5
1F3
 10
173.37435
 20
43.806383
 30
0.0
 11
177.153185
 21
43.806383
 31
0.0
  0
LINE
  8
0
  6
CONTINUOUS
 62
     7
  5
1F4
 10
177.153185
 20
56.806383
 30
0.0
 11
173.37435
 21
56.806383
 31
0.0
  0
LINE
  8
0
  6
CONTINUOUS
 62
     7
  5
1F5
 10
173.37435
 20
3.806383
 30
0.0
 11
177.153185
 21
3.806383
 31
0.0
  0
LINE
  8
0
  6
CONTINUOUS
 62
     7
  5
1F6
 10
177.153185
 20
16.806383
 30
0.0
 11
173.37435
 21
16.806383
 31
0.0
  0
LINE
  8
0
  6
CONTINUOUS
 62
     7
  5
1F7
 10
161.153185
 20
14.306383
 30
0.0
 11
149.778185
 21
14.306383
 31
0.0
  0
LINE
  8
0
  6
CONTINUOUS
 62
     7
  5
1F8
 10
149.778185
 20
6.306383
 30
0.0
 11
161.153185
 21
6.306383
 31
0.0
  0
LINE
  8
0
  6
CONTINUOUS
 62
     7
  5
1F9
 10
161.153185
 20
54.306383
 30
0.0
 11
149.778185
 21
54.306383
 31
0.0
  0
LINE
  8
0
  6
CONTINUOUS
 62
     7
  5
1FA
 10
149.778185
 20
46.306383
 30
0.0
 11
161.153185
 21
46.306383
 31
0.0
  0
LINE
  8
0
  6
CONTINUOUS
 62
     7
  5
1FB
 10
149.778185
 20
54.306383
 30
0.0
 11
149.153185
 21
53.681383
 31
0.0
  0
LINE
  8
0
  6
CONTINUOUS
 62
     7
  5
1FC
 10
149.153185
 20
46.931383
 30
0.0
 11
149.778185
 21
46.306383
 31
0.0
  0
LINE
  8
0
  6
CONTINUOUS
 62
     7
  5
1FD
 10
149.778185
 20
14.306383
 30
0.0
 11
149.153185
 21
13.681383
 31
0.0
  0
LINE
  8
0
  6
CONTINUOUS
 62
     7
  5
1FE
 10
149.153185
 20
6.931383
 30
0.0
 11
149.778185
 21
6.306383
 31
0.0
  0
LINE
  8
0
  6
CONTINUOUS
 62
     7
  5
1FF
 10
219.528196
 20
3.806383
 30
0.0
 11
222.153185
 21
3.806383
 31
0.0
  0
LINE
  8
0
  6
CONTINUOUS
 62
     7
  5
200
 10
222.153185
 20
16.806383
 30
0.0
 11
219.528196
 21
16.806383
 31
0.0
  0
LINE
  8
0
  6
CONTINUOUS
 62
     7
  5
201
 10
219.528196
 20
43.806383
 30
0.0
 11
222.153185
 21
43.806383
 31
0.0
  0
LINE
  8
0
  6
CONTINUOUS
 62
     7
  5
202
 10
222.153185
 20
56.806383
 30
0.0
 11
219.528196
 21
56.806383
 31
0.0
  0
ENDBLK
  8
0
  5
203
  0
BLOCK
  8
0
  5
206
  2
AID269
 70
     0
 10
0.0
 20
0.0
 30
0.0
  3
#auxiliary draft view
  0
LINE
  8
0
  6
CONTINUOUS
 62
     7
  5
207
 10
343.004243
 20
181.288292
 30
0.0
 11
343.004243
 21
169.288292
 31
0.0
  0
LINE
  8
0
  6
CONTINUOUS
 62
     7
  5
208
 10
423.004243
 20
181.288292
 30
0.0
 11
343.004243
 21
181.288292
 31
0.0
  0
LINE
  8
0
  6
CONTINUOUS
 62
     7
  5
209
 10
423.004243
 20
169.288292
 30
0.0
 11
343.004243
 21
169.288292
 31
0.0
  0
LINE
  8
0
  6
CONTINUOUS
 62
     7
  5
20A
 10
423.004243
 20
181.288292
 30
0.0
 11
423.004243
 21
169.288292
 31
0.0
  0
LINE
  8
0
  6
CONTINUOUS
 62
     7
  5
20B
 10
402.254243
 20
157.413292
 30
0.0
 11
410.254243
 21
157.413292
 31
0.0
  0
LINE
  8
0
  6
CONTINUOUS
 62
     7
  5
20C
 10
409.629243
 20
156.788292
 30
0.0
 11
402.879243
 21
156.788292
 31
0.0
  0
LINE
  8
0
  6
CONTINUOUS
 62
     7
  5
20D
 10
363.754243
 20
157.413292
 30
0.0
 11
355.754243
 21
157.413292
 31
0.0
  0
LINE
  8
0
  6
CONTINUOUS
 62
     7
  5
20E
 10
356.379243
 20
156.788292
 30
0.0
 11
363.129243
 21
156.788292
 31
0.0
  0
CIRCLE
  8
0
  6
CONTINUOUS
 62
     7
  5
20F
 10
363.004243
 20
241.288292
 30
0.0
 40
4.0
210
0.0
220
0.0
230
1.0
  0
CIRCLE
  8
0
  6
CONTINUOUS
 62
     7
  5
210
 10
363.004243
 20
241.288292
 30
0.0
 40
3.375
210
0.0
220
0.0
230
1.0
  0
CIRCLE
  8
0
  6
CONTINUOUS
 62
     7
  5
211
 10
403.004243
 20
241.288292
 30
0.0
 40
3.375
210
0.0
220
0.0
230
1.0
  0
CIRCLE
  8
0
  6
CONTINUOUS
 62
     7
  5
212
 10
403.004243
 20
241.288292
 30
0.0
 40
4.0
210
0.0
220
0.0
230
1.0
  0
CIRCLE
  8
0
  6
CONTINUOUS
 62
     7
  5
213
 10
403.004243
 20
201.288292
 30
0.0
 40
3.375
210
0.0
220
0.0
230
1.0
  0
CIRCLE
  8
0
  6
CONTINUOUS
 62
     7
  5
214
 10
403.004243
 20
201.288292
 30
0.0
 40
4.0
210
0.0
220
0.0
230
1.0
  0
CIRCLE
  8
0
  6
CONTINUOUS
 62
     7
  5
215
 10
363.004243
 20
201.288292
 30
0.0
 40
3.375
210
0.0
220
0.0
230
1.0
  0
CIRCLE
  8
0
  6
CONTINUOUS
 62
     7
  5
216
 10
363.004243
 20
201.288292
 30
0.0
 40
4.0
210
0.0
220
0.0
230
1.0
  0
LINE
  8
0
  6
CONTINUOUS
 62
     7
  5
217
 10
354.004243
 20
181.288292
 30
0.0
 11
354.004243
 21
251.288292
 31
0.0
  0
CIRCLE
  8
0
  6
CONTINUOUS
 62
     7
  5
218
 10
403.004243
 20
201.288292
 30
0.0
 40
4.5
210
0.0
220
0.0
230
1.0
  0
CIRCLE
  8
0
  6
CONTINUOUS
 62
     7
  5
219
 10
363.004243
 20
241.288292
 30
0.0
 40
4.5
210
0.0
220
0.0
230
1.0
  0
CIRCLE
  8
0
  6
CONTINUOUS
 62
     7
  5
21A
 10
403.004243
 20
241.288292
 30
0.0
 40
4.5
210
0.0
220
0.0
230
1.0
  0
LINE
  8
0
  6
CONTINUOUS
 62
     7
  5
21B
 10
412.004243
 20
181.288292
 30
0.0
 11
412.004243
 21
251.288292
 31
0.0
  0
CIRCLE
  8
0
  6
CONTINUOUS
 62
     7
  5
21C
 10
363.004243
 20
201.288292
 30
0.0
 40
4.5
210
0.0
220
0.0
230
1.0
  0
LINE
  8
0
  6
CONTINUOUS
 62
     7
  5
21D
 10
412.004243
 20
251.288292
 30
0.0
 11
354.004243
 21
251.288292
 31
0.0
  0
LINE
  8
0
  6
CONTINUOUS
 62
     7
  5
21E
 10
385.004243
 20
165.288292
 30
0.0
 11
381.004243
 21
165.288292
 31
0.0
  0
LINE
  8
0
  6
CONTINUOUS
 62
     7
  5
21F
 10
380.504243
 20
165.788292
 30
0.0
 11
385.504243
 21
165.788292
 31
0.0
  0
LINE
  8
0
  6
CONTINUOUS
 62
     7
  5
220
 10
402.254243
 20
157.413292
 30
0.0
 11
402.879243
 21
156.788292
 31
0.0
  0
LINE
  8
0
  6
CONTINUOUS
 62
     7
  5
221
 10
409.629243
 20
156.788292
 30
0.0
 11
410.254243
 21
157.413292
 31
0.0
  0
LINE
  8
0
  6
CONTINUOUS
 62
     7
  5
222
 10
402.254243
 20
169.288292
 30
0.0
 11
402.254243
 21
157.413292
 31
0.0
  0
LINE
  8
0
  6
CONTINUOUS
 62
     7
  5
223
 10
410.254243
 20
157.413292
 30
0.0
 11
410.254243
 21
169.288292
 31
0.0
  0
LINE
  8
0
  6
CONTINUOUS
 62
     7
  5
224
 10
355.754243
 20
157.413292
 30
0.0
 11
356.379243
 21
156.788292
 31
0.0
  0
LINE
  8
0
  6
CONTINUOUS
 62
     7
  5
225
 10
363.129243
 20
156.788292
 30
0.0
 11
363.754243
 21
157.413292
 31
0.0
  0
LINE
  8
0
  6
CONTINUOUS
 62
     7
  5
226
 10
355.754243
 20
169.288292
 30
0.0
 11
355.754243
 21
157.413292
 31
0.0
  0
LINE
  8
0
  6
CONTINUOUS
 62
     7
  5
227
 10
363.754243
 20
157.413292
 30
0.0
 11
363.754243
 21
169.288292
 31
0.0
  0
LINE
  8
0
  6
CONTINUOUS
 62
     7
  5
228
 10
380.504243
 20
165.788292
 30
0.0
 11
381.004243
 21
165.288292
 31
0.0
  0
LINE
  8
0
  6
CONTINUOUS
 62
     7
  5
229
 10
385.004243
 20
165.288292
 30
0.0
 11
385.504243
 21
165.788292
 31
0.0
  0
LINE
  8
0
  6
CONTINUOUS
 62
     7
  5
22A
 10
380.504243
 20
169.288292
 30
0.0
 11
380.504243
 21
165.788292
 31
0.0
  0
LINE
  8
0
  6
CONTINUOUS
 62
     7
  5
22B
 10
385.504243
 20
165.788292
 30
0.0
 11
385.504243
 21
169.288292
 31
0.0
  0
ENDBLK
  8
0
  5
22C
  0
BLOCK
  8
0
  5
22F
  2
AID347
 70
     0
 10
0.0
 20
0.0
 30
0.0
  3
#auxiliary draft view
  0
LINE
  8
0
  6
CONTINUOUS
 62
     7
  5
230
 10
50.455319
 20
181.288292
 30
0.0
 11
50.455319
 21
169.288292
 31
0.0
  0
LINE
  8
0
  6
CONTINUOUS
 62
     7
  5
231
 10
50.455319
 20
181.288292
 30
0.0
 11
-29.544681
 21
181.288292
 31
0.0
  0
LINE
  8
0
  6
CONTINUOUS
 62
     7
  5
232
 10
50.455319
 20
169.288292
 30
0.0
 11
-29.544681
 21
169.288292
 31
0.0
  0
LINE
  8
0
  6
CONTINUOUS
 62
     7
  5
233
 10
-29.544681
 20
181.288292
 30
0.0
 11
-29.544681
 21
169.288292
 31
0.0
  0
LINE
  8
0
  6
CONTINUOUS
 62
     7
  5
234
 10
29.705319
 20
157.413292
 30
0.0
 11
33.705319
 21
157.413292
 31
0.0
  0
LINE
  8
0
  6
CONTINUOUS
 62
     7
  5
235
 10
33.705319
 20
157.413292
 30
0.0
 11
37.705319
 21
157.413292
 31
0.0
  0
LINE
  8
0
  6
CONTINUOUS
 62
     7
  5
236
 10
-8.794681
 20
157.413292
 30
0.0
 11
-12.794681
 21
157.413292
 31
0.0
  0
LINE
  8
0
  6
CONTINUOUS
 62
     7
  5
237
 10
-12.794681
 20
157.413292
 30
0.0
 11
-16.794681
 21
157.413292
 31
0.0
  0
LINE
  8
0
  6
CONTINUOUS
 62
     7
  5
238
 10
-16.169681
 20
156.788292
 30
0.0
 11
-12.794681
 21
156.788292
 31
0.0
  0
LINE
  8
0
  6
CONTINUOUS
 62
     7
  5
239
 10
-12.794681
 20
156.788292
 30
0.0
 11
-9.419681
 21
156.788292
 31
0.0
  0
LINE
  8
0
  6
CONTINUOUS
 62
     7
  5
23A
 10
37.080319
 20
156.788292
 30
0.0
 11
33.705319
 21
156.788292
 31
0.0
  0
LINE
  8
0
  6
CONTINUOUS
 62
     7
  5
23B
 10
33.705319
 20
156.788292
 30
0.0
 11
30.330319
 21
156.788292
 31
0.0
  0
LINE
  8
0
  6
CONTINUOUS
 62
     7
  5
23C
 10
39.455319
 20
181.288292
 30
0.0
 11
39.455319
 21
186.288292
 31
0.0
  0
LINE
  8
0
  6
CONTINUOUS
 62
     7
  5
23D
 10
-18.544681
 20
181.288292
 30
0.0
 11
-18.544681
 21
186.288292
 31
0.0
  0
LINE
  8
0
  6
CONTINUOUS
 62
     7
  5
23E
 10
-18.544681
 20
186.288292
 30
0.0
 11
39.455319
 21
186.288292
 31
0.0
  0
LINE
  8
0
  6
CONTINUOUS
 62
     7
  5
23F
 10
-18.544681
 20
251.288292
 30
0.0
 11
39.455319
 21
251.288292
 31
0.0
  0
LINE
  8
0
  6
CONTINUOUS
 62
     7
  5
240
 10
39.455319
 20
186.288292
 30
0.0
 11
39.455319
 21
251.288292
 31
0.0
  0
ARC
  8
0
  6
CONTINUOUS
 62
     7
  5
241
 10
30.455319
 20
241.288292
 30
0.0
 40
7.5
 50
99.366789
 51
80.633211
210
0.0
220
0.0
230
1.0
  0
LINE
  8
0
  6
CONTINUOUS
 62
     7
  5
242
 10
31.675974
 20
248.688292
 30
0.0
 11
29.234663
 21
248.688292
 31
0.0
  0
ARC
  8
0
  6
CONTINUOUS
 62
     7
  5
243
 10
-9.544681
 20
241.288292
 30
0.0
 40
7.5
 50
99.366789
 51
80.633211
210
0.0
220
0.0
230
1.0
  0
LINE
  8
0
  6
CONTINUOUS
 62
     7
  5
244
 10
-8.324026
 20
248.688292
 30
0.0
 11
-10.765337
 21
248.688292
 31
0.0
  0
CIRCLE
  8
0
  6
CONTINUOUS
 62
     7
  5
245
 10
-9.544681
 20
201.288292
 30
0.0
 40
7.5
210
0.0
220
0.0
230
1.0
  0
CIRCLE
  8
0
  6
CONTINUOUS
 62
     7
  5
246
 10
30.455319
 20
201.288292
 30
0.0
 40
7.5
210
0.0
220
0.0
230
1.0
  0
LINE
  8
0
  6
CONTINUOUS
 62
     7
  5
247
 10
-18.544681
 20
251.288292
 30
0.0
 11
-18.544681
 21
186.288292
 31
0.0
  0
LINE
  8
0
  6
CONTINUOUS
 62
     7
  5
248
 10
7.955319
 20
165.788292
 30
0.0
 11
10.455319
 21
165.788292
 31
0.0
  0
LINE
  8
0
  6
CONTINUOUS
 62
     7
  5
249
 10
12.455319
 20
165.288292
 30
0.0
 11
10.455319
 21
165.288292
 31
0.0
  0
LINE
  8
0
  6
CONTINUOUS
 62
     7
  5
24A
 10
10.455319
 20
165.788292
 30
0.0
 11
12.955319
 21
165.788292
 31
0.0
  0
LINE
  8
0
  6
CONTINUOUS
 62
     7
  5
24B
 10
10.455319
 20
165.288292
 30
0.0
 11
8.455319
 21
165.288292
 31
0.0
  0
CIRCLE
  8
0
  6
CONTINUOUS
 62
     7
  5
24C
 10
30.455319
 20
201.288292
 30
0.0
 40
6.5
210
0.0
220
0.0
230
1.0
  0
LINE
  8
0
  6
CONTINUOUS
 62
     7
  5
24D
 10
28.723268
 20
204.288292
 30
0.0
 11
32.18737
 21
204.288292
 31
0.0
  0
LINE
  8
0
  6
CONTINUOUS
 62
     7
  5
24E
 10
28.723268
 20
198.288292
 30
0.0
 11
26.991217
 21
201.288292
 31
0.0
  0
LINE
  8
0
  6
CONTINUOUS
 62
     7
  5
24F
 10
33.91942
 20
201.288292
 30
0.0
 11
32.18737
 21
198.288292
 31
0.0
  0
LINE
  8
0
  6
CONTINUOUS
 62
     7
  5
250
 10
26.991217
 20
201.288292
 30
0.0
 11
28.723268
 21
204.288292
 31
0.0
  0
LINE
  8
0
  6
CONTINUOUS
 62
     7
  5
251
 10
32.18737
 20
198.288292
 30
0.0
 11
28.723268
 21
198.288292
 31
0.0
  0
LINE
  8
0
  6
CONTINUOUS
 62
     7
  5
252
 10
32.18737
 20
204.288292
 30
0.0
 11
33.91942
 21
201.288292
 31
0.0
  0
CIRCLE
  8
0
  6
CONTINUOUS
 62
     7
  5
253
 10
-9.544681
 20
201.288292
 30
0.0
 40
6.5
210
0.0
220
0.0
230
1.0
  0
LINE
  8
0
  6
CONTINUOUS
 62
     7
  5
254
 10
-7.81263
 20
204.288292
 30
0.0
 11
-6.08058
 21
201.288292
 31
0.0
  0
LINE
  8
0
  6
CONTINUOUS
 62
     7
  5
255
 10
-6.08058
 20
201.288292
 30
0.0
 11
-7.81263
 21
198.288292
 31
0.0
  0
LINE
  8
0
  6
CONTINUOUS
 62
     7
  5
256
 10
-13.008783
 20
201.288292
 30
0.0
 11
-11.276732
 21
204.288292
 31
0.0
  0
LINE
  8
0
  6
CONTINUOUS
 62
     7
  5
257
 10
-11.276732
 20
204.288292
 30
0.0
 11
-7.81263
 21
204.288292
 31
0.0
  0
LINE
  8
0
  6
CONTINUOUS
 62
     7
  5
258
 10
-11.276732
 20
198.288292
 30
0.0
 11
-13.008783
 21
201.288292
 31
0.0
  0
LINE
  8
0
  6
CONTINUOUS
 62
     7
  5
259
 10
-7.81263
 20
198.288292
 30
0.0
 11
-11.276732
 21
198.288292
 31
0.0
  0
LINE
  8
0
  6
CONTINUOUS
 62
     7
  5
25A
 10
32.18737
 20
238.288292
 30
0.0
 11
28.723268
 21
238.288292
 31
0.0
  0
LINE
  8
0
  6
CONTINUOUS
 62
     7
  5
25B
 10
33.91942
 20
241.288292
 30
0.0
 11
32.18737
 21
238.288292
 31
0.0
  0
LINE
  8
0
  6
CONTINUOUS
 62
     7
  5
25C
 10
32.18737
 20
244.288292
 30
0.0
 11
33.91942
 21
241.288292
 31
0.0
  0
LINE
  8
0
  6
CONTINUOUS
 62
     7
  5
25D
 10
28.723268
 20
244.288292
 30
0.0
 11
32.18737
 21
244.288292
 31
0.0
  0
LINE
  8
0
  6
CONTINUOUS
 62
     7
  5
25E
 10
26.991217
 20
241.288292
 30
0.0
 11
28.723268
 21
244.288292
 31
0.0
  0
CIRCLE
  8
0
  6
CONTINUOUS
 62
     7
  5
25F
 10
30.455319
 20
241.288292
 30
0.0
 40
6.5
210
0.0
220
0.0
230
1.0
  0
LINE
  8
0
  6
CONTINUOUS
 62
     7
  5
260
 10
28.723268
 20
238.288292
 30
0.0
 11
26.991217
 21
241.288292
 31
0.0
  0
LINE
  8
0
  6
CONTINUOUS
 62
     7
  5
261
 10
-6.08058
 20
241.288292
 30
0.0
 11
-7.81263
 21
238.288292
 31
0.0
  0
LINE
  8
0
  6
CONTINUOUS
 62
     7
  5
262
 10
-7.81263
 20
244.288292
 30
0.0
 11
-6.08058
 21
241.288292
 31
0.0
  0
LINE
  8
0
  6
CONTINUOUS
 62
     7
  5
263
 10
-11.276732
 20
244.288292
 30
0.0
 11
-7.81263
 21
244.288292
 31
0.0
  0
CIRCLE
  8
0
  6
CONTINUOUS
 62
     7
  5
264
 10
-9.544681
 20
241.288292
 30
0.0
 40
6.5
210
0.0
220
0.0
230
1.0
  0
LINE
  8
0
  6
CONTINUOUS
 62
     7
  5
265
 10
-13.008783
 20
241.288292
 30
0.0
 11
-11.276732
 21
244.288292
 31
0.0
  0
LINE
  8
0
  6
CONTINUOUS
 62
     7
  5
266
 10
-7.81263
 20
238.288292
 30
0.0
 11
-11.276732
 21
238.288292
 31
0.0
  0
LINE
  8
0
  6
CONTINUOUS
 62
     7
  5
267
 10
-11.276732
 20
238.288292
 30
0.0
 11
-13.008783
 21
241.288292
 31
0.0
  0
LINE
  8
0
  6
CONTINUOUS
 62
     7
  5
268
 10
29.705319
 20
169.288292
 30
0.0
 11
29.705319
 21
157.413292
 31
0.0
  0
LINE
  8
0
  6
CONTINUOUS
 62
     7
  5
269
 10
37.705319
 20
157.413292
 30
0.0
 11
37.705319
 21
169.288292
 31
0.0
  0
LINE
  8
0
  6
CONTINUOUS
 62
     7
  5
26A
 10
-16.794681
 20
169.288292
 30
0.0
 11
-16.794681
 21
157.413292
 31
0.0
  0
LINE
  8
0
  6
CONTINUOUS
 62
     7
  5
26B
 10
-8.794681
 20
157.413292
 30
0.0
 11
-8.794681
 21
169.288292
 31
0.0
  0
LINE
  8
0
  6
CONTINUOUS
 62
     7
  5
26C
 10
-16.794681
 20
157.413292
 30
0.0
 11
-16.169681
 21
156.788292
 31
0.0
  0
LINE
  8
0
  6
CONTINUOUS
 62
     7
  5
26D
 10
-9.419681
 20
156.788292
 30
0.0
 11
-8.794681
 21
157.413292
 31
0.0
  0
LINE
  8
0
  6
CONTINUOUS
 62
     7
  5
26E
 10
29.705319
 20
157.413292
 30
0.0
 11
30.330319
 21
156.788292
 31
0.0
  0
LINE
  8
0
  6
CONTINUOUS
 62
     7
  5
26F
 10
37.080319
 20
156.788292
 30
0.0
 11
37.705319
 21
157.413292
 31
0.0
  0
LINE
  8
0
  6
CONTINUOUS
 62
     7
  5
270
 10
7.955319
 20
165.788292
 30
0.0
 11
8.455319
 21
165.288292
 31
0.0
  0
LINE
  8
0
  6
CONTINUOUS
 62
     7
  5
271
 10
12.455319
 20
165.288292
 30
0.0
 11
12.955319
 21
165.788292
 31
0.0
  0
LINE
  8
0
  6
CONTINUOUS
 62
     7
  5
272
 10
7.955319
 20
169.288292
 30
0.0
 11
7.955319
 21
165.788292
 31
0.0
  0
LINE
  8
0
  6
CONTINUOUS
 62
     7
  5
273
 10
12.955319
 20
165.788292
 30
0.0
 11
12.955319
 21
169.288292
 31
0.0
  0
ENDBLK
  8
0
  5
274
  0
BLOCK
  8
0
  5
277
  2
AID487
 70
     0
 10
0.0
 20
0.0
 30
0.0
  3
#auxiliary draft view
  0
CIRCLE
  8
0
  6
CONTINUOUS
 62
     7
  5
278
 10
151.153185
 20
411.105307
 30
0.0
 40
3.375
210
0.0
220
0.0
230
1.0
  0
CIRCLE
  8
0
  6
CONTINUOUS
 62
     7
  5
279
 10
251.153185
 20
411.105307
 30
0.0
 40
4.0
210
0.0
220
0.0
230
1.0
  0
CIRCLE
  8
0
  6
CONTINUOUS
 62
     7
  5
27A
 10
251.153185
 20
411.105307
 30
0.0
 40
3.375
210
0.0
220
0.0
230
1.0
  0
CIRCLE
  8
0
  6
CONTINUOUS
 62
     7
  5
27B
 10
151.153185
 20
411.105307
 30
0.0
 40
4.0
210
0.0
220
0.0
230
1.0
  0
CIRCLE
  8
0
  6
CONTINUOUS
 62
     7
  5
27C
 10
251.153185
 20
364.605307
 30
0.0
 40
4.0
210
0.0
220
0.0
230
1.0
  0
CIRCLE
  8
0
  6
CONTINUOUS
 62
     7
  5
27D
 10
251.153185
 20
364.605307
 30
0.0
 40
3.375
210
0.0
220
0.0
230
1.0
  0
CIRCLE
  8
0
  6
CONTINUOUS
 62
     7
  5
27E
 10
151.153185
 20
364.605307
 30
0.0
 40
4.0
210
0.0
220
0.0
230
1.0
  0
CIRCLE
  8
0
  6
CONTINUOUS
 62
     7
  5
27F
 10
151.153185
 20
364.605307
 30
0.0
 40
3.375
210
0.0
220
0.0
230
1.0
  0
CIRCLE
  8
0
  6
CONTINUOUS
 62
     7
  5
280
 10
177.903185
 20
387.855307
 30
0.0
 40
2.0
210
0.0
220
0.0
230
1.0
  0
CIRCLE
  8
0
  6
CONTINUOUS
 62
     7
  5
281
 10
224.403185
 20
387.855307
 30
0.0
 40
2.5
210
0.0
220
0.0
230
1.0
  0
CIRCLE
  8
0
  6
CONTINUOUS
 62
     7
  5
282
 10
224.403185
 20
387.855307
 30
0.0
 40
2.0
210
0.0
220
0.0
230
1.0
  0
CIRCLE
  8
0
  6
CONTINUOUS
 62
     7
  5
283
 10
177.903185
 20
387.855307
 30
0.0
 40
2.5
210
0.0
220
0.0
230
1.0
  0
LINE
  8
0
  6
CONTINUOUS
 62
     7
  5
284
 10
271.153185
 20
427.855307
 30
0.0
 11
131.153185
 21
427.855307
 31
0.0
  0
LINE
  8
0
  6
CONTINUOUS
 62
     7
  5
285
 10
271.153185
 20
347.855307
 30
0.0
 11
271.153185
 21
427.855307
 31
0.0
  0
LINE
  8
0
  6
CONTINUOUS
 62
     7
  5
286
 10
131.153185
 20
347.855307
 30
0.0
 11
271.153185
 21
347.855307
 31
0.0
  0
LINE
  8
0
  6
CONTINUOUS
 62
     7
  5
287
 10
131.153185
 20
427.855307
 30
0.0
 11
131.153185
 21
347.855307
 31
0.0
  0
CIRCLE
  8
0
  6
CONTINUOUS
 62
     7
  5
288
 10
251.153185
 20
364.605307
 30
0.0
 40
4.5
210
0.0
220
0.0
230
1.0
  0
CIRCLE
  8
0
  6
CONTINUOUS
 62
     7
  5
289
 10
151.153185
 20
364.605307
 30
0.0
 40
4.5
210
0.0
220
0.0
230
1.0
  0
CIRCLE
  8
0
  6
CONTINUOUS
 62
     7
  5
28A
 10
251.153185
 20
411.105307
 30
0.0
 40
4.5
210
0.0
220
0.0
230
1.0
  0
CIRCLE
  8
0
  6
CONTINUOUS
 62
     7
  5
28B
 10
151.153185
 20
411.105307
 30
0.0
 40
4.5
210
0.0
220
0.0
230
1.0
  0
ENDBLK
  8
0
  5
28C
  0
ENDSEC
  0
SECTION
  2
ENTITIES
  0
INSERT
  8
0
  5
57
  2
AID3
 10
0.0
 20
0.0
 30
0.0
  0
INSERT
  8
0
  5
204
  2
AID103
 10
0.0
 20
0.0
 30
0.0
  0
INSERT
  8
0
  5
22D
  2
AID269
 10
0.0
 20
0.0
 30
0.0
  0
INSERT
  8
0
  5
275
  2
AID347
 10
0.0
 20
0.0
 30
0.0
  0
INSERT
  8
0
  5
28D
  2
AID487
 10
0.0
 20
0.0
 30
0.0
  0
LINE
  8
0
  6
CENTER
 62
     1
  5
28F
 10
-20.044681
 20
201.288292
 30
0.0
 11
0.955319
 21
201.288292
 31
0.0
  0
LINE
  8
0
  6
CENTER
 62
     1
  5
290
 10
-9.544681
 20
190.788292
 30
0.0
 11
-9.544681
 21
211.788292
 31
0.0
  0
LINE
  8
0
  6
CENTER
 62
     1
  5
291
 10
-20.044681
 20
241.288292
 30
0.0
 11
0.955319
 21
241.288292
 31
0.0
  0
LINE
  8
0
  6
CENTER
 62
     1
  5
292
 10
-9.544681
 20
230.788292
 30
0.0
 11
-9.544681
 21
251.788292
 31
0.0
  0
LINE
  8
0
  6
CENTER
 62
     1
  5
293
 10
19.955319
 20
201.288292
 30
0.0
 11
40.955319
 21
201.288292
 31
0.0
  0
LINE
  8
0
  6
CENTER
 62
     1
  5
294
 10
30.455319
 20
190.788292
 30
0.0
 11
30.455319
 21
211.788292
 31
0.0
  0
LINE
  8
0
  6
CENTER
 62
     1
  5
295
 10
19.955319
 20
241.288292
 30
0.0
 11
40.955319
 21
241.288292
 31
0.0
  0
LINE
  8
0
  6
CENTER
 62
     1
  5
296
 10
30.455319
 20
230.788292
 30
0.0
 11
30.455319
 21
251.788292
 31
0.0
  0
LINE
  8
0
  6
CENTER
 62
     1
  5
297
 10
33.705319
 20
153.788292
 30
0.0
 11
33.705319
 21
183.788292
 31
0.0
  0
LINE
  8
0
  6
CENTER
 62
     1
  5
298
 10
10.455319
 20
162.288292
 30
0.0
 11
10.455319
 21
172.288292
 31
0.0
  0
LINE
  8
0
  6
CENTER
 62
     1
  5
299
 10
-12.794681
 20
153.788292
 30
0.0
 11
-12.794681
 21
183.788292
 31
0.0
  0
LINE
  8
0
  6
CENTER
 62
     1
  5
29A
 10
146.153185
 20
201.288292
 30
0.0
 11
225.153185
 21
201.288292
 31
0.0
  0
LINE
  8
0
  6
CENTER
 62
     1
  5
29B
 10
146.153185
 20
241.288292
 30
0.0
 11
180.153185
 21
241.288292
 31
0.0
  0
LINE
  8
0
  6
CENTER
 62
     1
  5
29C
 10
251.153185
 20
153.788292
 30
0.0
 11
251.153185
 21
175.788292
 31
0.0
  0
LINE
  8
0
  6
CENTER
 62
     1
  5
29D
 10
224.403185
 20
162.288292
 30
0.0
 11
224.403185
 21
172.288292
 31
0.0
  0
LINE
  8
0
  6
CENTER
 62
     1
  5
29E
 10
177.903185
 20
162.288292
 30
0.0
 11
177.903185
 21
172.288292
 31
0.0
  0
LINE
  8
0
  6
CENTER
 62
     1
  5
29F
 10
151.153185
 20
153.788292
 30
0.0
 11
151.153185
 21
175.788292
 31
0.0
  0
LINE
  8
0
  6
CENTER
 62
     1
  5
2A0
 10
355.504243
 20
201.288292
 30
0.0
 11
370.504243
 21
201.288292
 31
0.0
  0
LINE
  8
0
  6
CENTER
 62
     1
  5
2A1
 10
363.004243
 20
193.788292
 30
0.0
 11
363.004243
 21
208.788292
 31
0.0
  0
LINE
  8
0
  6
CENTER
 62
     1
  5
2A2
 10
355.504243
 20
241.288292
 30
0.0
 11
370.504243
 21
241.288292
 31
0.0
  0
LINE
  8
0
  6
CENTER
 62
     1
  5
2A3
 10
363.004243
 20
233.788292
 30
0.0
 11
363.004243
 21
248.788292
 31
0.0
  0
LINE
  8
0
  6
CENTER
 62
     1
  5
2A4
 10
395.504243
 20
201.288292
 30
0.0
 11
410.504243
 21
201.288292
 31
0.0
  0
LINE
  8
0
  6
CENTER
 62
     1
  5
2A5
 10
403.004243
 20
193.788292
 30
0.0
 11
403.004243
 21
208.788292
 31
0.0
  0
LINE
  8
0
  6
CENTER
 62
     1
  5
2A6
 10
395.504243
 20
241.288292
 30
0.0
 11
410.504243
 21
241.288292
 31
0.0
  0
LINE
  8
0
  6
CENTER
 62
     1
  5
2A7
 10
403.004243
 20
233.788292
 30
0.0
 11
403.004243
 21
248.788292
 31
0.0
  0
LINE
  8
0
  6
CENTER
 62
     1
  5
2A8
 10
406.254243
 20
153.788292
 30
0.0
 11
406.254243
 21
175.788292
 31
0.0
  0
LINE
  8
0
  6
CENTER
 62
     1
  5
2A9
 10
383.004243
 20
162.288292
 30
0.0
 11
383.004243
 21
172.288292
 31
0.0
  0
LINE
  8
0
  6
CENTER
 62
     1
  5
2AA
 10
359.754243
 20
153.788292
 30
0.0
 11
359.754243
 21
175.788292
 31
0.0
  0
LINE
  8
0
  6
CENTER
 62
     1
  5
2AB
 10
225.153185
 20
50.306383
 30
0.0
 11
211.153185
 21
50.306383
 31
0.0
  0
LINE
  8
0
  6
CENTER
 62
     1
  5
2AC
 10
225.153185
 20
10.306383
 30
0.0
 11
211.153185
 21
10.306383
 31
0.0
  0
LINE
  8
0
  6
CENTER
 62
     1
  5
2AD
 10
240.653185
 20
7.056383
 30
0.0
 11
261.653185
 21
7.056383
 31
0.0
  0
LINE
  8
0
  6
CENTER
 62
     1
  5
2AE
 10
251.153185
 20
-3.443617
 30
0.0
 11
251.153185
 21
17.556383
 31
0.0
  0
LINE
  8
0
  6
CENTER
 62
     1
  5
2AF
 10
240.653185
 20
53.556383
 30
0.0
 11
261.653185
 21
53.556383
 31
0.0
  0
LINE
  8
0
  6
CENTER
 62
     1
  5
2B0
 10
251.153185
 20
43.056383
 30
0.0
 11
251.153185
 21
64.056383
 31
0.0
  0
LINE
  8
0
  6
CENTER
 62
     1
  5
2B1
 10
146.153185
 20
10.306383
 30
0.0
 11
180.153185
 21
10.306383
 31
0.0
  0
LINE
  8
0
  6
CENTER
 62
     1
  5
2B2
 10
146.153185
 20
50.306383
 30
0.0
 11
180.153185
 21
50.306383
 31
0.0
  0
LINE
  8
0
  6
CENTER
 62
     1
  5
2B3
 10
143.653185
 20
364.605307
 30
0.0
 11
158.653185
 21
364.605307
 31
0.0
  0
LINE
  8
0
  6
CENTER
 62
     1
  5
2B4
 10
151.153185
 20
357.105307
 30
0.0
 11
151.153185
 21
372.105307
 31
0.0
  0
LINE
  8
0
  6
CENTER
 62
     1
  5
2B5
 10
143.653185
 20
411.105307
 30
0.0
 11
158.653185
 21
411.105307
 31
0.0
  0
LINE
  8
0
  6
CENTER
 62
     1
  5
2B6
 10
151.153185
 20
403.605307
 30
0.0
 11
151.153185
 21
418.605307
 31
0.0
  0
LINE
  8
0
  6
CENTER
 62
     1
  5
2B7
 10
172.403185
 20
387.855307
 30
0.0
 11
183.403185
 21
387.855307
 31
0.0
  0
LINE
  8
0
  6
CENTER
 62
     1
  5
2B8
 10
177.903185
 20
382.355307
 30
0.0
 11
177.903185
 21
393.355307
 31
0.0
  0
LINE
  8
0
  6
CENTER
 62
     1
  5
2B9
 10
218.903185
 20
387.855307
 30
0.0
 11
229.903185
 21
387.855307
 31
0.0
  0
LINE
  8
0
  6
CENTER
 62
     1
  5
2BA
 10
224.403185
 20
382.355307
 30
0.0
 11
224.403185
 21
393.355307
 31
0.0
  0
LINE
  8
0
  6
CENTER
 62
     1
  5
2BB
 10
243.653185
 20
364.605307
 30
0.0
 11
258.653185
 21
364.605307
 31
0.0
  0
LINE
  8
0
  6
CENTER
 62
     1
  5
2BC
 10
251.153185
 20
357.105307
 30
0.0
 11
251.153185
 21
372.105307
 31
0.0
  0
LINE
  8
0
  6
CENTER
 62
     1
  5
2BD
 10
243.653185
 20
411.105307
 30
0.0
 11
258.653185
 21
411.105307
 31
0.0
  0
LINE
  8
0
  6
CENTER
 62
     1
  5
2BE
 10
251.153185
 20
403.605307
 30
0.0
 11
251.153185
 21
418.605307
 31
0.0
  0
TEXT
  8
0
 62
     7
  5
2BF
 10
-19.544681
 20
66.538292
 30
0.0
 40
6.5
  1
2 pièces fournies
210
0.0
220
0.0
230
1.0
  0
TEXT
  8
0
 62
     7
  5
2C0
 10
-19.544681
 20
51.538292
 30
0.0
 40
6.5
  1
2 pieces delivered
210
0.0
220
0.0
230
1.0
  0
TEXT
  8
0
 62
     7
  5
2C1
 10
-19.544681
 20
36.538292
 30
0.0
 40
6.5
  1
2 stück geliefert
210
0.0
220
0.0
230
1.0
  0
ENDSEC
  0
EOF
