  0
SECTION
  2
HEADER
  9
$ACADVER
  1
AC1009
  9
$DWGCODEPAGE
  3
ansi_1252
  9
$INSBASE
 10
0.0
 20
0.0
 30
0.0
  9
$EXTMIN
 10
0.0
 20
-0.007326
 30
0.0
  9
$EXTMAX
 10
279.3592
 20
301.949135
 30
5.0
  9
$LIMMIN
 10
0.0
 20
-0.007326
  9
$LIMMAX
 10
279.3592
 20
301.949135
  9
$ORTHOMODE
 70
     0
  9
$REGENMODE
 70
     1
  9
$FILLMODE
 70
     1
  9
$QTEXTMODE
 70
     0
  9
$MIRRTEXT
 70
     1
  9
$DRAGMODE
 70
     2
  9
$LTSCALE
 40
10.0
  9
$OSMODE
 70
     0
  9
$ATTMODE
 70
     1
  9
$TEXTSIZE
 40
0.2
  9
$TRACEWID
 40
0.05
  9
$TEXTSTYLE
  7
STANDARD
  9
$CLAYER
  8
0
  9
$CELTYPE
  6
CONTINUOUS
  9
$CECOLOR
 62
   256
  9
$DIMSCALE
 40
1.0
  9
$DIMASZ
 40
1.25
  9
$DIMEXO
 40
1.0
  9
$DIMDLI
 40
0.38
  9
$DIMRND
 40
0.0
  9
$DIMDLE
 40
0.0
  9
$DIMEXE
 40
0.75
  9
$DIMTP
 40
0.0
  9
$DIMTM
 40
0.0
  9
$DIMTXT
 40
2.5
  9
$DIMCEN
 40
0.09
  9
$DIMTSZ
 40
0.0
  9
$DIMTOL
 70
     0
  9
$DIMLIM
 70
     0
  9
$DIMTIH
 70
     0
  9
$DIMTOH
 70
     0
  9
$DIMSE1
 70
     0
  9
$DIMSE2
 70
     0
  9
$DIMTAD
 70
     1
  9
$DIMZIN
 70
     0
  9
$DIMBLK
  1

  9
$DIMASO
 70
     1
  9
$DIMSHO
 70
     1
  9
$DIMPOST
  1

  9
$DIMAPOST
  1

  9
$DIMALT
 70
     0
  9
$DIMALTD
 70
     2
  9
$DIMALTF
 40
25.4
  9
$DIMLFAC
 40
1.0
  9
$DIMTOFL
 70
     0
  9
$DIMTVP
 40
0.0
  9
$DIMTIX
 70
     0
  9
$DIMSOXD
 70
     0
  9
$DIMSAH
 70
     0
  9
$DIMBLK1
  1

  9
$DIMBLK2
  1

  9
$DIMSTYLE
  2
STANDARD
  9
$DIMCLRD
 70
     7
  9
$DIMCLRE
 70
     7
  9
$DIMCLRT
 70
     7
  9
$DIMTFAC
 40
0.8
  9
$DIMGAP
 40
1.25
  9
$LUNITS
 70
     2
  9
$LUPREC
 70
     4
  9
$AXISMODE
 70
     0
  9
$AXISUNIT
 10
0.0
 20
0.0
  9
$SKETCHINC
 40
0.1
  9
$FILLETRAD
 40
0.0
  9
$AUNITS
 70
     0
  9
$AUPREC
 70
     0
  9
$MENU
  1
acad
  9
$ELEVATION
 40
0.0
  9
$PELEVATION
 40
0.0
  9
$THICKNESS
 40
0.0
  9
$LIMCHECK
 70
     0
  9
$BLIPMODE
 70
     1
  9
$CHAMFERA
 40
0.0
  9
$CHAMFERB
 40
0.0
  9
$SKPOLY
 70
     0
  9
$TDCREATE
 40
2454894.660127315
  9
$TDUPDATE
 40
2454894.618159722
  9
$TDINDWG
 40
0.0000000000
  9
$TDUSRTIMER
 40
0.0000000000
  9
$USRTIMER
 70
     1
  9
$ANGBASE
 50
0.0
  9
$ANGDIR
 70
     0
  9
$PDMODE
 70
     0
  9
$PDSIZE
 40
0.0
  9
$PLINEWID
 40
0.0
  9
$COORDS
 70
     0
  9
$SPLFRAME
 70
     0
  9
$SPLINETYPE
 70
     6
  9
$SPLINESEGS
 70
     8
  9
$ATTDIA
 70
     0
  9
$ATTREQ
 70
     1
  9
$HANDLING
 70
     1
  9
$HANDSEED
  5
12E
  9
$SURFTAB1
 70
     6
  9
$SURFTAB2
 70
     6
  9
$SURFTYPE
 70
     6
  9
$SURFU
 70
     6
  9
$SURFV
 70
     6
  9
$UCSNAME
  2

  9
$UCSORG
 10
0.0
 20
0.0
 30
0.0
  9
$UCSXDIR
 10
1.0
 20
0.0
 30
0.0
  9
$UCSYDIR
 10
0.0
 20
1.0
 30
0.0
  9
$PUCSNAME
  2

  9
$PUCSORG
 10
0.0
 20
0.0
 30
0.0
  9
$PUCSXDIR
 10
1.0
 20
0.0
 30
0.0
  9
$PUCSYDIR
 10
0.0
 20
1.0
 30
0.0
  9
$USERI1
 70
     0
  9
$USERI2
 70
     0
  9
$USERI3
 70
     0
  9
$USERI4
 70
     0
  9
$USERI5
 70
     0
  9
$USERR1
 40
0.0
  9
$USERR2
 40
0.0
  9
$USERR3
 40
0.0
  9
$USERR4
 40
0.0
  9
$USERR5
 40
0.0
  9
$WORLDVIEW
 70
     1
  9
$SHADEDGE
 70
     3
  9
$SHADEDIF
 70
    70
  9
$TILEMODE
 70
     1
  9
$MAXACTVP
 70
    16
  9
$PINSBASE
 10
0.0
 20
0.0
 30
0.0
  9
$PLIMCHECK
 70
     0
  9
$PEXTMIN
 10
1.000000E+20
 20
1.000000E+20
 30
1.000000E+20
  9
$PEXTMAX
 10
-1.000000E+20
 20
-1.000000E+20
 30
-1.000000E+20
  9
$PLIMMIN
 10
0.0
 20
0.0
  9
$PLIMMAX
 10
12.0
 20
9.0
  9
$UNITMODE
 70
     0
  9
$VISRETAIN
 70
     0
  9
$PLINEGEN
 70
     1
  9
$PSLTSCALE
 70
     0
  9
$TREEDEPTH
 70
  3020
  0
ENDSEC
  0
SECTION
  2
TABLES
  0
TABLE
  2
VPORT
 70
     1
  0
VPORT
  2
*ACTIVE
 70
     0
 10
0.0
 20
0.0
 11
1.0
 21
1.0
 12
6.591288
 22
4.579184
 13
0.0
 23
0.0
 14
1.0
 24
1.0
 15
0.0
 25
0.0
 16
0.0
 26
0.0
 36
1.0
 17
0.0
 27
0.0
 37
0.0
 40
9.158369
 41
0.688564
 42
50.0
 43
0.0
 44
0.0
 50
0.0
 51
0.0
 71
     0
 72
   100
 73
     1
 74
     1
 75
     0
 76
     0
 77
     0
 78
     0
  0
ENDTAB
  0
TABLE
  2
LTYPE
 70
     2
  0
LTYPE
  2
CONTINUOUS
 70
    64
  3
Solid line
 72
    65
 73
     0
 40
0.0
  0
LTYPE
  2
CENTER
 70
    64
  3
____ _ ____ _ ____ _ ____ _ ____ _ ____ _ ____
 72
    65
 73
     4
 40
2.0
 49
1.25
 49
-0.25
 49
0.25
 49
-0.25
  0
ENDTAB
  0
TABLE
  2
LAYER
 70
     1
  0
LAYER
  2
0
 70
     0
 62
     7
  6
CONTINUOUS
  0
ENDTAB
  0
TABLE
  2
STYLE
 70
     1
  0
STYLE
  2
STANDARD
 70
     0
 40
0.0
 41
1.0
 50
0.0
 71
     0
 42
0.0
  3
IsonormD
  4

  0
ENDTAB
  0
TABLE
  2
VIEW
 70
     0
  0
ENDTAB
  0
TABLE
  2
UCS
 70
     0
  0
ENDTAB
  0
TABLE
  2
APPID
 70
     2
  0
APPID
  2
ACAD
 70
     0
  0
APPID
  2
TopSolid_Draft
 70
     0
  0
ENDTAB
  0
TABLE
  2
DIMSTYLE
 70
     1
  0
DIMSTYLE
  2
STANDARD
 70
     0
  3

  4

  5

  6

  7

 40
1.0
 41
1.25
 42
1.0
 43
0.38
 44
0.75
 45
0.0
 46
0.0
 47
0.0
 48
0.0
 71
     0
 72
     0
 73
     0
 74
     0
 75
     0
 76
     0
 77
     1
 78
     0
140
2.5
141
0.09
142
0.0
143
25.4
144
1.0
145
0.0
146
0.8
147
1.25
170
     0
171
     2
172
     0
173
     0
174
     0
175
     0
176
     7
177
     7
178
     7
  0
ENDTAB
  0
ENDSEC
  0
SECTION
  2
BLOCKS
  0
BLOCK
  8
0
  5
25
  2
AID3
 70
     0
 10
0.0
 20
0.0
 30
0.0
  3
#draft view
  0
LINE
  8
0
  6
CONTINUOUS
 62
     7
  5
26
 10
274.6092
 20
154.605455
 30
0.0
 11
274.6092
 21
164.605455
 31
0.0
  0
LINE
  8
0
  6
CONTINUOUS
 62
     7
  5
27
 10
274.6092
 20
154.605455
 30
0.0
 11
217.6092
 21
154.605455
 31
0.0
  0
LINE
  8
0
  6
CONTINUOUS
 62
     7
  5
28
 10
217.6092
 20
164.605455
 30
0.0
 11
217.6092
 21
154.605455
 31
0.0
  0
LINE
  8
0
  6
CONTINUOUS
 62
     7
  5
29
 10
274.6092
 20
164.605455
 30
0.0
 11
217.6092
 21
164.605455
 31
0.0
  0
LINE
  8
0
  6
CONTINUOUS
 62
     7
  5
2A
 10
274.6092
 20
164.605455
 30
0.0
 11
278.6092
 21
164.605455
 31
0.0
  0
LINE
  8
0
  6
CONTINUOUS
 62
     7
  5
2B
 10
278.6092
 20
164.605455
 30
0.0
 11
278.6092
 21
154.605455
 31
0.0
  0
LINE
  8
0
  6
CONTINUOUS
 62
     7
  5
2C
 10
278.6092
 20
154.605455
 30
0.0
 11
274.6092
 21
154.605455
 31
0.0
  0
LINE
  8
0
  6
CONTINUOUS
 62
     7
  5
2D
 10
213.6092
 20
154.605455
 30
0.0
 11
213.6092
 21
164.605455
 31
0.0
  0
LINE
  8
0
  6
CONTINUOUS
 62
     7
  5
2E
 10
213.6092
 20
164.605455
 30
0.0
 11
217.6092
 21
164.605455
 31
0.0
  0
LINE
  8
0
  6
CONTINUOUS
 62
     7
  5
2F
 10
217.6092
 20
154.605455
 30
0.0
 11
213.6092
 21
154.605455
 31
0.0
  0
LINE
  8
0
  6
CONTINUOUS
 62
     7
  5
30
 10
276.3592
 20
149.605455
 30
0.0
 11
267.8592
 21
149.605455
 31
0.0
  0
LINE
  8
0
  6
CONTINUOUS
 62
     7
  5
31
 10
215.8592
 20
149.605455
 30
0.0
 11
224.3592
 21
149.605455
 31
0.0
  0
LINE
  8
0
  6
CONTINUOUS
 62
     7
  5
32
 10
222.6092
 20
174.205455
 30
0.0
 11
217.6092
 21
174.205455
 31
0.0
  0
LINE
  8
0
  6
CONTINUOUS
 62
     7
  5
33
 10
269.6092
 20
174.205455
 30
0.0
 11
274.6092
 21
174.205455
 31
0.0
  0
LINE
  8
0
  6
CONTINUOUS
 62
     7
  5
34
 10
274.2092
 20
174.605455
 30
0.0
 11
270.0092
 21
174.605455
 31
0.0
  0
LINE
  8
0
  6
CONTINUOUS
 62
     7
  5
35
 10
218.0092
 20
174.605455
 30
0.0
 11
222.2092
 21
174.605455
 31
0.0
  0
LINE
  8
0
  6
CONTINUOUS
 62
     7
  5
36
 10
223.6092
 20
149.505455
 30
0.0
 11
228.6092
 21
149.505455
 31
0.0
  0
LINE
  8
0
  6
CONTINUOUS
 62
     7
  5
37
 10
268.6092
 20
149.505455
 30
0.0
 11
263.6092
 21
149.505455
 31
0.0
  0
LINE
  8
0
  6
CONTINUOUS
 62
     7
  5
38
 10
228.2092
 20
149.105455
 30
0.0
 11
224.0092
 21
149.105455
 31
0.0
  0
LINE
  8
0
  6
CONTINUOUS
 62
     7
  5
39
 10
264.0092
 20
149.105455
 30
0.0
 11
268.2092
 21
149.105455
 31
0.0
  0
LINE
  8
0
  6
CONTINUOUS
 62
     7
  5
3A
 10
267.8592
 20
154.605455
 30
0.0
 11
267.8592
 21
149.605455
 31
0.0
  0
LINE
  8
0
  6
CONTINUOUS
 62
     7
  5
3B
 10
276.3592
 20
149.605455
 30
0.0
 11
276.3592
 21
154.605455
 31
0.0
  0
LINE
  8
0
  6
CONTINUOUS
 62
     7
  5
3C
 10
215.8592
 20
154.605455
 30
0.0
 11
215.8592
 21
149.605455
 31
0.0
  0
LINE
  8
0
  6
CONTINUOUS
 62
     7
  5
3D
 10
224.3592
 20
149.605455
 30
0.0
 11
224.3592
 21
154.605455
 31
0.0
  0
LINE
  8
0
  6
CONTINUOUS
 62
     7
  5
3E
 10
222.6092
 20
164.605455
 30
0.0
 11
222.6092
 21
174.205455
 31
0.0
  0
LINE
  8
0
  6
CONTINUOUS
 62
     7
  5
3F
 10
217.6092
 20
174.205455
 30
0.0
 11
217.6092
 21
164.605455
 31
0.0
  0
LINE
  8
0
  6
CONTINUOUS
 62
     7
  5
40
 10
274.6092
 20
164.605455
 30
0.0
 11
274.6092
 21
174.205455
 31
0.0
  0
LINE
  8
0
  6
CONTINUOUS
 62
     7
  5
41
 10
269.6092
 20
174.205455
 30
0.0
 11
269.6092
 21
164.605455
 31
0.0
  0
LINE
  8
0
  6
CONTINUOUS
 62
     7
  5
42
 10
274.6092
 20
174.205455
 30
0.0
 11
274.2092
 21
174.605455
 31
0.0
  0
LINE
  8
0
  6
CONTINUOUS
 62
     7
  5
43
 10
270.0092
 20
174.605455
 30
0.0
 11
269.6092
 21
174.205455
 31
0.0
  0
LINE
  8
0
  6
CONTINUOUS
 62
     7
  5
44
 10
222.6092
 20
174.205455
 30
0.0
 11
222.2092
 21
174.605455
 31
0.0
  0
LINE
  8
0
  6
CONTINUOUS
 62
     7
  5
45
 10
218.0092
 20
174.605455
 30
0.0
 11
217.6092
 21
174.205455
 31
0.0
  0
LINE
  8
0
  6
CONTINUOUS
 62
     7
  5
46
 10
223.6092
 20
149.605455
 30
0.0
 11
223.6092
 21
149.505455
 31
0.0
  0
LINE
  8
0
  6
CONTINUOUS
 62
     7
  5
47
 10
228.6092
 20
149.505455
 30
0.0
 11
228.6092
 21
154.605455
 31
0.0
  0
LINE
  8
0
  6
CONTINUOUS
 62
     7
  5
48
 10
263.6092
 20
154.605455
 30
0.0
 11
263.6092
 21
149.505455
 31
0.0
  0
LINE
  8
0
  6
CONTINUOUS
 62
     7
  5
49
 10
268.6092
 20
149.505455
 30
0.0
 11
268.6092
 21
149.605455
 31
0.0
  0
LINE
  8
0
  6
CONTINUOUS
 62
     7
  5
4A
 10
223.6092
 20
149.505455
 30
0.0
 11
224.0092
 21
149.105455
 31
0.0
  0
LINE
  8
0
  6
CONTINUOUS
 62
     7
  5
4B
 10
228.2092
 20
149.105455
 30
0.0
 11
228.6092
 21
149.505455
 31
0.0
  0
LINE
  8
0
  6
CONTINUOUS
 62
     7
  5
4C
 10
263.6092
 20
149.505455
 30
0.0
 11
264.0092
 21
149.105455
 31
0.0
  0
LINE
  8
0
  6
CONTINUOUS
 62
     7
  5
4D
 10
268.2092
 20
149.105455
 30
0.0
 11
268.6092
 21
149.505455
 31
0.0
  0
ENDBLK
  8
0
  5
4E
  0
BLOCK
  8
0
  5
51
  2
AID87
 70
     0
 10
0.0
 20
0.0
 30
0.0
  3
#auxiliary draft view
  0
CIRCLE
  8
0
  6
CONTINUOUS
 62
     7
  5
52
 10
266.1092
 20
283.699135
 30
0.0
 40
2.1
210
0.0
220
0.0
230
1.0
  0
CIRCLE
  8
0
  6
CONTINUOUS
 62
     7
  5
53
 10
266.1092
 20
283.699135
 30
0.0
 40
2.5
210
0.0
220
0.0
230
1.0
  0
CIRCLE
  8
0
  6
CONTINUOUS
 62
     7
  5
54
 10
226.1092
 20
283.699135
 30
0.0
 40
2.1
210
0.0
220
0.0
230
1.0
  0
CIRCLE
  8
0
  6
CONTINUOUS
 62
     7
  5
55
 10
226.1092
 20
283.699135
 30
0.0
 40
2.5
210
0.0
220
0.0
230
1.0
  0
CIRCLE
  8
0
  6
CONTINUOUS
 62
     7
  5
56
 10
266.1092
 20
253.699135
 30
0.0
 40
2.1
210
0.0
220
0.0
230
1.0
  0
CIRCLE
  8
0
  6
CONTINUOUS
 62
     7
  5
57
 10
266.1092
 20
253.699135
 30
0.0
 40
2.5
210
0.0
220
0.0
230
1.0
  0
CIRCLE
  8
0
  6
CONTINUOUS
 62
     7
  5
58
 10
226.1092
 20
253.699135
 30
0.0
 40
2.1
210
0.0
220
0.0
230
1.0
  0
CIRCLE
  8
0
  6
CONTINUOUS
 62
     7
  5
59
 10
226.1092
 20
253.699135
 30
0.0
 40
2.5
210
0.0
220
0.0
230
1.0
  0
LINE
  8
0
  6
CONTINUOUS
 62
     7
  5
5A
 10
272.1092
 20
292.389734
 30
0.0
 11
274.1092
 21
293.544435
 31
0.0
  0
LINE
  8
0
  6
CONTINUOUS
 62
     7
  5
5B
 10
274.1092
 20
293.544435
 30
0.0
 11
274.1092
 21
295.853836
 31
0.0
  0
CIRCLE
  8
0
  6
CONTINUOUS
 62
     7
  5
5C
 10
272.1092
 20
294.699135
 30
0.0
 40
4.25
210
0.0
220
0.0
230
1.0
  0
LINE
  8
0
  6
CONTINUOUS
 62
     7
  5
5D
 10
274.1092
 20
295.853836
 30
0.0
 11
272.1092
 21
297.008536
 31
0.0
  0
LINE
  8
0
  6
CONTINUOUS
 62
     7
  5
5E
 10
272.1092
 20
297.008536
 30
0.0
 11
270.1092
 21
295.853836
 31
0.0
  0
LINE
  8
0
  6
CONTINUOUS
 62
     7
  5
5F
 10
270.1092
 20
295.853836
 30
0.0
 11
270.1092
 21
293.544435
 31
0.0
  0
LINE
  8
0
  6
CONTINUOUS
 62
     7
  5
60
 10
270.1092
 20
293.544435
 30
0.0
 11
272.1092
 21
292.389734
 31
0.0
  0
LINE
  8
0
  6
CONTINUOUS
 62
     7
  5
61
 10
218.1092
 20
295.853836
 30
0.0
 11
220.1092
 21
297.008536
 31
0.0
  0
LINE
  8
0
  6
CONTINUOUS
 62
     7
  5
62
 10
220.1092
 20
292.389734
 30
0.0
 11
218.1092
 21
293.544435
 31
0.0
  0
CIRCLE
  8
0
  6
CONTINUOUS
 62
     7
  5
63
 10
220.1092
 20
294.699135
 30
0.0
 40
4.25
210
0.0
220
0.0
230
1.0
  0
LINE
  8
0
  6
CONTINUOUS
 62
     7
  5
64
 10
218.1092
 20
293.544435
 30
0.0
 11
218.1092
 21
295.853836
 31
0.0
  0
LINE
  8
0
  6
CONTINUOUS
 62
     7
  5
65
 10
220.1092
 20
297.008536
 30
0.0
 11
222.1092
 21
295.853836
 31
0.0
  0
LINE
  8
0
  6
CONTINUOUS
 62
     7
  5
66
 10
222.1092
 20
295.853836
 30
0.0
 11
222.1092
 21
293.544435
 31
0.0
  0
LINE
  8
0
  6
CONTINUOUS
 62
     7
  5
67
 10
222.1092
 20
293.544435
 30
0.0
 11
220.1092
 21
292.389734
 31
0.0
  0
LINE
  8
0
  6
CONTINUOUS
 62
     7
  5
68
 10
222.1092
 20
241.544435
 30
0.0
 11
222.1092
 21
243.853836
 31
0.0
  0
LINE
  8
0
  6
CONTINUOUS
 62
     7
  5
69
 10
222.1092
 20
243.853836
 30
0.0
 11
220.1092
 21
245.008536
 31
0.0
  0
LINE
  8
0
  6
CONTINUOUS
 62
     7
  5
6A
 10
220.1092
 20
245.008536
 30
0.0
 11
218.1092
 21
243.853836
 31
0.0
  0
LINE
  8
0
  6
CONTINUOUS
 62
     7
  5
6B
 10
218.1092
 20
243.853836
 30
0.0
 11
218.1092
 21
241.544435
 31
0.0
  0
LINE
  8
0
  6
CONTINUOUS
 62
     7
  5
6C
 10
218.1092
 20
241.544435
 30
0.0
 11
220.1092
 21
240.389734
 31
0.0
  0
CIRCLE
  8
0
  6
CONTINUOUS
 62
     7
  5
6D
 10
220.1092
 20
242.699135
 30
0.0
 40
4.25
210
0.0
220
0.0
230
1.0
  0
LINE
  8
0
  6
CONTINUOUS
 62
     7
  5
6E
 10
220.1092
 20
240.389734
 30
0.0
 11
222.1092
 21
241.544435
 31
0.0
  0
LINE
  8
0
  6
CONTINUOUS
 62
     7
  5
6F
 10
274.1092
 20
241.544435
 30
0.0
 11
272.1092
 21
240.389734
 31
0.0
  0
LINE
  8
0
  6
CONTINUOUS
 62
     7
  5
70
 10
274.1092
 20
243.853836
 30
0.0
 11
274.1092
 21
241.544435
 31
0.0
  0
LINE
  8
0
  6
CONTINUOUS
 62
     7
  5
71
 10
272.1092
 20
245.008536
 30
0.0
 11
274.1092
 21
243.853836
 31
0.0
  0
LINE
  8
0
  6
CONTINUOUS
 62
     7
  5
72
 10
270.1092
 20
243.853836
 30
0.0
 11
272.1092
 21
245.008536
 31
0.0
  0
LINE
  8
0
  6
CONTINUOUS
 62
     7
  5
73
 10
270.1092
 20
241.544435
 30
0.0
 11
270.1092
 21
243.853836
 31
0.0
  0
LINE
  8
0
  6
CONTINUOUS
 62
     7
  5
74
 10
272.1092
 20
240.389734
 30
0.0
 11
270.1092
 21
241.544435
 31
0.0
  0
CIRCLE
  8
0
  6
CONTINUOUS
 62
     7
  5
75
 10
272.1092
 20
242.699135
 30
0.0
 40
4.25
210
0.0
220
0.0
230
1.0
  0
LINE
  8
0
  6
CONTINUOUS
 62
     7
  5
76
 10
278.6092
 20
290.199135
 30
0.0
 11
278.6092
 21
297.199135
 31
0.0
  0
LINE
  8
0
  6
CONTINUOUS
 62
     7
  5
77
 10
213.6092
 20
290.199135
 30
0.0
 11
278.6092
 21
290.199135
 31
0.0
  0
LINE
  8
0
  6
CONTINUOUS
 62
     7
  5
78
 10
274.6092
 20
301.199135
 30
0.0
 11
217.6092
 21
301.199135
 31
0.0
  0
LINE
  8
0
  6
CONTINUOUS
 62
     7
  5
79
 10
278.6092
 20
297.199135
 30
0.0
 11
274.6092
 21
301.199135
 31
0.0
  0
LINE
  8
0
  6
CONTINUOUS
 62
     7
  5
7A
 10
213.6092
 20
297.199135
 30
0.0
 11
213.6092
 21
290.199135
 31
0.0
  0
LINE
  8
0
  6
CONTINUOUS
 62
     7
  5
7B
 10
217.6092
 20
301.199135
 30
0.0
 11
213.6092
 21
297.199135
 31
0.0
  0
LINE
  8
0
  6
CONTINUOUS
 62
     7
  5
7C
 10
278.6092
 20
247.199135
 30
0.0
 11
213.6092
 21
247.199135
 31
0.0
  0
LINE
  8
0
  6
CONTINUOUS
 62
     7
  5
7D
 10
274.6092
 20
236.199135
 30
0.0
 11
278.6092
 21
240.199135
 31
0.0
  0
LINE
  8
0
  6
CONTINUOUS
 62
     7
  5
7E
 10
217.6092
 20
236.199135
 30
0.0
 11
274.6092
 21
236.199135
 31
0.0
  0
LINE
  8
0
  6
CONTINUOUS
 62
     7
  5
7F
 10
213.6092
 20
240.199135
 30
0.0
 11
217.6092
 21
236.199135
 31
0.0
  0
LINE
  8
0
  6
CONTINUOUS
 62
     7
  5
80
 10
278.6092
 20
240.199135
 30
0.0
 11
278.6092
 21
247.199135
 31
0.0
  0
LINE
  8
0
  6
CONTINUOUS
 62
     7
  5
81
 10
213.6092
 20
247.199135
 30
0.0
 11
213.6092
 21
240.199135
 31
0.0
  0
CIRCLE
  8
0
  6
CONTINUOUS
 62
     7
  5
82
 10
266.1092
 20
253.699135
 30
0.0
 40
2.75
210
0.0
220
0.0
230
1.0
  0
CIRCLE
  8
0
  6
CONTINUOUS
 62
     7
  5
83
 10
226.1092
 20
253.699135
 30
0.0
 40
2.75
210
0.0
220
0.0
230
1.0
  0
CIRCLE
  8
0
  6
CONTINUOUS
 62
     7
  5
84
 10
266.1092
 20
283.699135
 30
0.0
 40
2.75
210
0.0
220
0.0
230
1.0
  0
CIRCLE
  8
0
  6
CONTINUOUS
 62
     7
  5
85
 10
226.1092
 20
283.699135
 30
0.0
 40
2.75
210
0.0
220
0.0
230
1.0
  0
LINE
  8
0
  6
CONTINUOUS
 62
     7
  5
86
 10
278.6092
 20
247.199135
 30
0.0
 11
278.6092
 21
290.199135
 31
0.0
  0
LINE
  8
0
  6
CONTINUOUS
 62
     7
  5
87
 10
213.6092
 20
290.199135
 30
0.0
 11
213.6092
 21
247.199135
 31
0.0
  0
ENDBLK
  8
0
  5
88
  0
BLOCK
  8
0
  5
8B
  2
AID199
 70
     0
 10
0.0
 20
0.0
 30
0.0
  3
#auxiliary draft view
  0
CIRCLE
  8
0
  6
CONTINUOUS
 62
     7
  5
8C
 10
272.1092
 20
82.990362
 30
0.0
 40
2.1
210
0.0
220
0.0
230
1.0
  0
CIRCLE
  8
0
  6
CONTINUOUS
 62
     7
  5
8D
 10
272.1092
 20
82.990362
 30
0.0
 40
2.5
210
0.0
220
0.0
230
1.0
  0
CIRCLE
  8
0
  6
CONTINUOUS
 62
     7
  5
8E
 10
220.1092
 20
82.990362
 30
0.0
 40
2.1
210
0.0
220
0.0
230
1.0
  0
CIRCLE
  8
0
  6
CONTINUOUS
 62
     7
  5
8F
 10
220.1092
 20
82.990362
 30
0.0
 40
2.5
210
0.0
220
0.0
230
1.0
  0
CIRCLE
  8
0
  6
CONTINUOUS
 62
     7
  5
90
 10
272.1092
 20
30.990362
 30
0.0
 40
2.1
210
0.0
220
0.0
230
1.0
  0
CIRCLE
  8
0
  6
CONTINUOUS
 62
     7
  5
91
 10
220.1092
 20
30.990362
 30
0.0
 40
2.1
210
0.0
220
0.0
230
1.0
  0
CIRCLE
  8
0
  6
CONTINUOUS
 62
     7
  5
92
 10
220.1092
 20
30.990362
 30
0.0
 40
2.5
210
0.0
220
0.0
230
1.0
  0
CIRCLE
  8
0
  6
CONTINUOUS
 62
     7
  5
93
 10
272.1092
 20
30.990362
 30
0.0
 40
2.5
210
0.0
220
0.0
230
1.0
  0
CIRCLE
  8
0
  6
CONTINUOUS
 62
     7
  5
94
 10
272.1092
 20
56.990362
 30
0.0
 40
2.5
210
0.0
220
0.0
230
1.0
  0
CIRCLE
  8
0
  6
CONTINUOUS
 62
     7
  5
95
 10
220.1092
 20
56.990362
 30
0.0
 40
2.5
210
0.0
220
0.0
230
1.0
  0
LINE
  8
0
  6
CONTINUOUS
 62
     7
  5
96
 10
278.6092
 20
85.490362
 30
0.0
 11
274.6092
 21
89.490362
 31
0.0
  0
LINE
  8
0
  6
CONTINUOUS
 62
     7
  5
97
 10
213.6092
 20
28.490362
 30
0.0
 11
217.6092
 21
24.490362
 31
0.0
  0
LINE
  8
0
  6
CONTINUOUS
 62
     7
  5
98
 10
213.6092
 20
28.490362
 30
0.0
 11
213.6092
 21
85.490362
 31
0.0
  0
LINE
  8
0
  6
CONTINUOUS
 62
     7
  5
99
 10
217.6092
 20
89.490362
 30
0.0
 11
213.6092
 21
85.490362
 31
0.0
  0
CIRCLE
  8
0
  6
CONTINUOUS
 62
     7
  5
9A
 10
220.1092
 20
82.990362
 30
0.0
 40
2.75
210
0.0
220
0.0
230
1.0
  0
LINE
  8
0
  6
CONTINUOUS
 62
     7
  5
9B
 10
217.6092
 20
89.490362
 30
0.0
 11
274.6092
 21
89.490362
 31
0.0
  0
CIRCLE
  8
0
  6
CONTINUOUS
 62
     7
  5
9C
 10
226.1092
 20
71.990362
 30
0.0
 40
5.0
210
0.0
220
0.0
230
1.0
  0
CIRCLE
  8
0
  6
CONTINUOUS
 62
     7
  5
9D
 10
272.1092
 20
82.990362
 30
0.0
 40
2.75
210
0.0
220
0.0
230
1.0
  0
LINE
  8
0
  6
CONTINUOUS
 62
     7
  5
9E
 10
278.6092
 20
85.490362
 30
0.0
 11
278.6092
 21
28.490362
 31
0.0
  0
CIRCLE
  8
0
  6
CONTINUOUS
 62
     7
  5
9F
 10
226.1092
 20
41.990362
 30
0.0
 40
5.0
210
0.0
220
0.0
230
1.0
  0
CIRCLE
  8
0
  6
CONTINUOUS
 62
     7
  5
A0
 10
266.1092
 20
41.990362
 30
0.0
 40
5.0
210
0.0
220
0.0
230
1.0
  0
LINE
  8
0
  6
CONTINUOUS
 62
     7
  5
A1
 10
274.6092
 20
24.490362
 30
0.0
 11
278.6092
 21
28.490362
 31
0.0
  0
CIRCLE
  8
0
  6
CONTINUOUS
 62
     7
  5
A2
 10
266.1092
 20
71.990362
 30
0.0
 40
5.0
210
0.0
220
0.0
230
1.0
  0
CIRCLE
  8
0
  6
CONTINUOUS
 62
     7
  5
A3
 10
272.1092
 20
30.990362
 30
0.0
 40
2.75
210
0.0
220
0.0
230
1.0
  0
LINE
  8
0
  6
CONTINUOUS
 62
     7
  5
A4
 10
274.6092
 20
24.490362
 30
0.0
 11
217.6092
 21
24.490362
 31
0.0
  0
CIRCLE
  8
0
  6
CONTINUOUS
 62
     7
  5
A5
 10
220.1092
 20
30.990362
 30
0.0
 40
2.75
210
0.0
220
0.0
230
1.0
  0
LINE
  8
0
  6
CONTINUOUS
 62
     7
  5
A6
 10
228.1092
 20
43.145063
 30
0.0
 11
228.1092
 21
40.835662
 31
0.0
  0
LINE
  8
0
  6
CONTINUOUS
 62
     7
  5
A7
 10
226.1092
 20
44.299763
 30
0.0
 11
228.1092
 21
43.145063
 31
0.0
  0
LINE
  8
0
  6
CONTINUOUS
 62
     7
  5
A8
 10
224.1092
 20
43.145063
 30
0.0
 11
226.1092
 21
44.299763
 31
0.0
  0
LINE
  8
0
  6
CONTINUOUS
 62
     7
  5
A9
 10
224.1092
 20
40.835662
 30
0.0
 11
224.1092
 21
43.145063
 31
0.0
  0
CIRCLE
  8
0
  6
CONTINUOUS
 62
     7
  5
AA
 10
226.1092
 20
41.990362
 30
0.0
 40
4.25
210
0.0
220
0.0
230
1.0
  0
LINE
  8
0
  6
CONTINUOUS
 62
     7
  5
AB
 10
228.1092
 20
40.835662
 30
0.0
 11
226.1092
 21
39.680961
 31
0.0
  0
LINE
  8
0
  6
CONTINUOUS
 62
     7
  5
AC
 10
226.1092
 20
39.680961
 30
0.0
 11
224.1092
 21
40.835662
 31
0.0
  0
LINE
  8
0
  6
CONTINUOUS
 62
     7
  5
AD
 10
264.1092
 20
70.835662
 30
0.0
 11
264.1092
 21
73.145063
 31
0.0
  0
LINE
  8
0
  6
CONTINUOUS
 62
     7
  5
AE
 10
266.1092
 20
69.680961
 30
0.0
 11
264.1092
 21
70.835662
 31
0.0
  0
LINE
  8
0
  6
CONTINUOUS
 62
     7
  5
AF
 10
268.1092
 20
70.835662
 30
0.0
 11
266.1092
 21
69.680961
 31
0.0
  0
LINE
  8
0
  6
CONTINUOUS
 62
     7
  5
B0
 10
268.1092
 20
73.145063
 30
0.0
 11
268.1092
 21
70.835662
 31
0.0
  0
CIRCLE
  8
0
  6
CONTINUOUS
 62
     7
  5
B1
 10
266.1092
 20
71.990362
 30
0.0
 40
4.25
210
0.0
220
0.0
230
1.0
  0
LINE
  8
0
  6
CONTINUOUS
 62
     7
  5
B2
 10
266.1092
 20
74.299763
 30
0.0
 11
268.1092
 21
73.145063
 31
0.0
  0
LINE
  8
0
  6
CONTINUOUS
 62
     7
  5
B3
 10
264.1092
 20
73.145063
 30
0.0
 11
266.1092
 21
74.299763
 31
0.0
  0
LINE
  8
0
  6
CONTINUOUS
 62
     7
  5
B4
 10
224.1092
 20
70.835662
 30
0.0
 11
226.1092
 21
69.680961
 31
0.0
  0
LINE
  8
0
  6
CONTINUOUS
 62
     7
  5
B5
 10
226.1092
 20
69.680961
 30
0.0
 11
228.1092
 21
70.835662
 31
0.0
  0
LINE
  8
0
  6
CONTINUOUS
 62
     7
  5
B6
 10
228.1092
 20
70.835662
 30
0.0
 11
228.1092
 21
73.145063
 31
0.0
  0
LINE
  8
0
  6
CONTINUOUS
 62
     7
  5
B7
 10
228.1092
 20
73.145063
 30
0.0
 11
226.1092
 21
74.299763
 31
0.0
  0
LINE
  8
0
  6
CONTINUOUS
 62
     7
  5
B8
 10
226.1092
 20
74.299763
 30
0.0
 11
224.1092
 21
73.145063
 31
0.0
  0
CIRCLE
  8
0
  6
CONTINUOUS
 62
     7
  5
B9
 10
226.1092
 20
71.990362
 30
0.0
 40
4.25
210
0.0
220
0.0
230
1.0
  0
LINE
  8
0
  6
CONTINUOUS
 62
     7
  5
BA
 10
224.1092
 20
73.145063
 30
0.0
 11
224.1092
 21
70.835662
 31
0.0
  0
LINE
  8
0
  6
CONTINUOUS
 62
     7
  5
BB
 10
266.1092
 20
39.680961
 30
0.0
 11
268.1092
 21
40.835662
 31
0.0
  0
CIRCLE
  8
0
  6
CONTINUOUS
 62
     7
  5
BC
 10
266.1092
 20
41.990362
 30
0.0
 40
4.25
210
0.0
220
0.0
230
1.0
  0
LINE
  8
0
  6
CONTINUOUS
 62
     7
  5
BD
 10
264.1092
 20
43.145063
 30
0.0
 11
264.1092
 21
40.835662
 31
0.0
  0
LINE
  8
0
  6
CONTINUOUS
 62
     7
  5
BE
 10
268.1092
 20
40.835662
 30
0.0
 11
268.1092
 21
43.145063
 31
0.0
  0
LINE
  8
0
  6
CONTINUOUS
 62
     7
  5
BF
 10
268.1092
 20
43.145063
 30
0.0
 11
266.1092
 21
44.299763
 31
0.0
  0
LINE
  8
0
  6
CONTINUOUS
 62
     7
  5
C0
 10
266.1092
 20
44.299763
 30
0.0
 11
264.1092
 21
43.145063
 31
0.0
  0
LINE
  8
0
  6
CONTINUOUS
 62
     7
  5
C1
 10
264.1092
 20
40.835662
 30
0.0
 11
266.1092
 21
39.680961
 31
0.0
  0
ENDBLK
  8
0
  5
C2
  0
BLOCK
  8
0
  5
C5
  2
AID311
 70
     0
 10
0.0
 20
0.0
 30
0.0
  3
#auxiliary draft view
  0
LINE
  8
0
  6
CONTINUOUS
 62
     7
  5
C6
 10
141.0546
 20
154.605455
 30
0.0
 11
141.0546
 21
164.605455
 31
0.0
  0
LINE
  8
0
  6
CONTINUOUS
 62
     7
  5
C7
 10
141.0546
 20
154.605455
 30
0.0
 11
134.0546
 21
154.605455
 31
0.0
  0
LINE
  8
0
  6
CONTINUOUS
 62
     7
  5
C8
 10
134.0546
 20
154.605455
 30
0.0
 11
134.0546
 21
156.605455
 31
0.0
  0
LINE
  8
0
  6
CONTINUOUS
 62
     7
  5
C9
 10
134.0546
 20
156.605455
 30
0.0
 11
91.0546
 21
156.605455
 31
0.0
  0
LINE
  8
0
  6
CONTINUOUS
 62
     7
  5
CA
 10
91.0546
 20
154.605455
 30
0.0
 11
91.0546
 21
156.605455
 31
0.0
  0
LINE
  8
0
  6
CONTINUOUS
 62
     7
  5
CB
 10
91.0546
 20
154.605455
 30
0.0
 11
84.0546
 21
154.605455
 31
0.0
  0
LINE
  8
0
  6
CONTINUOUS
 62
     7
  5
CC
 10
84.0546
 20
164.605455
 30
0.0
 11
84.0546
 21
154.605455
 31
0.0
  0
LINE
  8
0
  6
CONTINUOUS
 62
     7
  5
CD
 10
141.0546
 20
164.605455
 30
0.0
 11
84.0546
 21
164.605455
 31
0.0
  0
LINE
  8
0
  6
CONTINUOUS
 62
     7
  5
CE
 10
141.0546
 20
164.605455
 30
0.0
 11
145.0546
 21
164.605455
 31
0.0
  0
LINE
  8
0
  6
CONTINUOUS
 62
     7
  5
CF
 10
145.0546
 20
164.605455
 30
0.0
 11
145.0546
 21
154.605455
 31
0.0
  0
LINE
  8
0
  6
CONTINUOUS
 62
     7
  5
D0
 10
145.0546
 20
154.605455
 30
0.0
 11
141.0546
 21
154.605455
 31
0.0
  0
LINE
  8
0
  6
CONTINUOUS
 62
     7
  5
D1
 10
80.0546
 20
154.605455
 30
0.0
 11
80.0546
 21
164.605455
 31
0.0
  0
LINE
  8
0
  6
CONTINUOUS
 62
     7
  5
D2
 10
80.0546
 20
164.605455
 30
0.0
 11
84.0546
 21
164.605455
 31
0.0
  0
LINE
  8
0
  6
CONTINUOUS
 62
     7
  5
D3
 10
84.0546
 20
154.605455
 30
0.0
 11
80.0546
 21
154.605455
 31
0.0
  0
LINE
  8
0
  6
CONTINUOUS
 62
     7
  5
D4
 10
90.8046
 20
149.605455
 30
0.0
 11
82.3046
 21
149.605455
 31
0.0
  0
LINE
  8
0
  6
CONTINUOUS
 62
     7
  5
D5
 10
134.3046
 20
149.605455
 30
0.0
 11
142.8046
 21
149.605455
 31
0.0
  0
LINE
  8
0
  6
CONTINUOUS
 62
     7
  5
D6
 10
84.0546
 20
174.205455
 30
0.0
 11
89.0546
 21
174.205455
 31
0.0
  0
LINE
  8
0
  6
CONTINUOUS
 62
     7
  5
D7
 10
115.0546
 20
166.955455
 30
0.0
 11
110.0546
 21
166.955455
 31
0.0
  0
LINE
  8
0
  6
CONTINUOUS
 62
     7
  5
D8
 10
88.6546
 20
174.605455
 30
0.0
 11
84.4546
 21
174.605455
 31
0.0
  0
LINE
  8
0
  6
CONTINUOUS
 62
     7
  5
D9
 10
136.4546
 20
174.605455
 30
0.0
 11
140.6546
 21
174.605455
 31
0.0
  0
LINE
  8
0
  6
CONTINUOUS
 62
     7
  5
DA
 10
141.0546
 20
174.205455
 30
0.0
 11
136.0546
 21
174.205455
 31
0.0
  0
LINE
  8
0
  6
CONTINUOUS
 62
     7
  5
DB
 10
95.4546
 20
149.105455
 30
0.0
 11
97.5546
 21
149.105455
 31
0.0
  0
LINE
  8
0
  6
CONTINUOUS
 62
     7
  5
DC
 10
100.0546
 20
149.505455
 30
0.0
 11
97.5546
 21
149.505455
 31
0.0
  0
LINE
  8
0
  6
CONTINUOUS
 62
     7
  5
DD
 10
97.5546
 20
149.105455
 30
0.0
 11
99.6546
 21
149.105455
 31
0.0
  0
LINE
  8
0
  6
CONTINUOUS
 62
     7
  5
DE
 10
97.5546
 20
149.505455
 30
0.0
 11
95.0546
 21
149.505455
 31
0.0
  0
LINE
  8
0
  6
CONTINUOUS
 62
     7
  5
DF
 10
125.0546
 20
149.505455
 30
0.0
 11
127.5546
 21
149.505455
 31
0.0
  0
LINE
  8
0
  6
CONTINUOUS
 62
     7
  5
E0
 10
127.5546
 20
149.505455
 30
0.0
 11
130.0546
 21
149.505455
 31
0.0
  0
LINE
  8
0
  6
CONTINUOUS
 62
     7
  5
E1
 10
129.6546
 20
149.105455
 30
0.0
 11
127.5546
 21
149.105455
 31
0.0
  0
LINE
  8
0
  6
CONTINUOUS
 62
     7
  5
E2
 10
127.5546
 20
149.105455
 30
0.0
 11
125.4546
 21
149.105455
 31
0.0
  0
LINE
  8
0
  6
CONTINUOUS
 62
     7
  5
E3
 10
82.3046
 20
154.605455
 30
0.0
 11
82.3046
 21
149.605455
 31
0.0
  0
LINE
  8
0
  6
CONTINUOUS
 62
     7
  5
E4
 10
90.8046
 20
149.605455
 30
0.0
 11
90.8046
 21
154.605455
 31
0.0
  0
LINE
  8
0
  6
CONTINUOUS
 62
     7
  5
E5
 10
134.3046
 20
154.605455
 30
0.0
 11
134.3046
 21
149.605455
 31
0.0
  0
LINE
  8
0
  6
CONTINUOUS
 62
     7
  5
E6
 10
142.8046
 20
149.605455
 30
0.0
 11
142.8046
 21
154.605455
 31
0.0
  0
LINE
  8
0
  6
CONTINUOUS
 62
     7
  5
E7
 10
89.0546
 20
164.605455
 30
0.0
 11
89.0546
 21
174.205455
 31
0.0
  0
LINE
  8
0
  6
CONTINUOUS
 62
     7
  5
E8
 10
84.0546
 20
174.205455
 30
0.0
 11
84.0546
 21
164.605455
 31
0.0
  0
ARC
  8
0
  6
CONTINUOUS
 62
     7
  5
E9
 10
112.589131
 20
162.605575
 30
0.0
 40
5.0
 50
60.455868
 51
90.0
210
0.0
220
0.0
230
1.0
  0
ARC
  8
0
  6
CONTINUOUS
 62
     7
  5
EA
 10
112.520069
 20
162.605575
 30
0.0
 40
5.0
 50
90.0
 51
119.544132
210
0.0
220
0.0
230
1.0
  0
LINE
  8
0
  6
CONTINUOUS
 62
     7
  5
EB
 10
112.589131
 20
167.605575
 30
0.0
 11
112.520069
 21
167.605575
 31
0.0
  0
LINE
  8
0
  6
CONTINUOUS
 62
     7
  5
EC
 10
89.0546
 20
174.205455
 30
0.0
 11
88.6546
 21
174.605455
 31
0.0
  0
LINE
  8
0
  6
CONTINUOUS
 62
     7
  5
ED
 10
84.4546
 20
174.605455
 30
0.0
 11
84.0546
 21
174.205455
 31
0.0
  0
LINE
  8
0
  6
CONTINUOUS
 62
     7
  5
EE
 10
141.0546
 20
174.205455
 30
0.0
 11
140.6546
 21
174.605455
 31
0.0
  0
LINE
  8
0
  6
CONTINUOUS
 62
     7
  5
EF
 10
136.4546
 20
174.605455
 30
0.0
 11
136.0546
 21
174.205455
 31
0.0
  0
LINE
  8
0
  6
CONTINUOUS
 62
     7
  5
F0
 10
110.0546
 20
166.955455
 30
0.0
 11
110.0546
 21
164.605455
 31
0.0
  0
LINE
  8
0
  6
CONTINUOUS
 62
     7
  5
F1
 10
115.0546
 20
164.605455
 30
0.0
 11
115.0546
 21
166.955455
 31
0.0
  0
LINE
  8
0
  6
CONTINUOUS
 62
     7
  5
F2
 10
141.0546
 20
164.605455
 30
0.0
 11
141.0546
 21
174.205455
 31
0.0
  0
LINE
  8
0
  6
CONTINUOUS
 62
     7
  5
F3
 10
136.0546
 20
174.205455
 30
0.0
 11
136.0546
 21
164.605455
 31
0.0
  0
LINE
  8
0
  6
CONTINUOUS
 62
     7
  5
F4
 10
95.0546
 20
149.505455
 30
0.0
 11
95.4546
 21
149.105455
 31
0.0
  0
LINE
  8
0
  6
CONTINUOUS
 62
     7
  5
F5
 10
99.6546
 20
149.105455
 30
0.0
 11
100.0546
 21
149.505455
 31
0.0
  0
LINE
  8
0
  6
CONTINUOUS
 62
     7
  5
F6
 10
125.0546
 20
156.605455
 30
0.0
 11
125.0546
 21
149.505455
 31
0.0
  0
LINE
  8
0
  6
CONTINUOUS
 62
     7
  5
F7
 10
130.0546
 20
149.505455
 30
0.0
 11
130.0546
 21
156.605455
 31
0.0
  0
LINE
  8
0
  6
CONTINUOUS
 62
     7
  5
F8
 10
125.0546
 20
149.505455
 30
0.0
 11
125.4546
 21
149.105455
 31
0.0
  0
LINE
  8
0
  6
CONTINUOUS
 62
     7
  5
F9
 10
129.6546
 20
149.105455
 30
0.0
 11
130.0546
 21
149.505455
 31
0.0
  0
LINE
  8
0
  6
CONTINUOUS
 62
     7
  5
FA
 10
95.0546
 20
156.605455
 30
0.0
 11
95.0546
 21
149.505455
 31
0.0
  0
LINE
  8
0
  6
CONTINUOUS
 62
     7
  5
FB
 10
100.0546
 20
149.505455
 30
0.0
 11
100.0546
 21
156.605455
 31
0.0
  0
ENDBLK
  8
0
  5
FC
  0
ENDSEC
  0
SECTION
  2
ENTITIES
  0
INSERT
  8
0
  5
4F
  2
AID3
 10
0.0
 20
0.0
 30
0.0
  0
INSERT
  8
0
  5
89
  2
AID87
 10
0.0
 20
0.0
 30
0.0
  0
INSERT
  8
0
  5
C3
  2
AID199
 10
0.0
 20
0.0
 30
0.0
  0
INSERT
  8
0
  5
FD
  2
AID311
 10
0.0
 20
0.0
 30
0.0
  0
LINE
  8
0
  6
CENTER
 62
     1
  5
FF
 10
212.8592
 20
242.699135
 30
0.0
 11
227.3592
 21
242.699135
 31
0.0
  0
LINE
  8
0
  6
CENTER
 62
     1
  5
100
 10
220.1092
 20
235.449135
 30
0.0
 11
220.1092
 21
249.949135
 31
0.0
  0
LINE
  8
0
  6
CENTER
 62
     1
  5
101
 10
212.8592
 20
294.699135
 30
0.0
 11
227.3592
 21
294.699135
 31
0.0
  0
LINE
  8
0
  6
CENTER
 62
     1
  5
102
 10
220.1092
 20
287.449135
 30
0.0
 11
220.1092
 21
301.949135
 31
0.0
  0
LINE
  8
0
  6
CENTER
 62
     1
  5
103
 10
220.3592
 20
253.699135
 30
0.0
 11
231.8592
 21
253.699135
 31
0.0
  0
LINE
  8
0
  6
CENTER
 62
     1
  5
104
 10
226.1092
 20
247.949135
 30
0.0
 11
226.1092
 21
259.449135
 31
0.0
  0
LINE
  8
0
  6
CENTER
 62
     1
  5
105
 10
220.3592
 20
283.699135
 30
0.0
 11
231.8592
 21
283.699135
 31
0.0
  0
LINE
  8
0
  6
CENTER
 62
     1
  5
106
 10
226.1092
 20
277.949135
 30
0.0
 11
226.1092
 21
289.449135
 31
0.0
  0
LINE
  8
0
  6
CENTER
 62
     1
  5
107
 10
260.3592
 20
253.699135
 30
0.0
 11
271.8592
 21
253.699135
 31
0.0
  0
LINE
  8
0
  6
CENTER
 62
     1
  5
108
 10
266.1092
 20
247.949135
 30
0.0
 11
266.1092
 21
259.449135
 31
0.0
  0
LINE
  8
0
  6
CENTER
 62
     1
  5
109
 10
260.3592
 20
283.699135
 30
0.0
 11
271.8592
 21
283.699135
 31
0.0
  0
LINE
  8
0
  6
CENTER
 62
     1
  5
10A
 10
266.1092
 20
277.949135
 30
0.0
 11
266.1092
 21
289.449135
 31
0.0
  0
LINE
  8
0
  6
CENTER
 62
     1
  5
10B
 10
264.8592
 20
242.699135
 30
0.0
 11
279.3592
 21
242.699135
 31
0.0
  0
LINE
  8
0
  6
CENTER
 62
     1
  5
10C
 10
272.1092
 20
235.449135
 30
0.0
 11
272.1092
 21
249.949135
 31
0.0
  0
LINE
  8
0
  6
CENTER
 62
     1
  5
10D
 10
264.8592
 20
294.699135
 30
0.0
 11
279.3592
 21
294.699135
 31
0.0
  0
LINE
  8
0
  6
CENTER
 62
     1
  5
10E
 10
272.1092
 20
287.449135
 30
0.0
 11
272.1092
 21
301.949135
 31
0.0
  0
LINE
  8
0
  6
CENTER
 62
     1
  5
10F
 10
220.1092
 20
177.605455
 30
0.0
 11
220.1092
 21
146.605455
 31
0.0
  0
LINE
  8
0
  6
CENTER
 62
     1
  5
110
 10
226.1092
 20
167.605455
 30
0.0
 11
226.1092
 21
146.105455
 31
0.0
  0
LINE
  8
0
  6
CENTER
 62
     1
  5
111
 10
266.1092
 20
167.605455
 30
0.0
 11
266.1092
 21
146.105455
 31
0.0
  0
LINE
  8
0
  6
CENTER
 62
     1
  5
112
 10
272.1092
 20
177.605455
 30
0.0
 11
272.1092
 21
146.605455
 31
0.0
  0
LINE
  8
0
  6
CENTER
 62
     1
  5
113
 10
214.3592
 20
30.990362
 30
0.0
 11
225.8592
 21
30.990362
 31
0.0
  0
LINE
  8
0
  6
CENTER
 62
     1
  5
114
 10
220.1092
 20
25.240362
 30
0.0
 11
220.1092
 21
36.740362
 31
0.0
  0
LINE
  8
0
  6
CENTER
 62
     1
  5
115
 10
214.6092
 20
56.990362
 30
0.0
 11
225.6092
 21
56.990362
 31
0.0
  0
LINE
  8
0
  6
CENTER
 62
     1
  5
116
 10
220.1092
 20
51.490362
 30
0.0
 11
220.1092
 21
62.490362
 31
0.0
  0
LINE
  8
0
  6
CENTER
 62
     1
  5
117
 10
214.3592
 20
82.990362
 30
0.0
 11
225.8592
 21
82.990362
 31
0.0
  0
LINE
  8
0
  6
CENTER
 62
     1
  5
118
 10
220.1092
 20
77.240362
 30
0.0
 11
220.1092
 21
88.740362
 31
0.0
  0
LINE
  8
0
  6
CENTER
 62
     1
  5
119
 10
218.1092
 20
41.990362
 30
0.0
 11
234.1092
 21
41.990362
 31
0.0
  0
LINE
  8
0
  6
CENTER
 62
     1
  5
11A
 10
226.1092
 20
33.990362
 30
0.0
 11
226.1092
 21
49.990362
 31
0.0
  0
LINE
  8
0
  6
CENTER
 62
     1
  5
11B
 10
218.1092
 20
71.990362
 30
0.0
 11
234.1092
 21
71.990362
 31
0.0
  0
LINE
  8
0
  6
CENTER
 62
     1
  5
11C
 10
226.1092
 20
63.990362
 30
0.0
 11
226.1092
 21
79.990362
 31
0.0
  0
LINE
  8
0
  6
CENTER
 62
     1
  5
11D
 10
258.1092
 20
41.990362
 30
0.0
 11
274.1092
 21
41.990362
 31
0.0
  0
LINE
  8
0
  6
CENTER
 62
     1
  5
11E
 10
266.1092
 20
33.990362
 30
0.0
 11
266.1092
 21
49.990362
 31
0.0
  0
LINE
  8
0
  6
CENTER
 62
     1
  5
11F
 10
258.1092
 20
71.990362
 30
0.0
 11
274.1092
 21
71.990362
 31
0.0
  0
LINE
  8
0
  6
CENTER
 62
     1
  5
120
 10
266.1092
 20
63.990362
 30
0.0
 11
266.1092
 21
79.990362
 31
0.0
  0
LINE
  8
0
  6
CENTER
 62
     1
  5
121
 10
266.3592
 20
30.990362
 30
0.0
 11
277.8592
 21
30.990362
 31
0.0
  0
LINE
  8
0
  6
CENTER
 62
     1
  5
122
 10
272.1092
 20
25.240362
 30
0.0
 11
272.1092
 21
36.740362
 31
0.0
  0
LINE
  8
0
  6
CENTER
 62
     1
  5
123
 10
266.6092
 20
56.990362
 30
0.0
 11
277.6092
 21
56.990362
 31
0.0
  0
LINE
  8
0
  6
CENTER
 62
     1
  5
124
 10
272.1092
 20
51.490362
 30
0.0
 11
272.1092
 21
62.490362
 31
0.0
  0
LINE
  8
0
  6
CENTER
 62
     1
  5
125
 10
266.3592
 20
82.990362
 30
0.0
 11
277.8592
 21
82.990362
 31
0.0
  0
LINE
  8
0
  6
CENTER
 62
     1
  5
126
 10
272.1092
 20
77.240362
 30
0.0
 11
272.1092
 21
88.740362
 31
0.0
  0
LINE
  8
0
  6
CENTER
 62
     1
  5
127
 10
112.5546
 20
161.605455
 30
0.0
 11
112.5546
 21
169.955455
 31
0.0
  0
LINE
  8
0
  6
CENTER
 62
     1
  5
128
 10
86.5546
 20
177.605455
 30
0.0
 11
86.5546
 21
146.605455
 31
0.0
  0
LINE
  8
0
  6
CENTER
 62
     1
  5
129
 10
97.5546
 20
146.105455
 30
0.0
 11
97.5546
 21
162.105455
 31
0.0
  0
LINE
  8
0
  6
CENTER
 62
     1
  5
12A
 10
127.5546
 20
167.605455
 30
0.0
 11
127.5546
 21
146.105455
 31
0.0
  0
LINE
  8
0
  6
CENTER
 62
     1
  5
12B
 10
138.5546
 20
177.605455
 30
0.0
 11
138.5546
 21
146.605455
 31
0.0
  0
ENDSEC
  0
EOF
