  0
SECTION
  2
HEADER
  9
$ACADVER
  1
AC1009
  9
$DWGCODEPAGE
  3
ansi_1252
  9
$INSBASE
 10
0.0
 20
0.0
 30
0.0
  9
$EXTMIN
 10
0.0
 20
-5.102784
 30
0.0
  9
$EXTMAX
 10
283.01284
 20
320.899348
 30
5.0
  9
$LIMMIN
 10
0.0
 20
-5.102784
  9
$LIMMAX
 10
283.01284
 20
320.899348
  9
$ORTHOMODE
 70
     0
  9
$REGENMODE
 70
     1
  9
$FILLMODE
 70
     1
  9
$QTEXTMODE
 70
     0
  9
$MIRRTEXT
 70
     1
  9
$DRAGMODE
 70
     2
  9
$LTSCALE
 40
10.0
  9
$OSMODE
 70
     0
  9
$ATTMODE
 70
     1
  9
$TEXTSIZE
 40
0.2
  9
$TRACEWID
 40
0.05
  9
$TEXTSTYLE
  7
STANDARD
  9
$CLAYER
  8
0
  9
$CELTYPE
  6
CONTINUOUS
  9
$CECOLOR
 62
   256
  9
$DIMSCALE
 40
1.0
  9
$DIMASZ
 40
1.25
  9
$DIMEXO
 40
1.0
  9
$DIMDLI
 40
0.38
  9
$DIMRND
 40
0.0
  9
$DIMDLE
 40
0.0
  9
$DIMEXE
 40
0.75
  9
$DIMTP
 40
0.0
  9
$DIMTM
 40
0.0
  9
$DIMTXT
 40
2.5
  9
$DIMCEN
 40
0.09
  9
$DIMTSZ
 40
0.0
  9
$DIMTOL
 70
     0
  9
$DIMLIM
 70
     0
  9
$DIMTIH
 70
     0
  9
$DIMTOH
 70
     0
  9
$DIMSE1
 70
     0
  9
$DIMSE2
 70
     0
  9
$DIMTAD
 70
     1
  9
$DIMZIN
 70
     0
  9
$DIMBLK
  1

  9
$DIMASO
 70
     1
  9
$DIMSHO
 70
     1
  9
$DIMPOST
  1

  9
$DIMAPOST
  1

  9
$DIMALT
 70
     0
  9
$DIMALTD
 70
     2
  9
$DIMALTF
 40
25.4
  9
$DIMLFAC
 40
1.0
  9
$DIMTOFL
 70
     0
  9
$DIMTVP
 40
0.0
  9
$DIMTIX
 70
     0
  9
$DIMSOXD
 70
     0
  9
$DIMSAH
 70
     0
  9
$DIMBLK1
  1

  9
$DIMBLK2
  1

  9
$DIMSTYLE
  2
STANDARD
  9
$DIMCLRD
 70
     7
  9
$DIMCLRE
 70
     7
  9
$DIMCLRT
 70
     7
  9
$DIMTFAC
 40
0.8
  9
$DIMGAP
 40
1.25
  9
$LUNITS
 70
     2
  9
$LUPREC
 70
     4
  9
$AXISMODE
 70
     0
  9
$AXISUNIT
 10
0.0
 20
0.0
  9
$SKETCHINC
 40
0.1
  9
$FILLETRAD
 40
0.0
  9
$AUNITS
 70
     0
  9
$AUPREC
 70
     0
  9
$MENU
  1
acad
  9
$ELEVATION
 40
0.0
  9
$PELEVATION
 40
0.0
  9
$THICKNESS
 40
0.0
  9
$LIMCHECK
 70
     0
  9
$BLIPMODE
 70
     1
  9
$CHAMFERA
 40
0.0
  9
$CHAMFERB
 40
0.0
  9
$SKPOLY
 70
     0
  9
$TDCREATE
 40
2454894.661018519
  9
$TDUPDATE
 40
2454894.619328704
  9
$TDINDWG
 40
0.0000000000
  9
$TDUSRTIMER
 40
0.0000000000
  9
$USRTIMER
 70
     1
  9
$ANGBASE
 50
0.0
  9
$ANGDIR
 70
     0
  9
$PDMODE
 70
     0
  9
$PDSIZE
 40
0.0
  9
$PLINEWID
 40
0.0
  9
$COORDS
 70
     0
  9
$SPLFRAME
 70
     0
  9
$SPLINETYPE
 70
     6
  9
$SPLINESEGS
 70
     8
  9
$ATTDIA
 70
     0
  9
$ATTREQ
 70
     1
  9
$HANDLING
 70
     1
  9
$HANDSEED
  5
EA
  9
$SURFTAB1
 70
     6
  9
$SURFTAB2
 70
     6
  9
$SURFTYPE
 70
     6
  9
$SURFU
 70
     6
  9
$SURFV
 70
     6
  9
$UCSNAME
  2

  9
$UCSORG
 10
0.0
 20
0.0
 30
0.0
  9
$UCSXDIR
 10
1.0
 20
0.0
 30
0.0
  9
$UCSYDIR
 10
0.0
 20
1.0
 30
0.0
  9
$PUCSNAME
  2

  9
$PUCSORG
 10
0.0
 20
0.0
 30
0.0
  9
$PUCSXDIR
 10
1.0
 20
0.0
 30
0.0
  9
$PUCSYDIR
 10
0.0
 20
1.0
 30
0.0
  9
$USERI1
 70
     0
  9
$USERI2
 70
     0
  9
$USERI3
 70
     0
  9
$USERI4
 70
     0
  9
$USERI5
 70
     0
  9
$USERR1
 40
0.0
  9
$USERR2
 40
0.0
  9
$USERR3
 40
0.0
  9
$USERR4
 40
0.0
  9
$USERR5
 40
0.0
  9
$WORLDVIEW
 70
     1
  9
$SHADEDGE
 70
     3
  9
$SHADEDIF
 70
    70
  9
$TILEMODE
 70
     1
  9
$MAXACTVP
 70
    16
  9
$PINSBASE
 10
0.0
 20
0.0
 30
0.0
  9
$PLIMCHECK
 70
     0
  9
$PEXTMIN
 10
1.000000E+20
 20
1.000000E+20
 30
1.000000E+20
  9
$PEXTMAX
 10
-1.000000E+20
 20
-1.000000E+20
 30
-1.000000E+20
  9
$PLIMMIN
 10
0.0
 20
0.0
  9
$PLIMMAX
 10
12.0
 20
9.0
  9
$UNITMODE
 70
     0
  9
$VISRETAIN
 70
     0
  9
$PLINEGEN
 70
     1
  9
$PSLTSCALE
 70
     0
  9
$TREEDEPTH
 70
  3020
  0
ENDSEC
  0
SECTION
  2
TABLES
  0
TABLE
  2
VPORT
 70
     1
  0
VPORT
  2
*ACTIVE
 70
     0
 10
0.0
 20
0.0
 11
1.0
 21
1.0
 12
6.591288
 22
4.579184
 13
0.0
 23
0.0
 14
1.0
 24
1.0
 15
0.0
 25
0.0
 16
0.0
 26
0.0
 36
1.0
 17
0.0
 27
0.0
 37
0.0
 40
9.158369
 41
0.688564
 42
50.0
 43
0.0
 44
0.0
 50
0.0
 51
0.0
 71
     0
 72
   100
 73
     1
 74
     1
 75
     0
 76
     0
 77
     0
 78
     0
  0
ENDTAB
  0
TABLE
  2
LTYPE
 70
     2
  0
LTYPE
  2
CONTINUOUS
 70
    64
  3
Solid line
 72
    65
 73
     0
 40
0.0
  0
LTYPE
  2
CENTER
 70
    64
  3
____ _ ____ _ ____ _ ____ _ ____ _ ____ _ ____
 72
    65
 73
     4
 40
2.0
 49
1.25
 49
-0.25
 49
0.25
 49
-0.25
  0
ENDTAB
  0
TABLE
  2
LAYER
 70
     1
  0
LAYER
  2
0
 70
     0
 62
     7
  6
CONTINUOUS
  0
ENDTAB
  0
TABLE
  2
STYLE
 70
     1
  0
STYLE
  2
STANDARD
 70
     0
 40
0.0
 41
1.0
 50
0.0
 71
     0
 42
0.0
  3
IsonormD
  4

  0
ENDTAB
  0
TABLE
  2
VIEW
 70
     0
  0
ENDTAB
  0
TABLE
  2
UCS
 70
     0
  0
ENDTAB
  0
TABLE
  2
APPID
 70
     2
  0
APPID
  2
ACAD
 70
     0
  0
APPID
  2
TopSolid_Draft
 70
     0
  0
ENDTAB
  0
TABLE
  2
DIMSTYLE
 70
     1
  0
DIMSTYLE
  2
STANDARD
 70
     0
  3

  4

  5

  6

  7

 40
1.0
 41
1.25
 42
1.0
 43
0.38
 44
0.75
 45
0.0
 46
0.0
 47
0.0
 48
0.0
 71
     0
 72
     0
 73
     0
 74
     0
 75
     0
 76
     0
 77
     1
 78
     0
140
2.5
141
0.09
142
0.0
143
25.4
144
1.0
145
0.0
146
0.8
147
1.25
170
     0
171
     2
172
     0
173
     0
174
     0
175
     0
176
     7
177
     7
178
     7
  0
ENDTAB
  0
ENDSEC
  0
SECTION
  2
BLOCKS
  0
BLOCK
  8
0
  5
25
  2
AID3
 70
     0
 10
0.0
 20
0.0
 30
0.0
  3
#draft view
  0
LINE
  8
0
  6
CONTINUOUS
 62
     7
  5
26
 10
280.01284
 20
142.616162
 30
0.0
 11
280.01284
 21
153.616162
 31
0.0
  0
LINE
  8
0
  6
CONTINUOUS
 62
     7
  5
27
 10
280.01284
 20
142.616162
 30
0.0
 11
230.01284
 21
142.616162
 31
0.0
  0
LINE
  8
0
  6
CONTINUOUS
 62
     7
  5
28
 10
230.01284
 20
153.616162
 30
0.0
 11
230.01284
 21
142.616162
 31
0.0
  0
LINE
  8
0
  6
CONTINUOUS
 62
     7
  5
29
 10
280.01284
 20
153.616162
 30
0.0
 11
230.01284
 21
153.616162
 31
0.0
  0
LINE
  8
0
  6
CONTINUOUS
 62
     7
  5
2A
 10
280.01284
 20
153.616162
 30
0.0
 11
282.01284
 21
153.616162
 31
0.0
  0
LINE
  8
0
  6
CONTINUOUS
 62
     7
  5
2B
 10
282.01284
 20
153.616162
 30
0.0
 11
282.01284
 21
142.616162
 31
0.0
  0
LINE
  8
0
  6
CONTINUOUS
 62
     7
  5
2C
 10
282.01284
 20
142.616162
 30
0.0
 11
280.01284
 21
142.616162
 31
0.0
  0
LINE
  8
0
  6
CONTINUOUS
 62
     7
  5
2D
 10
228.01284
 20
142.616162
 30
0.0
 11
228.01284
 21
153.616162
 31
0.0
  0
LINE
  8
0
  6
CONTINUOUS
 62
     7
  5
2E
 10
230.01284
 20
142.616162
 30
0.0
 11
228.01284
 21
142.616162
 31
0.0
  0
LINE
  8
0
  6
CONTINUOUS
 62
     7
  5
2F
 10
228.01284
 20
153.616162
 30
0.0
 11
230.01284
 21
153.616162
 31
0.0
  0
LINE
  8
0
  6
CONTINUOUS
 62
     7
  5
30
 10
235.76284
 20
180.616162
 30
0.0
 11
244.26284
 21
180.616162
 31
0.0
  0
LINE
  8
0
  6
CONTINUOUS
 62
     7
  5
31
 10
244.26284
 20
185.616162
 30
0.0
 11
235.76284
 21
185.616162
 31
0.0
  0
LINE
  8
0
  6
CONTINUOUS
 62
     7
  5
32
 10
272.51284
 20
136.516162
 30
0.0
 11
277.51284
 21
136.516162
 31
0.0
  0
LINE
  8
0
  6
CONTINUOUS
 62
     7
  5
33
 10
277.11284
 20
136.116162
 30
0.0
 11
272.91284
 21
136.116162
 31
0.0
  0
LINE
  8
0
  6
CONTINUOUS
 62
     7
  5
34
 10
272.51284
 20
155.966162
 30
0.0
 11
267.51284
 21
155.966162
 31
0.0
  0
LINE
  8
0
  6
CONTINUOUS
 62
     7
  5
35
 10
274.26284
 20
185.616162
 30
0.0
 11
265.76284
 21
185.616162
 31
0.0
  0
LINE
  8
0
  6
CONTINUOUS
 62
     7
  5
36
 10
265.76284
 20
180.616162
 30
0.0
 11
274.26284
 21
180.616162
 31
0.0
  0
LINE
  8
0
  6
CONTINUOUS
 62
     7
  5
37
 10
232.51284
 20
136.516162
 30
0.0
 11
237.51284
 21
136.516162
 31
0.0
  0
LINE
  8
0
  6
CONTINUOUS
 62
     7
  5
38
 10
237.11284
 20
136.116162
 30
0.0
 11
232.91284
 21
136.116162
 31
0.0
  0
LINE
  8
0
  6
CONTINUOUS
 62
     7
  5
39
 10
244.26284
 20
180.616162
 30
0.0
 11
244.26284
 21
185.616162
 31
0.0
  0
LINE
  8
0
  6
CONTINUOUS
 62
     7
  5
3A
 10
235.76284
 20
185.616162
 30
0.0
 11
235.76284
 21
180.616162
 31
0.0
  0
LINE
  8
0
  6
CONTINUOUS
 62
     7
  5
3B
 10
272.51284
 20
136.516162
 30
0.0
 11
272.91284
 21
136.116162
 31
0.0
  0
LINE
  8
0
  6
CONTINUOUS
 62
     7
  5
3C
 10
277.11284
 20
136.116162
 30
0.0
 11
277.51284
 21
136.516162
 31
0.0
  0
LINE
  8
0
  6
CONTINUOUS
 62
     7
  5
3D
 10
237.51284
 20
180.616162
 30
0.0
 11
237.51284
 21
153.616162
 31
0.0
  0
LINE
  8
0
  6
CONTINUOUS
 62
     7
  5
3E
 10
242.51284
 20
153.616162
 30
0.0
 11
242.51284
 21
180.616162
 31
0.0
  0
LINE
  8
0
  6
CONTINUOUS
 62
     7
  5
3F
 10
272.51284
 20
142.616162
 30
0.0
 11
272.51284
 21
136.516162
 31
0.0
  0
LINE
  8
0
  6
CONTINUOUS
 62
     7
  5
40
 10
277.51284
 20
136.516162
 30
0.0
 11
277.51284
 21
142.616162
 31
0.0
  0
LINE
  8
0
  6
CONTINUOUS
 62
     7
  5
41
 10
267.51284
 20
155.966162
 30
0.0
 11
267.51284
 21
153.616162
 31
0.0
  0
LINE
  8
0
  6
CONTINUOUS
 62
     7
  5
42
 10
272.51284
 20
153.616162
 30
0.0
 11
272.51284
 21
155.966162
 31
0.0
  0
ARC
  8
0
  6
CONTINUOUS
 62
     7
  5
43
 10
270.047371
 20
151.616281
 30
0.0
 40
5.0
 50
60.455868
 51
90.0
210
0.0
220
0.0
230
1.0
  0
ARC
  8
0
  6
CONTINUOUS
 62
     7
  5
44
 10
269.978309
 20
151.616281
 30
0.0
 40
5.0
 50
90.0
 51
119.544132
210
0.0
220
0.0
230
1.0
  0
LINE
  8
0
  6
CONTINUOUS
 62
     7
  5
45
 10
270.047371
 20
156.616281
 30
0.0
 11
269.978309
 21
156.616281
 31
0.0
  0
LINE
  8
0
  6
CONTINUOUS
 62
     7
  5
46
 10
274.26284
 20
180.616162
 30
0.0
 11
274.26284
 21
185.616162
 31
0.0
  0
LINE
  8
0
  6
CONTINUOUS
 62
     7
  5
47
 10
265.76284
 20
185.616162
 30
0.0
 11
265.76284
 21
180.616162
 31
0.0
  0
LINE
  8
0
  6
CONTINUOUS
 62
     7
  5
48
 10
267.51284
 20
180.616162
 30
0.0
 11
267.51284
 21
155.966162
 31
0.0
  0
LINE
  8
0
  6
CONTINUOUS
 62
     7
  5
49
 10
272.51284
 20
155.966162
 30
0.0
 11
272.51284
 21
180.616162
 31
0.0
  0
LINE
  8
0
  6
CONTINUOUS
 62
     7
  5
4A
 10
232.51284
 20
142.616162
 30
0.0
 11
232.51284
 21
136.516162
 31
0.0
  0
LINE
  8
0
  6
CONTINUOUS
 62
     7
  5
4B
 10
237.51284
 20
136.516162
 30
0.0
 11
237.51284
 21
142.616162
 31
0.0
  0
LINE
  8
0
  6
CONTINUOUS
 62
     7
  5
4C
 10
232.51284
 20
136.516162
 30
0.0
 11
232.91284
 21
136.116162
 31
0.0
  0
LINE
  8
0
  6
CONTINUOUS
 62
     7
  5
4D
 10
237.11284
 20
136.116162
 30
0.0
 11
237.51284
 21
136.516162
 31
0.0
  0
ENDBLK
  8
0
  5
4E
  0
BLOCK
  8
0
  5
51
  2
AID87
 70
     0
 10
0.0
 20
0.0
 30
0.0
  3
#auxiliary draft view
  0
CIRCLE
  8
0
  6
CONTINUOUS
 62
     7
  5
52
 10
275.01284
 20
311.399348
 30
0.0
 40
2.1
210
0.0
220
0.0
230
1.0
  0
CIRCLE
  8
0
  6
CONTINUOUS
 62
     7
  5
53
 10
275.01284
 20
311.399348
 30
0.0
 40
2.5
210
0.0
220
0.0
230
1.0
  0
CIRCLE
  8
0
  6
CONTINUOUS
 62
     7
  5
54
 10
235.01284
 20
281.399348
 30
0.0
 40
2.1
210
0.0
220
0.0
230
1.0
  0
CIRCLE
  8
0
  6
CONTINUOUS
 62
     7
  5
55
 10
235.01284
 20
281.399348
 30
0.0
 40
2.5
210
0.0
220
0.0
230
1.0
  0
LINE
  8
0
  6
CONTINUOUS
 62
     7
  5
56
 10
282.01284
 20
317.899348
 30
0.0
 11
282.01284
 21
318.899348
 31
0.0
  0
LINE
  8
0
  6
CONTINUOUS
 62
     7
  5
57
 10
228.01284
 20
317.899348
 30
0.0
 11
282.01284
 21
317.899348
 31
0.0
  0
LINE
  8
0
  6
CONTINUOUS
 62
     7
  5
58
 10
228.01284
 20
318.899348
 30
0.0
 11
228.01284
 21
317.899348
 31
0.0
  0
LINE
  8
0
  6
CONTINUOUS
 62
     7
  5
59
 10
230.01284
 20
320.899348
 30
0.0
 11
228.01284
 21
318.899348
 31
0.0
  0
LINE
  8
0
  6
CONTINUOUS
 62
     7
  5
5A
 10
280.01284
 20
320.899348
 30
0.0
 11
230.01284
 21
320.899348
 31
0.0
  0
LINE
  8
0
  6
CONTINUOUS
 62
     7
  5
5B
 10
282.01284
 20
318.899348
 30
0.0
 11
280.01284
 21
320.899348
 31
0.0
  0
LINE
  8
0
  6
CONTINUOUS
 62
     7
  5
5C
 10
228.01284
 20
273.899348
 30
0.0
 11
230.01284
 21
271.899348
 31
0.0
  0
LINE
  8
0
  6
CONTINUOUS
 62
     7
  5
5D
 10
280.01284
 20
271.899348
 30
0.0
 11
282.01284
 21
273.899348
 31
0.0
  0
LINE
  8
0
  6
CONTINUOUS
 62
     7
  5
5E
 10
230.01284
 20
271.899348
 30
0.0
 11
280.01284
 21
271.899348
 31
0.0
  0
LINE
  8
0
  6
CONTINUOUS
 62
     7
  5
5F
 10
282.01284
 20
274.899348
 30
0.0
 11
228.01284
 21
274.899348
 31
0.0
  0
LINE
  8
0
  6
CONTINUOUS
 62
     7
  5
60
 10
228.01284
 20
274.899348
 30
0.0
 11
228.01284
 21
273.899348
 31
0.0
  0
LINE
  8
0
  6
CONTINUOUS
 62
     7
  5
61
 10
282.01284
 20
273.899348
 30
0.0
 11
282.01284
 21
274.899348
 31
0.0
  0
CIRCLE
  8
0
  6
CONTINUOUS
 62
     7
  5
62
 10
275.01284
 20
311.399348
 30
0.0
 40
2.75
210
0.0
220
0.0
230
1.0
  0
CIRCLE
  8
0
  6
CONTINUOUS
 62
     7
  5
63
 10
235.01284
 20
281.399348
 30
0.0
 40
2.75
210
0.0
220
0.0
230
1.0
  0
CIRCLE
  8
0
  6
CONTINUOUS
 62
     7
  5
64
 10
270.01284
 20
281.399348
 30
0.0
 40
2.067
210
0.0
220
0.0
230
1.0
  0
CIRCLE
  8
0
  6
CONTINUOUS
 62
     7
  5
65
 10
240.01284
 20
311.399348
 30
0.0
 40
2.067
210
0.0
220
0.0
230
1.0
  0
LINE
  8
0
  6
CONTINUOUS
 62
     7
  5
66
 10
228.01284
 20
317.899348
 30
0.0
 11
228.01284
 21
274.899348
 31
0.0
  0
LINE
  8
0
  6
CONTINUOUS
 62
     7
  5
67
 10
282.01284
 20
274.899348
 30
0.0
 11
282.01284
 21
317.899348
 31
0.0
  0
ENDBLK
  8
0
  5
68
  0
BLOCK
  8
0
  5
6B
  2
AID135
 70
     0
 10
0.0
 20
0.0
 30
0.0
  3
#auxiliary draft view
  0
LINE
  8
0
  6
CONTINUOUS
 62
     7
  5
6C
 10
238.01284
 20
3.242515
 30
0.0
 11
238.01284
 21
5.551916
 31
0.0
  0
CIRCLE
  8
0
  6
CONTINUOUS
 62
     7
  5
6D
 10
240.01284
 20
4.397216
 30
0.0
 40
4.25
210
0.0
220
0.0
230
1.0
  0
LINE
  8
0
  6
CONTINUOUS
 62
     7
  5
6E
 10
238.01284
 20
5.551916
 30
0.0
 11
240.01284
 21
6.706617
 31
0.0
  0
LINE
  8
0
  6
CONTINUOUS
 62
     7
  5
6F
 10
240.01284
 20
6.706617
 30
0.0
 11
242.01284
 21
5.551916
 31
0.0
  0
LINE
  8
0
  6
CONTINUOUS
 62
     7
  5
70
 10
242.01284
 20
5.551916
 30
0.0
 11
242.01284
 21
3.242515
 31
0.0
  0
LINE
  8
0
  6
CONTINUOUS
 62
     7
  5
71
 10
242.01284
 20
3.242515
 30
0.0
 11
240.01284
 21
2.087815
 31
0.0
  0
LINE
  8
0
  6
CONTINUOUS
 62
     7
  5
72
 10
240.01284
 20
2.087815
 30
0.0
 11
238.01284
 21
3.242515
 31
0.0
  0
LINE
  8
0
  6
CONTINUOUS
 62
     7
  5
73
 10
270.01284
 20
32.087815
 30
0.0
 11
268.01284
 21
33.242515
 31
0.0
  0
LINE
  8
0
  6
CONTINUOUS
 62
     7
  5
74
 10
270.01284
 20
36.706617
 30
0.0
 11
272.01284
 21
35.551916
 31
0.0
  0
LINE
  8
0
  6
CONTINUOUS
 62
     7
  5
75
 10
268.01284
 20
35.551916
 30
0.0
 11
270.01284
 21
36.706617
 31
0.0
  0
LINE
  8
0
  6
CONTINUOUS
 62
     7
  5
76
 10
272.01284
 20
33.242515
 30
0.0
 11
270.01284
 21
32.087815
 31
0.0
  0
LINE
  8
0
  6
CONTINUOUS
 62
     7
  5
77
 10
272.01284
 20
35.551916
 30
0.0
 11
272.01284
 21
33.242515
 31
0.0
  0
CIRCLE
  8
0
  6
CONTINUOUS
 62
     7
  5
78
 10
270.01284
 20
34.397216
 30
0.0
 40
4.25
210
0.0
220
0.0
230
1.0
  0
LINE
  8
0
  6
CONTINUOUS
 62
     7
  5
79
 10
268.01284
 20
33.242515
 30
0.0
 11
268.01284
 21
35.551916
 31
0.0
  0
CIRCLE
  8
0
  6
CONTINUOUS
 62
     7
  5
7A
 10
240.01284
 20
19.397216
 30
0.0
 40
2.5
210
0.0
220
0.0
230
1.0
  0
CIRCLE
  8
0
  6
CONTINUOUS
 62
     7
  5
7B
 10
270.01284
 20
19.397216
 30
0.0
 40
2.5
210
0.0
220
0.0
230
1.0
  0
LINE
  8
0
  6
CONTINUOUS
 62
     7
  5
7C
 10
282.01284
 20
41.897216
 30
0.0
 11
282.01284
 21
-3.102784
 31
0.0
  0
LINE
  8
0
  6
CONTINUOUS
 62
     7
  5
7D
 10
280.01284
 20
-5.102784
 30
0.0
 11
282.01284
 21
-3.102784
 31
0.0
  0
LINE
  8
0
  6
CONTINUOUS
 62
     7
  5
7E
 10
280.01284
 20
-5.102784
 30
0.0
 11
230.01284
 21
-5.102784
 31
0.0
  0
LINE
  8
0
  6
CONTINUOUS
 62
     7
  5
7F
 10
228.01284
 20
-3.102784
 30
0.0
 11
228.01284
 21
41.897216
 31
0.0
  0
LINE
  8
0
  6
CONTINUOUS
 62
     7
  5
80
 10
230.01284
 20
43.897216
 30
0.0
 11
228.01284
 21
41.897216
 31
0.0
  0
LINE
  8
0
  6
CONTINUOUS
 62
     7
  5
81
 10
282.01284
 20
41.897216
 30
0.0
 11
280.01284
 21
43.897216
 31
0.0
  0
LINE
  8
0
  6
CONTINUOUS
 62
     7
  5
82
 10
230.01284
 20
43.897216
 30
0.0
 11
280.01284
 21
43.897216
 31
0.0
  0
CIRCLE
  8
0
  6
CONTINUOUS
 62
     7
  5
83
 10
275.01284
 20
4.397216
 30
0.0
 40
5.0
210
0.0
220
0.0
230
1.0
  0
LINE
  8
0
  6
CONTINUOUS
 62
     7
  5
84
 10
228.01284
 20
-3.102784
 30
0.0
 11
230.01284
 21
-5.102784
 31
0.0
  0
CIRCLE
  8
0
  6
CONTINUOUS
 62
     7
  5
85
 10
235.01284
 20
34.397216
 30
0.0
 40
5.0
210
0.0
220
0.0
230
1.0
  0
LINE
  8
0
  6
CONTINUOUS
 62
     7
  5
86
 10
273.01284
 20
5.551916
 30
0.0
 11
275.01284
 21
6.706617
 31
0.0
  0
LINE
  8
0
  6
CONTINUOUS
 62
     7
  5
87
 10
273.01284
 20
3.242515
 30
0.0
 11
273.01284
 21
5.551916
 31
0.0
  0
LINE
  8
0
  6
CONTINUOUS
 62
     7
  5
88
 10
277.01284
 20
5.551916
 30
0.0
 11
277.01284
 21
3.242515
 31
0.0
  0
LINE
  8
0
  6
CONTINUOUS
 62
     7
  5
89
 10
275.01284
 20
6.706617
 30
0.0
 11
277.01284
 21
5.551916
 31
0.0
  0
CIRCLE
  8
0
  6
CONTINUOUS
 62
     7
  5
8A
 10
275.01284
 20
4.397216
 30
0.0
 40
4.25
210
0.0
220
0.0
230
1.0
  0
LINE
  8
0
  6
CONTINUOUS
 62
     7
  5
8B
 10
277.01284
 20
3.242515
 30
0.0
 11
275.01284
 21
2.087815
 31
0.0
  0
LINE
  8
0
  6
CONTINUOUS
 62
     7
  5
8C
 10
275.01284
 20
2.087815
 30
0.0
 11
273.01284
 21
3.242515
 31
0.0
  0
LINE
  8
0
  6
CONTINUOUS
 62
     7
  5
8D
 10
237.01284
 20
33.242515
 30
0.0
 11
235.01284
 21
32.087815
 31
0.0
  0
LINE
  8
0
  6
CONTINUOUS
 62
     7
  5
8E
 10
233.01284
 20
35.551916
 30
0.0
 11
235.01284
 21
36.706617
 31
0.0
  0
LINE
  8
0
  6
CONTINUOUS
 62
     7
  5
8F
 10
233.01284
 20
33.242515
 30
0.0
 11
233.01284
 21
35.551916
 31
0.0
  0
CIRCLE
  8
0
  6
CONTINUOUS
 62
     7
  5
90
 10
235.01284
 20
34.397216
 30
0.0
 40
4.25
210
0.0
220
0.0
230
1.0
  0
LINE
  8
0
  6
CONTINUOUS
 62
     7
  5
91
 10
235.01284
 20
36.706617
 30
0.0
 11
237.01284
 21
35.551916
 31
0.0
  0
LINE
  8
0
  6
CONTINUOUS
 62
     7
  5
92
 10
237.01284
 20
35.551916
 30
0.0
 11
237.01284
 21
33.242515
 31
0.0
  0
LINE
  8
0
  6
CONTINUOUS
 62
     7
  5
93
 10
235.01284
 20
32.087815
 30
0.0
 11
233.01284
 21
33.242515
 31
0.0
  0
ENDBLK
  8
0
  5
94
  0
BLOCK
  8
0
  5
97
  2
AID219
 70
     0
 10
0.0
 20
0.0
 30
0.0
  3
#auxiliary draft view
  0
LINE
  8
0
  6
CONTINUOUS
 62
     7
  5
98
 10
72.225907
 20
142.616162
 30
0.0
 11
72.225907
 21
153.616162
 31
0.0
  0
LINE
  8
0
  6
CONTINUOUS
 62
     7
  5
99
 10
74.225907
 20
153.616162
 30
0.0
 11
74.225907
 21
142.616162
 31
0.0
  0
LINE
  8
0
  6
CONTINUOUS
 62
     7
  5
9A
 10
74.225907
 20
142.616162
 30
0.0
 11
72.225907
 21
142.616162
 31
0.0
  0
LINE
  8
0
  6
CONTINUOUS
 62
     7
  5
9B
 10
72.225907
 20
153.616162
 30
0.0
 11
74.225907
 21
153.616162
 31
0.0
  0
LINE
  8
0
  6
CONTINUOUS
 62
     7
  5
9C
 10
118.225907
 20
142.616162
 30
0.0
 11
118.225907
 21
144.616162
 31
0.0
  0
LINE
  8
0
  6
CONTINUOUS
 62
     7
  5
9D
 10
118.225907
 20
144.616162
 30
0.0
 11
75.225907
 21
144.616162
 31
0.0
  0
LINE
  8
0
  6
CONTINUOUS
 62
     7
  5
9E
 10
75.225907
 20
142.616162
 30
0.0
 11
75.225907
 21
144.616162
 31
0.0
  0
LINE
  8
0
  6
CONTINUOUS
 62
     7
  5
9F
 10
75.225907
 20
142.616162
 30
0.0
 11
74.225907
 21
142.616162
 31
0.0
  0
LINE
  8
0
  6
CONTINUOUS
 62
     7
  5
A0
 10
119.225907
 20
142.616162
 30
0.0
 11
119.225907
 21
153.616162
 31
0.0
  0
LINE
  8
0
  6
CONTINUOUS
 62
     7
  5
A1
 10
119.225907
 20
142.616162
 30
0.0
 11
118.225907
 21
142.616162
 31
0.0
  0
LINE
  8
0
  6
CONTINUOUS
 62
     7
  5
A2
 10
119.225907
 20
153.616162
 30
0.0
 11
74.225907
 21
153.616162
 31
0.0
  0
LINE
  8
0
  6
CONTINUOUS
 62
     7
  5
A3
 10
121.225907
 20
153.616162
 30
0.0
 11
121.225907
 21
142.616162
 31
0.0
  0
LINE
  8
0
  6
CONTINUOUS
 62
     7
  5
A4
 10
121.225907
 20
142.616162
 30
0.0
 11
119.225907
 21
142.616162
 31
0.0
  0
LINE
  8
0
  6
CONTINUOUS
 62
     7
  5
A5
 10
119.225907
 20
153.616162
 30
0.0
 11
121.225907
 21
153.616162
 31
0.0
  0
LINE
  8
0
  6
CONTINUOUS
 62
     7
  5
A6
 10
79.225907
 20
136.516162
 30
0.0
 11
81.725907
 21
136.516162
 31
0.0
  0
LINE
  8
0
  6
CONTINUOUS
 62
     7
  5
A7
 10
81.725907
 20
136.516162
 30
0.0
 11
84.225907
 21
136.516162
 31
0.0
  0
LINE
  8
0
  6
CONTINUOUS
 62
     7
  5
A8
 10
83.825907
 20
136.116162
 30
0.0
 11
81.725907
 21
136.116162
 31
0.0
  0
LINE
  8
0
  6
CONTINUOUS
 62
     7
  5
A9
 10
81.725907
 20
136.116162
 30
0.0
 11
79.625907
 21
136.116162
 31
0.0
  0
LINE
  8
0
  6
CONTINUOUS
 62
     7
  5
AA
 10
115.975907
 20
185.616162
 30
0.0
 11
111.725907
 21
185.616162
 31
0.0
  0
LINE
  8
0
  6
CONTINUOUS
 62
     7
  5
AB
 10
107.475907
 20
180.616162
 30
0.0
 11
115.975907
 21
180.616162
 31
0.0
  0
LINE
  8
0
  6
CONTINUOUS
 62
     7
  5
AC
 10
111.725907
 20
185.616162
 30
0.0
 11
107.475907
 21
185.616162
 31
0.0
  0
LINE
  8
0
  6
CONTINUOUS
 62
     7
  5
AD
 10
99.225907
 20
155.966162
 30
0.0
 11
94.225907
 21
155.966162
 31
0.0
  0
LINE
  8
0
  6
CONTINUOUS
 62
     7
  5
AE
 10
85.975907
 20
185.616162
 30
0.0
 11
81.725907
 21
185.616162
 31
0.0
  0
LINE
  8
0
  6
CONTINUOUS
 62
     7
  5
AF
 10
77.475907
 20
180.616162
 30
0.0
 11
85.975907
 21
180.616162
 31
0.0
  0
LINE
  8
0
  6
CONTINUOUS
 62
     7
  5
B0
 10
81.725907
 20
185.616162
 30
0.0
 11
77.475907
 21
185.616162
 31
0.0
  0
LINE
  8
0
  6
CONTINUOUS
 62
     7
  5
B1
 10
113.825907
 20
136.116162
 30
0.0
 11
111.725907
 21
136.116162
 31
0.0
  0
LINE
  8
0
  6
CONTINUOUS
 62
     7
  5
B2
 10
109.225907
 20
136.516162
 30
0.0
 11
111.725907
 21
136.516162
 31
0.0
  0
LINE
  8
0
  6
CONTINUOUS
 62
     7
  5
B3
 10
111.725907
 20
136.116162
 30
0.0
 11
109.625907
 21
136.116162
 31
0.0
  0
LINE
  8
0
  6
CONTINUOUS
 62
     7
  5
B4
 10
111.725907
 20
136.516162
 30
0.0
 11
114.225907
 21
136.516162
 31
0.0
  0
LINE
  8
0
  6
CONTINUOUS
 62
     7
  5
B5
 10
79.225907
 20
144.616162
 30
0.0
 11
79.225907
 21
136.516162
 31
0.0
  0
LINE
  8
0
  6
CONTINUOUS
 62
     7
  5
B6
 10
84.225907
 20
136.516162
 30
0.0
 11
84.225907
 21
144.616162
 31
0.0
  0
LINE
  8
0
  6
CONTINUOUS
 62
     7
  5
B7
 10
79.225907
 20
136.516162
 30
0.0
 11
79.625907
 21
136.116162
 31
0.0
  0
LINE
  8
0
  6
CONTINUOUS
 62
     7
  5
B8
 10
83.825907
 20
136.116162
 30
0.0
 11
84.225907
 21
136.516162
 31
0.0
  0
LINE
  8
0
  6
CONTINUOUS
 62
     7
  5
B9
 10
115.975907
 20
180.616162
 30
0.0
 11
115.975907
 21
185.616162
 31
0.0
  0
LINE
  8
0
  6
CONTINUOUS
 62
     7
  5
BA
 10
107.475907
 20
185.616162
 30
0.0
 11
107.475907
 21
180.616162
 31
0.0
  0
ARC
  8
0
  6
CONTINUOUS
 62
     7
  5
BB
 10
96.760438
 20
151.616281
 30
0.0
 40
5.0
 50
60.455868
 51
90.0
210
0.0
220
0.0
230
1.0
  0
ARC
  8
0
  6
CONTINUOUS
 62
     7
  5
BC
 10
96.691376
 20
151.616281
 30
0.0
 40
5.0
 50
90.0
 51
119.544132
210
0.0
220
0.0
230
1.0
  0
LINE
  8
0
  6
CONTINUOUS
 62
     7
  5
BD
 10
96.760438
 20
156.616281
 30
0.0
 11
96.691376
 21
156.616281
 31
0.0
  0
LINE
  8
0
  6
CONTINUOUS
 62
     7
  5
BE
 10
94.225907
 20
155.966162
 30
0.0
 11
94.225907
 21
153.616162
 31
0.0
  0
LINE
  8
0
  6
CONTINUOUS
 62
     7
  5
BF
 10
99.225907
 20
153.616162
 30
0.0
 11
99.225907
 21
155.966162
 31
0.0
  0
LINE
  8
0
  6
CONTINUOUS
 62
     7
  5
C0
 10
109.225907
 20
180.616162
 30
0.0
 11
109.225907
 21
153.616162
 31
0.0
  0
LINE
  8
0
  6
CONTINUOUS
 62
     7
  5
C1
 10
114.225907
 20
153.616162
 30
0.0
 11
114.225907
 21
180.616162
 31
0.0
  0
LINE
  8
0
  6
CONTINUOUS
 62
     7
  5
C2
 10
85.975907
 20
180.616162
 30
0.0
 11
85.975907
 21
185.616162
 31
0.0
  0
LINE
  8
0
  6
CONTINUOUS
 62
     7
  5
C3
 10
77.475907
 20
185.616162
 30
0.0
 11
77.475907
 21
180.616162
 31
0.0
  0
LINE
  8
0
  6
CONTINUOUS
 62
     7
  5
C4
 10
79.225907
 20
180.616162
 30
0.0
 11
79.225907
 21
153.616162
 31
0.0
  0
LINE
  8
0
  6
CONTINUOUS
 62
     7
  5
C5
 10
84.225907
 20
153.616162
 30
0.0
 11
84.225907
 21
180.616162
 31
0.0
  0
LINE
  8
0
  6
CONTINUOUS
 62
     7
  5
C6
 10
109.225907
 20
136.516162
 30
0.0
 11
109.625907
 21
136.116162
 31
0.0
  0
LINE
  8
0
  6
CONTINUOUS
 62
     7
  5
C7
 10
113.825907
 20
136.116162
 30
0.0
 11
114.225907
 21
136.516162
 31
0.0
  0
LINE
  8
0
  6
CONTINUOUS
 62
     7
  5
C8
 10
109.225907
 20
144.616162
 30
0.0
 11
109.225907
 21
136.516162
 31
0.0
  0
LINE
  8
0
  6
CONTINUOUS
 62
     7
  5
C9
 10
114.225907
 20
136.516162
 30
0.0
 11
114.225907
 21
144.616162
 31
0.0
  0
ENDBLK
  8
0
  5
CA
  0
ENDSEC
  0
SECTION
  2
ENTITIES
  0
INSERT
  8
0
  5
4F
  2
AID3
 10
0.0
 20
0.0
 30
0.0
  0
INSERT
  8
0
  5
69
  2
AID87
 10
0.0
 20
0.0
 30
0.0
  0
INSERT
  8
0
  5
95
  2
AID135
 10
0.0
 20
0.0
 30
0.0
  0
INSERT
  8
0
  5
CB
  2
AID219
 10
0.0
 20
0.0
 30
0.0
  0
LINE
  8
0
  6
CENTER
 62
     1
  5
CD
 10
229.26284
 20
281.399348
 30
0.0
 11
240.76284
 21
281.399348
 31
0.0
  0
LINE
  8
0
  6
CENTER
 62
     1
  5
CE
 10
235.01284
 20
275.649348
 30
0.0
 11
235.01284
 21
287.149348
 31
0.0
  0
LINE
  8
0
  6
CENTER
 62
     1
  5
CF
 10
234.94584
 20
311.399348
 30
0.0
 11
245.07984
 21
311.399348
 31
0.0
  0
LINE
  8
0
  6
CENTER
 62
     1
  5
D0
 10
240.01284
 20
306.332348
 30
0.0
 11
240.01284
 21
316.466348
 31
0.0
  0
LINE
  8
0
  6
CENTER
 62
     1
  5
D1
 10
264.94584
 20
281.399348
 30
0.0
 11
275.07984
 21
281.399348
 31
0.0
  0
LINE
  8
0
  6
CENTER
 62
     1
  5
D2
 10
270.01284
 20
276.332348
 30
0.0
 11
270.01284
 21
286.466348
 31
0.0
  0
LINE
  8
0
  6
CENTER
 62
     1
  5
D3
 10
269.26284
 20
311.399348
 30
0.0
 11
280.76284
 21
311.399348
 31
0.0
  0
LINE
  8
0
  6
CENTER
 62
     1
  5
D4
 10
275.01284
 20
305.649348
 30
0.0
 11
275.01284
 21
317.149348
 31
0.0
  0
LINE
  8
0
  6
CENTER
 62
     1
  5
D5
 10
275.01284
 20
133.116162
 30
0.0
 11
275.01284
 21
151.116162
 31
0.0
  0
LINE
  8
0
  6
CENTER
 62
     1
  5
D6
 10
270.01284
 20
150.616162
 30
0.0
 11
270.01284
 21
188.616162
 31
0.0
  0
LINE
  8
0
  6
CENTER
 62
     1
  5
D7
 10
240.01284
 20
150.616162
 30
0.0
 11
240.01284
 21
188.616162
 31
0.0
  0
LINE
  8
0
  6
CENTER
 62
     1
  5
D8
 10
235.01284
 20
133.116162
 30
0.0
 11
235.01284
 21
151.116162
 31
0.0
  0
LINE
  8
0
  6
CENTER
 62
     1
  5
D9
 10
227.01284
 20
34.397216
 30
0.0
 11
243.01284
 21
34.397216
 31
0.0
  0
LINE
  8
0
  6
CENTER
 62
     1
  5
DA
 10
235.01284
 20
26.397216
 30
0.0
 11
235.01284
 21
42.397216
 31
0.0
  0
LINE
  8
0
  6
CENTER
 62
     1
  5
DB
 10
232.76284
 20
4.397216
 30
0.0
 11
247.26284
 21
4.397216
 31
0.0
  0
LINE
  8
0
  6
CENTER
 62
     1
  5
DC
 10
240.01284
 20
-2.852784
 30
0.0
 11
240.01284
 21
11.647216
 31
0.0
  0
LINE
  8
0
  6
CENTER
 62
     1
  5
DD
 10
234.51284
 20
19.397216
 30
0.0
 11
245.51284
 21
19.397216
 31
0.0
  0
LINE
  8
0
  6
CENTER
 62
     1
  5
DE
 10
240.01284
 20
13.897216
 30
0.0
 11
240.01284
 21
24.897216
 31
0.0
  0
LINE
  8
0
  6
CENTER
 62
     1
  5
DF
 10
264.51284
 20
19.397216
 30
0.0
 11
275.51284
 21
19.397216
 31
0.0
  0
LINE
  8
0
  6
CENTER
 62
     1
  5
E0
 10
270.01284
 20
13.897216
 30
0.0
 11
270.01284
 21
24.897216
 31
0.0
  0
LINE
  8
0
  6
CENTER
 62
     1
  5
E1
 10
262.76284
 20
34.397216
 30
0.0
 11
277.26284
 21
34.397216
 31
0.0
  0
LINE
  8
0
  6
CENTER
 62
     1
  5
E2
 10
270.01284
 20
27.147216
 30
0.0
 11
270.01284
 21
41.647216
 31
0.0
  0
LINE
  8
0
  6
CENTER
 62
     1
  5
E3
 10
267.01284
 20
4.397216
 30
0.0
 11
283.01284
 21
4.397216
 31
0.0
  0
LINE
  8
0
  6
CENTER
 62
     1
  5
E4
 10
275.01284
 20
-3.602784
 30
0.0
 11
275.01284
 21
12.397216
 31
0.0
  0
LINE
  8
0
  6
CENTER
 62
     1
  5
E5
 10
96.725907
 20
150.616162
 30
0.0
 11
96.725907
 21
158.966162
 31
0.0
  0
LINE
  8
0
  6
CENTER
 62
     1
  5
E6
 10
111.725907
 20
133.116162
 30
0.0
 11
111.725907
 21
188.616162
 31
0.0
  0
LINE
  8
0
  6
CENTER
 62
     1
  5
E7
 10
81.725907
 20
133.116162
 30
0.0
 11
81.725907
 21
188.616162
 31
0.0
  0
ENDSEC
  0
EOF
