  0
SECTION
  2
HEADER
  9
$ACADVER
  1
AC1009
  9
$DWGCODEPAGE
  3
ansi_1252
  9
$INSBASE
 10
0.0
 20
0.0
 30
0.0
  9
$EXTMIN
 10
-68.139186
 20
-48.517131
 30
0.0
  9
$EXTMAX
 10
254.176653
 20
360.356522
 30
5.0
  9
$LIMMIN
 10
-68.139186
 20
-48.517131
  9
$LIMMAX
 10
254.176653
 20
360.356522
  9
$ORTHOMODE
 70
     0
  9
$REGENMODE
 70
     1
  9
$FILLMODE
 70
     1
  9
$QTEXTMODE
 70
     0
  9
$MIRRTEXT
 70
     1
  9
$DRAGMODE
 70
     2
  9
$LTSCALE
 40
10.0
  9
$OSMODE
 70
     0
  9
$ATTMODE
 70
     1
  9
$TEXTSIZE
 40
0.2
  9
$TRACEWID
 40
0.05
  9
$TEXTSTYLE
  7
STANDARD
  9
$CLAYER
  8
0
  9
$CELTYPE
  6
CONTINUOUS
  9
$CECOLOR
 62
   256
  9
$DIMSCALE
 40
1.0
  9
$DIMASZ
 40
1.25
  9
$DIMEXO
 40
1.0
  9
$DIMDLI
 40
0.38
  9
$DIMRND
 40
0.0
  9
$DIMDLE
 40
0.0
  9
$DIMEXE
 40
0.75
  9
$DIMTP
 40
0.0
  9
$DIMTM
 40
0.0
  9
$DIMTXT
 40
2.5
  9
$DIMCEN
 40
0.09
  9
$DIMTSZ
 40
0.0
  9
$DIMTOL
 70
     0
  9
$DIMLIM
 70
     0
  9
$DIMTIH
 70
     0
  9
$DIMTOH
 70
     0
  9
$DIMSE1
 70
     0
  9
$DIMSE2
 70
     0
  9
$DIMTAD
 70
     1
  9
$DIMZIN
 70
     0
  9
$DIMBLK
  1

  9
$DIMASO
 70
     1
  9
$DIMSHO
 70
     1
  9
$DIMPOST
  1

  9
$DIMAPOST
  1

  9
$DIMALT
 70
     0
  9
$DIMALTD
 70
     2
  9
$DIMALTF
 40
25.4
  9
$DIMLFAC
 40
1.0
  9
$DIMTOFL
 70
     0
  9
$DIMTVP
 40
0.0
  9
$DIMTIX
 70
     0
  9
$DIMSOXD
 70
     0
  9
$DIMSAH
 70
     0
  9
$DIMBLK1
  1

  9
$DIMBLK2
  1

  9
$DIMSTYLE
  2
STANDARD
  9
$DIMCLRD
 70
     7
  9
$DIMCLRE
 70
     7
  9
$DIMCLRT
 70
     7
  9
$DIMTFAC
 40
0.8
  9
$DIMGAP
 40
1.25
  9
$LUNITS
 70
     2
  9
$LUPREC
 70
     4
  9
$AXISMODE
 70
     0
  9
$AXISUNIT
 10
0.0
 20
0.0
  9
$SKETCHINC
 40
0.1
  9
$FILLETRAD
 40
0.0
  9
$AUNITS
 70
     0
  9
$AUPREC
 70
     0
  9
$MENU
  1
acad
  9
$ELEVATION
 40
0.0
  9
$PELEVATION
 40
0.0
  9
$THICKNESS
 40
0.0
  9
$LIMCHECK
 70
     0
  9
$BLIPMODE
 70
     1
  9
$CHAMFERA
 40
0.0
  9
$CHAMFERB
 40
0.0
  9
$SKPOLY
 70
     0
  9
$TDCREATE
 40
2454894.656921296
  9
$TDUPDATE
 40
2454894.614837963
  9
$TDINDWG
 40
0.0000000000
  9
$TDUSRTIMER
 40
0.0000000000
  9
$USRTIMER
 70
     1
  9
$ANGBASE
 50
0.0
  9
$ANGDIR
 70
     0
  9
$PDMODE
 70
     0
  9
$PDSIZE
 40
0.0
  9
$PLINEWID
 40
0.0
  9
$COORDS
 70
     0
  9
$SPLFRAME
 70
     0
  9
$SPLINETYPE
 70
     6
  9
$SPLINESEGS
 70
     8
  9
$ATTDIA
 70
     0
  9
$ATTREQ
 70
     1
  9
$HANDLING
 70
     1
  9
$HANDSEED
  5
12C
  9
$SURFTAB1
 70
     6
  9
$SURFTAB2
 70
     6
  9
$SURFTYPE
 70
     6
  9
$SURFU
 70
     6
  9
$SURFV
 70
     6
  9
$UCSNAME
  2

  9
$UCSORG
 10
0.0
 20
0.0
 30
0.0
  9
$UCSXDIR
 10
1.0
 20
0.0
 30
0.0
  9
$UCSYDIR
 10
0.0
 20
1.0
 30
0.0
  9
$PUCSNAME
  2

  9
$PUCSORG
 10
0.0
 20
0.0
 30
0.0
  9
$PUCSXDIR
 10
1.0
 20
0.0
 30
0.0
  9
$PUCSYDIR
 10
0.0
 20
1.0
 30
0.0
  9
$USERI1
 70
     0
  9
$USERI2
 70
     0
  9
$USERI3
 70
     0
  9
$USERI4
 70
     0
  9
$USERI5
 70
     0
  9
$USERR1
 40
0.0
  9
$USERR2
 40
0.0
  9
$USERR3
 40
0.0
  9
$USERR4
 40
0.0
  9
$USERR5
 40
0.0
  9
$WORLDVIEW
 70
     1
  9
$SHADEDGE
 70
     3
  9
$SHADEDIF
 70
    70
  9
$TILEMODE
 70
     1
  9
$MAXACTVP
 70
    16
  9
$PINSBASE
 10
0.0
 20
0.0
 30
0.0
  9
$PLIMCHECK
 70
     0
  9
$PEXTMIN
 10
1.000000E+20
 20
1.000000E+20
 30
1.000000E+20
  9
$PEXTMAX
 10
-1.000000E+20
 20
-1.000000E+20
 30
-1.000000E+20
  9
$PLIMMIN
 10
0.0
 20
0.0
  9
$PLIMMAX
 10
12.0
 20
9.0
  9
$UNITMODE
 70
     0
  9
$VISRETAIN
 70
     0
  9
$PLINEGEN
 70
     1
  9
$PSLTSCALE
 70
     0
  9
$TREEDEPTH
 70
  3020
  0
ENDSEC
  0
SECTION
  2
TABLES
  0
TABLE
  2
VPORT
 70
     1
  0
VPORT
  2
*ACTIVE
 70
     0
 10
0.0
 20
0.0
 11
1.0
 21
1.0
 12
6.591288
 22
4.579184
 13
0.0
 23
0.0
 14
1.0
 24
1.0
 15
0.0
 25
0.0
 16
0.0
 26
0.0
 36
1.0
 17
0.0
 27
0.0
 37
0.0
 40
9.158369
 41
0.688564
 42
50.0
 43
0.0
 44
0.0
 50
0.0
 51
0.0
 71
     0
 72
   100
 73
     1
 74
     1
 75
     0
 76
     0
 77
     0
 78
     0
  0
ENDTAB
  0
TABLE
  2
LTYPE
 70
     2
  0
LTYPE
  2
CONTINUOUS
 70
    64
  3
Solid line
 72
    65
 73
     0
 40
0.0
  0
LTYPE
  2
CENTER
 70
    64
  3
____ _ ____ _ ____ _ ____ _ ____ _ ____ _ ____
 72
    65
 73
     4
 40
2.0
 49
1.25
 49
-0.25
 49
0.25
 49
-0.25
  0
ENDTAB
  0
TABLE
  2
LAYER
 70
     1
  0
LAYER
  2
0
 70
     0
 62
     7
  6
CONTINUOUS
  0
ENDTAB
  0
TABLE
  2
STYLE
 70
     1
  0
STYLE
  2
STANDARD
 70
     0
 40
0.0
 41
1.0
 50
0.0
 71
     0
 42
0.0
  3
IsonormD
  4

  0
ENDTAB
  0
TABLE
  2
VIEW
 70
     0
  0
ENDTAB
  0
TABLE
  2
UCS
 70
     0
  0
ENDTAB
  0
TABLE
  2
APPID
 70
     2
  0
APPID
  2
ACAD
 70
     0
  0
APPID
  2
TopSolid_Draft
 70
     0
  0
ENDTAB
  0
TABLE
  2
DIMSTYLE
 70
     1
  0
DIMSTYLE
  2
STANDARD
 70
     0
  3

  4

  5

  6

  7

 40
1.0
 41
1.25
 42
1.0
 43
0.38
 44
0.75
 45
0.0
 46
0.0
 47
0.0
 48
0.0
 71
     0
 72
     0
 73
     0
 74
     0
 75
     0
 76
     0
 77
     1
 78
     0
140
2.5
141
0.09
142
0.0
143
25.4
144
1.0
145
0.0
146
0.8
147
1.25
170
     0
171
     2
172
     0
173
     0
174
     0
175
     0
176
     7
177
     7
178
     7
  0
ENDTAB
  0
ENDSEC
  0
SECTION
  2
BLOCKS
  0
BLOCK
  8
0
  5
25
  2
AID3
 70
     0
 10
0.0
 20
0.0
 30
0.0
  3
#draft view
  0
LINE
  8
0
  6
CONTINUOUS
 62
     7
  5
26
 10
136.676653
 20
164.898282
 30
0.0
 11
136.676653
 21
152.898282
 31
0.0
  0
LINE
  8
0
  6
CONTINUOUS
 62
     7
  5
27
 10
136.676653
 20
152.898282
 30
0.0
 11
133.676653
 21
152.898282
 31
0.0
  0
LINE
  8
0
  6
CONTINUOUS
 62
     7
  5
28
 10
133.676653
 20
152.898282
 30
0.0
 11
133.676653
 21
164.898282
 31
0.0
  0
LINE
  8
0
  6
CONTINUOUS
 62
     7
  5
29
 10
133.676653
 20
164.898282
 30
0.0
 11
136.676653
 21
164.898282
 31
0.0
  0
LINE
  8
0
  6
CONTINUOUS
 62
     7
  5
2A
 10
250.676653
 20
152.898282
 30
0.0
 11
250.676653
 21
164.898282
 31
0.0
  0
LINE
  8
0
  6
CONTINUOUS
 62
     7
  5
2B
 10
250.676653
 20
152.898282
 30
0.0
 11
136.676653
 21
152.898282
 31
0.0
  0
LINE
  8
0
  6
CONTINUOUS
 62
     7
  5
2C
 10
250.676653
 20
164.898282
 30
0.0
 11
136.676653
 21
164.898282
 31
0.0
  0
LINE
  8
0
  6
CONTINUOUS
 62
     7
  5
2D
 10
253.676653
 20
164.898282
 30
0.0
 11
253.676653
 21
152.898282
 31
0.0
  0
LINE
  8
0
  6
CONTINUOUS
 62
     7
  5
2E
 10
253.676653
 20
152.898282
 30
0.0
 11
250.676653
 21
152.898282
 31
0.0
  0
LINE
  8
0
  6
CONTINUOUS
 62
     7
  5
2F
 10
250.676653
 20
164.898282
 30
0.0
 11
253.676653
 21
164.898282
 31
0.0
  0
LINE
  8
0
  6
CONTINUOUS
 62
     7
  5
30
 10
137.176653
 20
165.398282
 30
0.0
 11
150.176653
 21
165.398282
 31
0.0
  0
LINE
  8
0
  6
CONTINUOUS
 62
     7
  5
31
 10
250.176653
 20
165.398282
 30
0.0
 11
237.176653
 21
165.398282
 31
0.0
  0
LINE
  8
0
  6
CONTINUOUS
 62
     7
  5
32
 10
221.776653
 20
174.398282
 30
0.0
 11
217.576653
 21
174.398282
 31
0.0
  0
LINE
  8
0
  6
CONTINUOUS
 62
     7
  5
33
 10
217.176653
 20
173.998282
 30
0.0
 11
222.176653
 21
173.998282
 31
0.0
  0
LINE
  8
0
  6
CONTINUOUS
 62
     7
  5
34
 10
170.176653
 20
173.998282
 30
0.0
 11
165.176653
 21
173.998282
 31
0.0
  0
LINE
  8
0
  6
CONTINUOUS
 62
     7
  5
35
 10
165.576653
 20
174.398282
 30
0.0
 11
169.776653
 21
174.398282
 31
0.0
  0
LINE
  8
0
  6
CONTINUOUS
 62
     7
  5
36
 10
147.676653
 20
142.023282
 30
0.0
 11
139.676653
 21
142.023282
 31
0.0
  0
LINE
  8
0
  6
CONTINUOUS
 62
     7
  5
37
 10
239.676653
 20
142.023282
 30
0.0
 11
247.676653
 21
142.023282
 31
0.0
  0
LINE
  8
0
  6
CONTINUOUS
 62
     7
  5
38
 10
140.301653
 20
141.398282
 30
0.0
 11
147.051653
 21
141.398282
 31
0.0
  0
LINE
  8
0
  6
CONTINUOUS
 62
     7
  5
39
 10
247.051653
 20
141.398282
 30
0.0
 11
240.301653
 21
141.398282
 31
0.0
  0
LINE
  8
0
  6
CONTINUOUS
 62
     7
  5
3A
 10
150.176653
 20
164.898282
 30
0.0
 11
150.176653
 21
165.398282
 31
0.0
  0
LINE
  8
0
  6
CONTINUOUS
 62
     7
  5
3B
 10
137.176653
 20
165.398282
 30
0.0
 11
137.176653
 21
164.898282
 31
0.0
  0
LINE
  8
0
  6
CONTINUOUS
 62
     7
  5
3C
 10
250.176653
 20
164.898282
 30
0.0
 11
250.176653
 21
165.398282
 31
0.0
  0
LINE
  8
0
  6
CONTINUOUS
 62
     7
  5
3D
 10
237.176653
 20
165.398282
 30
0.0
 11
237.176653
 21
164.898282
 31
0.0
  0
LINE
  8
0
  6
CONTINUOUS
 62
     7
  5
3E
 10
222.176653
 20
173.998282
 30
0.0
 11
221.776653
 21
174.398282
 31
0.0
  0
LINE
  8
0
  6
CONTINUOUS
 62
     7
  5
3F
 10
217.576653
 20
174.398282
 30
0.0
 11
217.176653
 21
173.998282
 31
0.0
  0
LINE
  8
0
  6
CONTINUOUS
 62
     7
  5
40
 10
170.176653
 20
173.998282
 30
0.0
 11
169.776653
 21
174.398282
 31
0.0
  0
LINE
  8
0
  6
CONTINUOUS
 62
     7
  5
41
 10
165.576653
 20
174.398282
 30
0.0
 11
165.176653
 21
173.998282
 31
0.0
  0
LINE
  8
0
  6
CONTINUOUS
 62
     7
  5
42
 10
170.176653
 20
164.898282
 30
0.0
 11
170.176653
 21
173.998282
 31
0.0
  0
LINE
  8
0
  6
CONTINUOUS
 62
     7
  5
43
 10
165.176653
 20
173.998282
 30
0.0
 11
165.176653
 21
164.898282
 31
0.0
  0
LINE
  8
0
  6
CONTINUOUS
 62
     7
  5
44
 10
222.176653
 20
164.898282
 30
0.0
 11
222.176653
 21
173.998282
 31
0.0
  0
LINE
  8
0
  6
CONTINUOUS
 62
     7
  5
45
 10
217.176653
 20
173.998282
 30
0.0
 11
217.176653
 21
164.898282
 31
0.0
  0
LINE
  8
0
  6
CONTINUOUS
 62
     7
  5
46
 10
139.676653
 20
152.898282
 30
0.0
 11
139.676653
 21
142.023282
 31
0.0
  0
LINE
  8
0
  6
CONTINUOUS
 62
     7
  5
47
 10
147.676653
 20
142.023282
 30
0.0
 11
147.676653
 21
152.898282
 31
0.0
  0
LINE
  8
0
  6
CONTINUOUS
 62
     7
  5
48
 10
239.676653
 20
152.898282
 30
0.0
 11
239.676653
 21
142.023282
 31
0.0
  0
LINE
  8
0
  6
CONTINUOUS
 62
     7
  5
49
 10
247.676653
 20
142.023282
 30
0.0
 11
247.676653
 21
152.898282
 31
0.0
  0
LINE
  8
0
  6
CONTINUOUS
 62
     7
  5
4A
 10
139.676653
 20
142.023282
 30
0.0
 11
140.301653
 21
141.398282
 31
0.0
  0
LINE
  8
0
  6
CONTINUOUS
 62
     7
  5
4B
 10
147.051653
 20
141.398282
 30
0.0
 11
147.676653
 21
142.023282
 31
0.0
  0
LINE
  8
0
  6
CONTINUOUS
 62
     7
  5
4C
 10
239.676653
 20
142.023282
 30
0.0
 11
240.301653
 21
141.398282
 31
0.0
  0
LINE
  8
0
  6
CONTINUOUS
 62
     7
  5
4D
 10
247.051653
 20
141.398282
 30
0.0
 11
247.676653
 21
142.023282
 31
0.0
  0
ENDBLK
  8
0
  5
4E
  0
BLOCK
  8
0
  5
51
  2
AID87
 70
     0
 10
0.0
 20
0.0
 30
0.0
  3
#auxiliary draft view
  0
CIRCLE
  8
0
  6
CONTINUOUS
 62
     7
  5
52
 10
143.676653
 20
323.606522
 30
0.0
 40
3.375
210
0.0
220
0.0
230
1.0
  0
CIRCLE
  8
0
  6
CONTINUOUS
 62
     7
  5
53
 10
143.676653
 20
323.606522
 30
0.0
 40
4.0
210
0.0
220
0.0
230
1.0
  0
CIRCLE
  8
0
  6
CONTINUOUS
 62
     7
  5
54
 10
243.676653
 20
323.606522
 30
0.0
 40
3.375
210
0.0
220
0.0
230
1.0
  0
CIRCLE
  8
0
  6
CONTINUOUS
 62
     7
  5
55
 10
243.676653
 20
323.606522
 30
0.0
 40
4.0
210
0.0
220
0.0
230
1.0
  0
CIRCLE
  8
0
  6
CONTINUOUS
 62
     7
  5
56
 10
143.676653
 20
277.106522
 30
0.0
 40
3.375
210
0.0
220
0.0
230
1.0
  0
CIRCLE
  8
0
  6
CONTINUOUS
 62
     7
  5
57
 10
243.676653
 20
277.106522
 30
0.0
 40
3.375
210
0.0
220
0.0
230
1.0
  0
CIRCLE
  8
0
  6
CONTINUOUS
 62
     7
  5
58
 10
243.676653
 20
277.106522
 30
0.0
 40
4.0
210
0.0
220
0.0
230
1.0
  0
CIRCLE
  8
0
  6
CONTINUOUS
 62
     7
  5
59
 10
143.676653
 20
277.106522
 30
0.0
 40
4.0
210
0.0
220
0.0
230
1.0
  0
CIRCLE
  8
0
  6
CONTINUOUS
 62
     7
  5
5A
 10
243.676653
 20
277.106522
 30
0.0
 40
4.5
210
0.0
220
0.0
230
1.0
  0
CIRCLE
  8
0
  6
CONTINUOUS
 62
     7
  5
5B
 10
143.676653
 20
277.106522
 30
0.0
 40
4.5
210
0.0
220
0.0
230
1.0
  0
CIRCLE
  8
0
  6
CONTINUOUS
 62
     7
  5
5C
 10
243.676653
 20
323.606522
 30
0.0
 40
4.5
210
0.0
220
0.0
230
1.0
  0
CIRCLE
  8
0
  6
CONTINUOUS
 62
     7
  5
5D
 10
143.676653
 20
323.606522
 30
0.0
 40
4.5
210
0.0
220
0.0
230
1.0
  0
CIRCLE
  8
0
  6
CONTINUOUS
 62
     7
  5
5E
 10
219.676653
 20
274.356522
 30
0.0
 40
5.0
210
0.0
220
0.0
230
1.0
  0
CIRCLE
  8
0
  6
CONTINUOUS
 62
     7
  5
5F
 10
167.676653
 20
274.356522
 30
0.0
 40
5.0
210
0.0
220
0.0
230
1.0
  0
CIRCLE
  8
0
  6
CONTINUOUS
 62
     7
  5
60
 10
219.676653
 20
326.356522
 30
0.0
 40
5.0
210
0.0
220
0.0
230
1.0
  0
CIRCLE
  8
0
  6
CONTINUOUS
 62
     7
  5
61
 10
167.676653
 20
326.356522
 30
0.0
 40
5.0
210
0.0
220
0.0
230
1.0
  0
LINE
  8
0
  6
CONTINUOUS
 62
     7
  5
62
 10
136.676653
 20
360.356522
 30
0.0
 11
133.676653
 21
357.356522
 31
0.0
  0
LINE
  8
0
  6
CONTINUOUS
 62
     7
  5
63
 10
250.676653
 20
360.356522
 30
0.0
 11
136.676653
 21
360.356522
 31
0.0
  0
LINE
  8
0
  6
CONTINUOUS
 62
     7
  5
64
 10
253.676653
 20
243.356522
 30
0.0
 11
253.676653
 21
357.356522
 31
0.0
  0
LINE
  8
0
  6
CONTINUOUS
 62
     7
  5
65
 10
250.676653
 20
240.356522
 30
0.0
 11
253.676653
 21
243.356522
 31
0.0
  0
LINE
  8
0
  6
CONTINUOUS
 62
     7
  5
66
 10
136.676653
 20
240.356522
 30
0.0
 11
250.676653
 21
240.356522
 31
0.0
  0
LINE
  8
0
  6
CONTINUOUS
 62
     7
  5
67
 10
133.676653
 20
243.356522
 30
0.0
 11
136.676653
 21
240.356522
 31
0.0
  0
LINE
  8
0
  6
CONTINUOUS
 62
     7
  5
68
 10
133.676653
 20
357.356522
 30
0.0
 11
133.676653
 21
243.356522
 31
0.0
  0
LINE
  8
0
  6
CONTINUOUS
 62
     7
  5
69
 10
253.676653
 20
357.356522
 30
0.0
 11
250.676653
 21
360.356522
 31
0.0
  0
LINE
  8
0
  6
CONTINUOUS
 62
     7
  5
6A
 10
166.521953
 20
324.356522
 30
0.0
 11
165.367252
 21
326.356522
 31
0.0
  0
LINE
  8
0
  6
CONTINUOUS
 62
     7
  5
6B
 10
168.831354
 20
324.356522
 30
0.0
 11
166.521953
 21
324.356522
 31
0.0
  0
LINE
  8
0
  6
CONTINUOUS
 62
     7
  5
6C
 10
169.986055
 20
326.356522
 30
0.0
 11
168.831354
 21
324.356522
 31
0.0
  0
LINE
  8
0
  6
CONTINUOUS
 62
     7
  5
6D
 10
168.831354
 20
328.356522
 30
0.0
 11
169.986055
 21
326.356522
 31
0.0
  0
LINE
  8
0
  6
CONTINUOUS
 62
     7
  5
6E
 10
166.521953
 20
328.356522
 30
0.0
 11
168.831354
 21
328.356522
 31
0.0
  0
LINE
  8
0
  6
CONTINUOUS
 62
     7
  5
6F
 10
165.367252
 20
326.356522
 30
0.0
 11
166.521953
 21
328.356522
 31
0.0
  0
CIRCLE
  8
0
  6
CONTINUOUS
 62
     7
  5
70
 10
167.676653
 20
326.356522
 30
0.0
 40
4.25
210
0.0
220
0.0
230
1.0
  0
LINE
  8
0
  6
CONTINUOUS
 62
     7
  5
71
 10
220.831354
 20
328.356522
 30
0.0
 11
218.521953
 21
328.356522
 31
0.0
  0
LINE
  8
0
  6
CONTINUOUS
 62
     7
  5
72
 10
218.521953
 20
328.356522
 30
0.0
 11
217.367252
 21
326.356522
 31
0.0
  0
LINE
  8
0
  6
CONTINUOUS
 62
     7
  5
73
 10
217.367252
 20
326.356522
 30
0.0
 11
218.521953
 21
324.356522
 31
0.0
  0
LINE
  8
0
  6
CONTINUOUS
 62
     7
  5
74
 10
218.521953
 20
324.356522
 30
0.0
 11
220.831354
 21
324.356522
 31
0.0
  0
LINE
  8
0
  6
CONTINUOUS
 62
     7
  5
75
 10
220.831354
 20
324.356522
 30
0.0
 11
221.986055
 21
326.356522
 31
0.0
  0
LINE
  8
0
  6
CONTINUOUS
 62
     7
  5
76
 10
221.986055
 20
326.356522
 30
0.0
 11
220.831354
 21
328.356522
 31
0.0
  0
CIRCLE
  8
0
  6
CONTINUOUS
 62
     7
  5
77
 10
219.676653
 20
326.356522
 30
0.0
 40
4.25
210
0.0
220
0.0
230
1.0
  0
LINE
  8
0
  6
CONTINUOUS
 62
     7
  5
78
 10
220.831354
 20
276.356522
 30
0.0
 11
221.986055
 21
274.356522
 31
0.0
  0
LINE
  8
0
  6
CONTINUOUS
 62
     7
  5
79
 10
218.521953
 20
276.356522
 30
0.0
 11
220.831354
 21
276.356522
 31
0.0
  0
LINE
  8
0
  6
CONTINUOUS
 62
     7
  5
7A
 10
217.367252
 20
274.356522
 30
0.0
 11
218.521953
 21
276.356522
 31
0.0
  0
LINE
  8
0
  6
CONTINUOUS
 62
     7
  5
7B
 10
218.521953
 20
272.356522
 30
0.0
 11
217.367252
 21
274.356522
 31
0.0
  0
LINE
  8
0
  6
CONTINUOUS
 62
     7
  5
7C
 10
220.831354
 20
272.356522
 30
0.0
 11
218.521953
 21
272.356522
 31
0.0
  0
LINE
  8
0
  6
CONTINUOUS
 62
     7
  5
7D
 10
221.986055
 20
274.356522
 30
0.0
 11
220.831354
 21
272.356522
 31
0.0
  0
CIRCLE
  8
0
  6
CONTINUOUS
 62
     7
  5
7E
 10
219.676653
 20
274.356522
 30
0.0
 40
4.25
210
0.0
220
0.0
230
1.0
  0
LINE
  8
0
  6
CONTINUOUS
 62
     7
  5
7F
 10
166.521953
 20
272.356522
 30
0.0
 11
168.831354
 21
272.356522
 31
0.0
  0
LINE
  8
0
  6
CONTINUOUS
 62
     7
  5
80
 10
168.831354
 20
272.356522
 30
0.0
 11
169.986055
 21
274.356522
 31
0.0
  0
LINE
  8
0
  6
CONTINUOUS
 62
     7
  5
81
 10
169.986055
 20
274.356522
 30
0.0
 11
168.831354
 21
276.356522
 31
0.0
  0
LINE
  8
0
  6
CONTINUOUS
 62
     7
  5
82
 10
168.831354
 20
276.356522
 30
0.0
 11
166.521953
 21
276.356522
 31
0.0
  0
LINE
  8
0
  6
CONTINUOUS
 62
     7
  5
83
 10
166.521953
 20
276.356522
 30
0.0
 11
165.367252
 21
274.356522
 31
0.0
  0
LINE
  8
0
  6
CONTINUOUS
 62
     7
  5
84
 10
165.367252
 20
274.356522
 30
0.0
 11
166.521953
 21
272.356522
 31
0.0
  0
CIRCLE
  8
0
  6
CONTINUOUS
 62
     7
  5
85
 10
167.676653
 20
274.356522
 30
0.0
 40
4.25
210
0.0
220
0.0
230
1.0
  0
ENDBLK
  8
0
  5
86
  0
BLOCK
  8
0
  5
89
  2
AID195
 70
     0
 10
0.0
 20
0.0
 30
0.0
  3
#auxiliary draft view
  0
CIRCLE
  8
0
  6
CONTINUOUS
 62
     7
  5
8A
 10
219.676653
 20
-14.517131
 30
0.0
 40
2.1
210
0.0
220
0.0
230
1.0
  0
CIRCLE
  8
0
  6
CONTINUOUS
 62
     7
  5
8B
 10
219.676653
 20
-14.517131
 30
0.0
 40
2.5
210
0.0
220
0.0
230
1.0
  0
CIRCLE
  8
0
  6
CONTINUOUS
 62
     7
  5
8C
 10
167.676653
 20
37.482869
 30
0.0
 40
2.1
210
0.0
220
0.0
230
1.0
  0
CIRCLE
  8
0
  6
CONTINUOUS
 62
     7
  5
8D
 10
167.676653
 20
37.482869
 30
0.0
 40
2.5
210
0.0
220
0.0
230
1.0
  0
CIRCLE
  8
0
  6
CONTINUOUS
 62
     7
  5
8E
 10
167.676653
 20
-14.517131
 30
0.0
 40
2.1
210
0.0
220
0.0
230
1.0
  0
CIRCLE
  8
0
  6
CONTINUOUS
 62
     7
  5
8F
 10
167.676653
 20
-14.517131
 30
0.0
 40
2.5
210
0.0
220
0.0
230
1.0
  0
CIRCLE
  8
0
  6
CONTINUOUS
 62
     7
  5
90
 10
219.676653
 20
37.482869
 30
0.0
 40
2.1
210
0.0
220
0.0
230
1.0
  0
CIRCLE
  8
0
  6
CONTINUOUS
 62
     7
  5
91
 10
219.676653
 20
37.482869
 30
0.0
 40
2.5
210
0.0
220
0.0
230
1.0
  0
CIRCLE
  8
0
  6
CONTINUOUS
 62
     7
  5
92
 10
219.676653
 20
11.482869
 30
0.0
 40
2.285641
210
0.0
220
0.0
230
1.0
  0
CIRCLE
  8
0
  6
CONTINUOUS
 62
     7
  5
93
 10
167.676653
 20
11.482869
 30
0.0
 40
2.285641
210
0.0
220
0.0
230
1.0
  0
CIRCLE
  8
0
  6
CONTINUOUS
 62
     7
  5
94
 10
167.676653
 20
11.482869
 30
0.0
 40
2.5
210
0.0
220
0.0
230
1.0
  0
CIRCLE
  8
0
  6
CONTINUOUS
 62
     7
  5
95
 10
219.676653
 20
11.482869
 30
0.0
 40
2.5
210
0.0
220
0.0
230
1.0
  0
LINE
  8
0
  6
CONTINUOUS
 62
     7
  5
96
 10
246.676653
 20
-10.03508
 30
0.0
 11
246.676653
 21
-13.499182
 31
0.0
  0
LINE
  8
0
  6
CONTINUOUS
 62
     7
  5
97
 10
240.676653
 20
-10.03508
 30
0.0
 11
243.676653
 21
-8.303029
 31
0.0
  0
LINE
  8
0
  6
CONTINUOUS
 62
     7
  5
98
 10
240.676653
 20
-13.499182
 30
0.0
 11
240.676653
 21
-10.03508
 31
0.0
  0
LINE
  8
0
  6
CONTINUOUS
 62
     7
  5
99
 10
243.676653
 20
-15.231232
 30
0.0
 11
240.676653
 21
-13.499182
 31
0.0
  0
CIRCLE
  8
0
  6
CONTINUOUS
 62
     7
  5
9A
 10
243.676653
 20
-11.767131
 30
0.0
 40
6.5
210
0.0
220
0.0
230
1.0
  0
LINE
  8
0
  6
CONTINUOUS
 62
     7
  5
9B
 10
246.676653
 20
-13.499182
 30
0.0
 11
243.676653
 21
-15.231232
 31
0.0
  0
LINE
  8
0
  6
CONTINUOUS
 62
     7
  5
9C
 10
243.676653
 20
-8.303029
 30
0.0
 11
246.676653
 21
-10.03508
 31
0.0
  0
LINE
  8
0
  6
CONTINUOUS
 62
     7
  5
9D
 10
240.676653
 20
36.46492
 30
0.0
 11
240.676653
 21
33.000818
 31
0.0
  0
LINE
  8
0
  6
CONTINUOUS
 62
     7
  5
9E
 10
240.676653
 20
33.000818
 30
0.0
 11
243.676653
 21
31.268768
 31
0.0
  0
LINE
  8
0
  6
CONTINUOUS
 62
     7
  5
9F
 10
243.676653
 20
31.268768
 30
0.0
 11
246.676653
 21
33.000818
 31
0.0
  0
LINE
  8
0
  6
CONTINUOUS
 62
     7
  5
A0
 10
246.676653
 20
33.000818
 30
0.0
 11
246.676653
 21
36.46492
 31
0.0
  0
CIRCLE
  8
0
  6
CONTINUOUS
 62
     7
  5
A1
 10
243.676653
 20
34.732869
 30
0.0
 40
6.5
210
0.0
220
0.0
230
1.0
  0
LINE
  8
0
  6
CONTINUOUS
 62
     7
  5
A2
 10
243.676653
 20
38.196971
 30
0.0
 11
240.676653
 21
36.46492
 31
0.0
  0
LINE
  8
0
  6
CONTINUOUS
 62
     7
  5
A3
 10
246.676653
 20
36.46492
 30
0.0
 11
243.676653
 21
38.196971
 31
0.0
  0
LINE
  8
0
  6
CONTINUOUS
 62
     7
  5
A4
 10
146.676653
 20
-13.499182
 30
0.0
 11
146.676653
 21
-10.03508
 31
0.0
  0
CIRCLE
  8
0
  6
CONTINUOUS
 62
     7
  5
A5
 10
143.676653
 20
-11.767131
 30
0.0
 40
6.5
210
0.0
220
0.0
230
1.0
  0
LINE
  8
0
  6
CONTINUOUS
 62
     7
  5
A6
 10
143.676653
 20
-8.303029
 30
0.0
 11
140.676653
 21
-10.03508
 31
0.0
  0
LINE
  8
0
  6
CONTINUOUS
 62
     7
  5
A7
 10
146.676653
 20
-10.03508
 30
0.0
 11
143.676653
 21
-8.303029
 31
0.0
  0
LINE
  8
0
  6
CONTINUOUS
 62
     7
  5
A8
 10
140.676653
 20
-10.03508
 30
0.0
 11
140.676653
 21
-13.499182
 31
0.0
  0
LINE
  8
0
  6
CONTINUOUS
 62
     7
  5
A9
 10
140.676653
 20
-13.499182
 30
0.0
 11
143.676653
 21
-15.231232
 31
0.0
  0
LINE
  8
0
  6
CONTINUOUS
 62
     7
  5
AA
 10
143.676653
 20
-15.231232
 30
0.0
 11
146.676653
 21
-13.499182
 31
0.0
  0
CIRCLE
  8
0
  6
CONTINUOUS
 62
     7
  5
AB
 10
143.676653
 20
34.732869
 30
0.0
 40
6.5
210
0.0
220
0.0
230
1.0
  0
LINE
  8
0
  6
CONTINUOUS
 62
     7
  5
AC
 10
143.676653
 20
38.196971
 30
0.0
 11
146.676653
 21
36.46492
 31
0.0
  0
LINE
  8
0
  6
CONTINUOUS
 62
     7
  5
AD
 10
146.676653
 20
36.46492
 30
0.0
 11
146.676653
 21
33.000818
 31
0.0
  0
LINE
  8
0
  6
CONTINUOUS
 62
     7
  5
AE
 10
140.676653
 20
36.46492
 30
0.0
 11
143.676653
 21
38.196971
 31
0.0
  0
LINE
  8
0
  6
CONTINUOUS
 62
     7
  5
AF
 10
143.676653
 20
31.268768
 30
0.0
 11
140.676653
 21
33.000818
 31
0.0
  0
LINE
  8
0
  6
CONTINUOUS
 62
     7
  5
B0
 10
140.676653
 20
33.000818
 30
0.0
 11
140.676653
 21
36.46492
 31
0.0
  0
LINE
  8
0
  6
CONTINUOUS
 62
     7
  5
B1
 10
146.676653
 20
33.000818
 30
0.0
 11
143.676653
 21
31.268768
 31
0.0
  0
CIRCLE
  8
0
  6
CONTINUOUS
 62
     7
  5
B2
 10
219.676653
 20
-14.517131
 30
0.0
 40
2.75
210
0.0
220
0.0
230
1.0
  0
LINE
  8
0
  6
CONTINUOUS
 62
     7
  5
B3
 10
136.676653
 20
71.482869
 30
0.0
 11
250.676653
 21
71.482869
 31
0.0
  0
LINE
  8
0
  6
CONTINUOUS
 62
     7
  5
B4
 10
250.676653
 20
-48.517131
 30
0.0
 11
253.676653
 21
-45.517131
 31
0.0
  0
LINE
  8
0
  6
CONTINUOUS
 62
     7
  5
B5
 10
253.676653
 20
68.482869
 30
0.0
 11
253.676653
 21
-45.517131
 31
0.0
  0
LINE
  8
0
  6
CONTINUOUS
 62
     7
  5
B6
 10
250.676653
 20
-48.517131
 30
0.0
 11
136.676653
 21
-48.517131
 31
0.0
  0
CIRCLE
  8
0
  6
CONTINUOUS
 62
     7
  5
B7
 10
167.676653
 20
-14.517131
 30
0.0
 40
2.75
210
0.0
220
0.0
230
1.0
  0
CIRCLE
  8
0
  6
CONTINUOUS
 62
     7
  5
B8
 10
243.676653
 20
-11.767131
 30
0.0
 40
7.5
210
0.0
220
0.0
230
1.0
  0
LINE
  8
0
  6
CONTINUOUS
 62
     7
  5
B9
 10
253.676653
 20
68.482869
 30
0.0
 11
250.676653
 21
71.482869
 31
0.0
  0
CIRCLE
  8
0
  6
CONTINUOUS
 62
     7
  5
BA
 10
167.676653
 20
37.482869
 30
0.0
 40
2.75
210
0.0
220
0.0
230
1.0
  0
CIRCLE
  8
0
  6
CONTINUOUS
 62
     7
  5
BB
 10
143.676653
 20
-11.767131
 30
0.0
 40
7.5
210
0.0
220
0.0
230
1.0
  0
LINE
  8
0
  6
CONTINUOUS
 62
     7
  5
BC
 10
136.676653
 20
71.482869
 30
0.0
 11
133.676653
 21
68.482869
 31
0.0
  0
CIRCLE
  8
0
  6
CONTINUOUS
 62
     7
  5
BD
 10
143.676653
 20
34.732869
 30
0.0
 40
7.5
210
0.0
220
0.0
230
1.0
  0
LINE
  8
0
  6
CONTINUOUS
 62
     7
  5
BE
 10
133.676653
 20
-45.517131
 30
0.0
 11
133.676653
 21
68.482869
 31
0.0
  0
CIRCLE
  8
0
  6
CONTINUOUS
 62
     7
  5
BF
 10
219.676653
 20
37.482869
 30
0.0
 40
2.75
210
0.0
220
0.0
230
1.0
  0
LINE
  8
0
  6
CONTINUOUS
 62
     7
  5
C0
 10
133.676653
 20
-45.517131
 30
0.0
 11
136.676653
 21
-48.517131
 31
0.0
  0
CIRCLE
  8
0
  6
CONTINUOUS
 62
     7
  5
C1
 10
243.676653
 20
34.732869
 30
0.0
 40
7.5
210
0.0
220
0.0
230
1.0
  0
ENDBLK
  8
0
  5
C2
  0
BLOCK
  8
0
  5
C5
  2
AID311
 70
     0
 10
0.0
 20
0.0
 30
0.0
  3
#auxiliary draft view
  0
LINE
  8
0
  6
CONTINUOUS
 62
     7
  5
C6
 10
48.860814
 20
152.898282
 30
0.0
 11
48.860814
 21
164.898282
 31
0.0
  0
LINE
  8
0
  6
CONTINUOUS
 62
     7
  5
C7
 10
48.860814
 20
152.898282
 30
0.0
 11
-65.139186
 21
152.898282
 31
0.0
  0
LINE
  8
0
  6
CONTINUOUS
 62
     7
  5
C8
 10
-65.139186
 20
164.898282
 30
0.0
 11
-65.139186
 21
152.898282
 31
0.0
  0
LINE
  8
0
  6
CONTINUOUS
 62
     7
  5
C9
 10
48.860814
 20
164.898282
 30
0.0
 11
-65.139186
 21
164.898282
 31
0.0
  0
LINE
  8
0
  6
CONTINUOUS
 62
     7
  5
CA
 10
-68.139186
 20
152.898282
 30
0.0
 11
-68.139186
 21
164.898282
 31
0.0
  0
LINE
  8
0
  6
CONTINUOUS
 62
     7
  5
CB
 10
-68.139186
 20
164.898282
 30
0.0
 11
-65.139186
 21
164.898282
 31
0.0
  0
LINE
  8
0
  6
CONTINUOUS
 62
     7
  5
CC
 10
-65.139186
 20
152.898282
 30
0.0
 11
-68.139186
 21
152.898282
 31
0.0
  0
LINE
  8
0
  6
CONTINUOUS
 62
     7
  5
CD
 10
51.860814
 20
164.898282
 30
0.0
 11
51.860814
 21
152.898282
 31
0.0
  0
LINE
  8
0
  6
CONTINUOUS
 62
     7
  5
CE
 10
48.860814
 20
164.898282
 30
0.0
 11
51.860814
 21
164.898282
 31
0.0
  0
LINE
  8
0
  6
CONTINUOUS
 62
     7
  5
CF
 10
51.860814
 20
152.898282
 30
0.0
 11
48.860814
 21
152.898282
 31
0.0
  0
LINE
  8
0
  6
CONTINUOUS
 62
     7
  5
D0
 10
-24.889186
 20
165.398282
 30
0.0
 11
-31.389186
 21
165.398282
 31
0.0
  0
LINE
  8
0
  6
CONTINUOUS
 62
     7
  5
D1
 10
-31.389186
 20
165.398282
 30
0.0
 11
-37.889186
 21
165.398282
 31
0.0
  0
LINE
  8
0
  6
CONTINUOUS
 62
     7
  5
D2
 10
8.610814
 20
165.398282
 30
0.0
 11
15.110814
 21
165.398282
 31
0.0
  0
LINE
  8
0
  6
CONTINUOUS
 62
     7
  5
D3
 10
15.110814
 20
165.398282
 30
0.0
 11
21.610814
 21
165.398282
 31
0.0
  0
LINE
  8
0
  6
CONTINUOUS
 62
     7
  5
D4
 10
-28.014186
 20
141.398282
 30
0.0
 11
-31.389186
 21
141.398282
 31
0.0
  0
LINE
  8
0
  6
CONTINUOUS
 62
     7
  5
D5
 10
-35.389186
 20
142.023282
 30
0.0
 11
-31.389186
 21
142.023282
 31
0.0
  0
LINE
  8
0
  6
CONTINUOUS
 62
     7
  5
D6
 10
-31.389186
 20
141.398282
 30
0.0
 11
-34.764186
 21
141.398282
 31
0.0
  0
LINE
  8
0
  6
CONTINUOUS
 62
     7
  5
D7
 10
-31.389186
 20
142.023282
 30
0.0
 11
-27.389186
 21
142.023282
 31
0.0
  0
LINE
  8
0
  6
CONTINUOUS
 62
     7
  5
D8
 10
11.735814
 20
141.398282
 30
0.0
 11
15.110814
 21
141.398282
 31
0.0
  0
LINE
  8
0
  6
CONTINUOUS
 62
     7
  5
D9
 10
19.110814
 20
142.023282
 30
0.0
 11
15.110814
 21
142.023282
 31
0.0
  0
LINE
  8
0
  6
CONTINUOUS
 62
     7
  5
DA
 10
15.110814
 20
141.398282
 30
0.0
 11
18.485814
 21
141.398282
 31
0.0
  0
LINE
  8
0
  6
CONTINUOUS
 62
     7
  5
DB
 10
15.110814
 20
142.023282
 30
0.0
 11
11.110814
 21
142.023282
 31
0.0
  0
LINE
  8
0
  6
CONTINUOUS
 62
     7
  5
DC
 10
-32.039186
 20
174.398282
 30
0.0
 11
-36.239186
 21
174.398282
 31
0.0
  0
LINE
  8
0
  6
CONTINUOUS
 62
     7
  5
DD
 10
-36.639186
 20
173.998282
 30
0.0
 11
-31.639186
 21
173.998282
 31
0.0
  0
LINE
  8
0
  6
CONTINUOUS
 62
     7
  5
DE
 10
20.360814
 20
173.998282
 30
0.0
 11
15.360814
 21
173.998282
 31
0.0
  0
LINE
  8
0
  6
CONTINUOUS
 62
     7
  5
DF
 10
-10.639186
 20
167.098282
 30
0.0
 11
-5.639186
 21
167.098282
 31
0.0
  0
LINE
  8
0
  6
CONTINUOUS
 62
     7
  5
E0
 10
15.760814
 20
174.398282
 30
0.0
 11
19.960814
 21
174.398282
 31
0.0
  0
LINE
  8
0
  6
CONTINUOUS
 62
     7
  5
E1
 10
-10.424827
 20
167.898282
 30
0.0
 11
-5.853545
 21
167.898282
 31
0.0
  0
LINE
  8
0
  6
CONTINUOUS
 62
     7
  5
E2
 10
-24.889186
 20
164.898282
 30
0.0
 11
-24.889186
 21
165.398282
 31
0.0
  0
LINE
  8
0
  6
CONTINUOUS
 62
     7
  5
E3
 10
-37.889186
 20
165.398282
 30
0.0
 11
-37.889186
 21
164.898282
 31
0.0
  0
LINE
  8
0
  6
CONTINUOUS
 62
     7
  5
E4
 10
21.610814
 20
164.898282
 30
0.0
 11
21.610814
 21
165.398282
 31
0.0
  0
LINE
  8
0
  6
CONTINUOUS
 62
     7
  5
E5
 10
8.610814
 20
165.398282
 30
0.0
 11
8.610814
 21
164.898282
 31
0.0
  0
LINE
  8
0
  6
CONTINUOUS
 62
     7
  5
E6
 10
-35.389186
 20
142.023282
 30
0.0
 11
-34.764186
 21
141.398282
 31
0.0
  0
LINE
  8
0
  6
CONTINUOUS
 62
     7
  5
E7
 10
-28.014186
 20
141.398282
 30
0.0
 11
-27.389186
 21
142.023282
 31
0.0
  0
LINE
  8
0
  6
CONTINUOUS
 62
     7
  5
E8
 10
11.110814
 20
142.023282
 30
0.0
 11
11.735814
 21
141.398282
 31
0.0
  0
LINE
  8
0
  6
CONTINUOUS
 62
     7
  5
E9
 10
18.485814
 20
141.398282
 30
0.0
 11
19.110814
 21
142.023282
 31
0.0
  0
LINE
  8
0
  6
CONTINUOUS
 62
     7
  5
EA
 10
-35.389186
 20
152.898282
 30
0.0
 11
-35.389186
 21
142.023282
 31
0.0
  0
LINE
  8
0
  6
CONTINUOUS
 62
     7
  5
EB
 10
-27.389186
 20
142.023282
 30
0.0
 11
-27.389186
 21
152.898282
 31
0.0
  0
LINE
  8
0
  6
CONTINUOUS
 62
     7
  5
EC
 10
11.110814
 20
152.898282
 30
0.0
 11
11.110814
 21
142.023282
 31
0.0
  0
LINE
  8
0
  6
CONTINUOUS
 62
     7
  5
ED
 10
19.110814
 20
142.023282
 30
0.0
 11
19.110814
 21
152.898282
 31
0.0
  0
LINE
  8
0
  6
CONTINUOUS
 62
     7
  5
EE
 10
-31.639186
 20
173.998282
 30
0.0
 11
-32.039186
 21
174.398282
 31
0.0
  0
LINE
  8
0
  6
CONTINUOUS
 62
     7
  5
EF
 10
-36.239186
 20
174.398282
 30
0.0
 11
-36.639186
 21
173.998282
 31
0.0
  0
LINE
  8
0
  6
CONTINUOUS
 62
     7
  5
F0
 10
-31.639186
 20
165.398282
 30
0.0
 11
-31.639186
 21
173.998282
 31
0.0
  0
LINE
  8
0
  6
CONTINUOUS
 62
     7
  5
F1
 10
-36.639186
 20
173.998282
 30
0.0
 11
-36.639186
 21
165.398282
 31
0.0
  0
LINE
  8
0
  6
CONTINUOUS
 62
     7
  5
F2
 10
20.360814
 20
165.398282
 30
0.0
 11
20.360814
 21
173.998282
 31
0.0
  0
LINE
  8
0
  6
CONTINUOUS
 62
     7
  5
F3
 10
15.360814
 20
173.998282
 30
0.0
 11
15.360814
 21
165.398282
 31
0.0
  0
LINE
  8
0
  6
CONTINUOUS
 62
     7
  5
F4
 10
-5.639186
 20
164.898282
 30
0.0
 11
-5.639186
 21
167.098282
 31
0.0
  0
LINE
  8
0
  6
CONTINUOUS
 62
     7
  5
F5
 10
-10.639186
 20
167.098282
 30
0.0
 11
-10.639186
 21
164.898282
 31
0.0
  0
LINE
  8
0
  6
CONTINUOUS
 62
     7
  5
F6
 10
20.360814
 20
173.998282
 30
0.0
 11
19.960814
 21
174.398282
 31
0.0
  0
LINE
  8
0
  6
CONTINUOUS
 62
     7
  5
F7
 10
15.760814
 20
174.398282
 30
0.0
 11
15.360814
 21
173.998282
 31
0.0
  0
LINE
  8
0
  6
CONTINUOUS
 62
     7
  5
F8
 10
-5.639186
 20
167.098282
 30
0.0
 11
-5.853545
 21
167.898282
 31
0.0
  0
LINE
  8
0
  6
CONTINUOUS
 62
     7
  5
F9
 10
-10.424827
 20
167.898282
 30
0.0
 11
-10.639186
 21
167.098282
 31
0.0
  0
ENDBLK
  8
0
  5
FA
  0
ENDSEC
  0
SECTION
  2
ENTITIES
  0
INSERT
  8
0
  5
4F
  2
AID3
 10
0.0
 20
0.0
 30
0.0
  0
INSERT
  8
0
  5
87
  2
AID87
 10
0.0
 20
0.0
 30
0.0
  0
INSERT
  8
0
  5
C3
  2
AID195
 10
0.0
 20
0.0
 30
0.0
  0
INSERT
  8
0
  5
FB
  2
AID311
 10
0.0
 20
0.0
 30
0.0
  0
LINE
  8
0
  6
CENTER
 62
     1
  5
FD
 10
136.176653
 20
277.106522
 30
0.0
 11
151.176653
 21
277.106522
 31
0.0
  0
LINE
  8
0
  6
CENTER
 62
     1
  5
FE
 10
143.676653
 20
269.606522
 30
0.0
 11
143.676653
 21
284.606522
 31
0.0
  0
LINE
  8
0
  6
CENTER
 62
     1
  5
FF
 10
136.176653
 20
323.606522
 30
0.0
 11
151.176653
 21
323.606522
 31
0.0
  0
LINE
  8
0
  6
CENTER
 62
     1
  5
100
 10
143.676653
 20
316.106522
 30
0.0
 11
143.676653
 21
331.106522
 31
0.0
  0
LINE
  8
0
  6
CENTER
 62
     1
  5
101
 10
159.676653
 20
274.356522
 30
0.0
 11
175.676653
 21
274.356522
 31
0.0
  0
LINE
  8
0
  6
CENTER
 62
     1
  5
102
 10
167.676653
 20
266.356522
 30
0.0
 11
167.676653
 21
282.356522
 31
0.0
  0
LINE
  8
0
  6
CENTER
 62
     1
  5
103
 10
159.676653
 20
326.356522
 30
0.0
 11
175.676653
 21
326.356522
 31
0.0
  0
LINE
  8
0
  6
CENTER
 62
     1
  5
104
 10
167.676653
 20
318.356522
 30
0.0
 11
167.676653
 21
334.356522
 31
0.0
  0
LINE
  8
0
  6
CENTER
 62
     1
  5
105
 10
211.676653
 20
274.356522
 30
0.0
 11
227.676653
 21
274.356522
 31
0.0
  0
LINE
  8
0
  6
CENTER
 62
     1
  5
106
 10
219.676653
 20
266.356522
 30
0.0
 11
219.676653
 21
282.356522
 31
0.0
  0
LINE
  8
0
  6
CENTER
 62
     1
  5
107
 10
211.676653
 20
326.356522
 30
0.0
 11
227.676653
 21
326.356522
 31
0.0
  0
LINE
  8
0
  6
CENTER
 62
     1
  5
108
 10
219.676653
 20
318.356522
 30
0.0
 11
219.676653
 21
334.356522
 31
0.0
  0
LINE
  8
0
  6
CENTER
 62
     1
  5
109
 10
236.176653
 20
277.106522
 30
0.0
 11
251.176653
 21
277.106522
 31
0.0
  0
LINE
  8
0
  6
CENTER
 62
     1
  5
10A
 10
243.676653
 20
269.606522
 30
0.0
 11
243.676653
 21
284.606522
 31
0.0
  0
LINE
  8
0
  6
CENTER
 62
     1
  5
10B
 10
236.176653
 20
323.606522
 30
0.0
 11
251.176653
 21
323.606522
 31
0.0
  0
LINE
  8
0
  6
CENTER
 62
     1
  5
10C
 10
243.676653
 20
316.106522
 30
0.0
 11
243.676653
 21
331.106522
 31
0.0
  0
LINE
  8
0
  6
CENTER
 62
     1
  5
10D
 10
243.676653
 20
138.398282
 30
0.0
 11
243.676653
 21
168.398282
 31
0.0
  0
LINE
  8
0
  6
CENTER
 62
     1
  5
10E
 10
219.676653
 20
149.898282
 30
0.0
 11
219.676653
 21
177.398282
 31
0.0
  0
LINE
  8
0
  6
CENTER
 62
     1
  5
10F
 10
167.676653
 20
149.898282
 30
0.0
 11
167.676653
 21
177.398282
 31
0.0
  0
LINE
  8
0
  6
CENTER
 62
     1
  5
110
 10
143.676653
 20
138.398282
 30
0.0
 11
143.676653
 21
168.398282
 31
0.0
  0
LINE
  8
0
  6
CENTER
 62
     1
  5
111
 10
133.176653
 20
-11.767131
 30
0.0
 11
154.176653
 21
-11.767131
 31
0.0
  0
LINE
  8
0
  6
CENTER
 62
     1
  5
112
 10
143.676653
 20
-22.267131
 30
0.0
 11
143.676653
 21
-1.267131
 31
0.0
  0
LINE
  8
0
  6
CENTER
 62
     1
  5
113
 10
133.176653
 20
34.732869
 30
0.0
 11
154.176653
 21
34.732869
 31
0.0
  0
LINE
  8
0
  6
CENTER
 62
     1
  5
114
 10
143.676653
 20
24.232869
 30
0.0
 11
143.676653
 21
45.232869
 31
0.0
  0
LINE
  8
0
  6
CENTER
 62
     1
  5
115
 10
161.926653
 20
-14.517131
 30
0.0
 11
173.426653
 21
-14.517131
 31
0.0
  0
LINE
  8
0
  6
CENTER
 62
     1
  5
116
 10
167.676653
 20
-20.267131
 30
0.0
 11
167.676653
 21
-8.767131
 31
0.0
  0
LINE
  8
0
  6
CENTER
 62
     1
  5
117
 10
162.176653
 20
11.482869
 30
0.0
 11
173.176653
 21
11.482869
 31
0.0
  0
LINE
  8
0
  6
CENTER
 62
     1
  5
118
 10
167.676653
 20
5.982869
 30
0.0
 11
167.676653
 21
16.982869
 31
0.0
  0
LINE
  8
0
  6
CENTER
 62
     1
  5
119
 10
161.926653
 20
37.482869
 30
0.0
 11
173.426653
 21
37.482869
 31
0.0
  0
LINE
  8
0
  6
CENTER
 62
     1
  5
11A
 10
167.676653
 20
31.732869
 30
0.0
 11
167.676653
 21
43.232869
 31
0.0
  0
LINE
  8
0
  6
CENTER
 62
     1
  5
11B
 10
213.926653
 20
-14.517131
 30
0.0
 11
225.426653
 21
-14.517131
 31
0.0
  0
LINE
  8
0
  6
CENTER
 62
     1
  5
11C
 10
219.676653
 20
-20.267131
 30
0.0
 11
219.676653
 21
-8.767131
 31
0.0
  0
LINE
  8
0
  6
CENTER
 62
     1
  5
11D
 10
214.176653
 20
11.482869
 30
0.0
 11
225.176653
 21
11.482869
 31
0.0
  0
LINE
  8
0
  6
CENTER
 62
     1
  5
11E
 10
219.676653
 20
5.982869
 30
0.0
 11
219.676653
 21
16.982869
 31
0.0
  0
LINE
  8
0
  6
CENTER
 62
     1
  5
11F
 10
213.926653
 20
37.482869
 30
0.0
 11
225.426653
 21
37.482869
 31
0.0
  0
LINE
  8
0
  6
CENTER
 62
     1
  5
120
 10
219.676653
 20
31.732869
 30
0.0
 11
219.676653
 21
43.232869
 31
0.0
  0
LINE
  8
0
  6
CENTER
 62
     1
  5
121
 10
233.176653
 20
-11.767131
 30
0.0
 11
254.176653
 21
-11.767131
 31
0.0
  0
LINE
  8
0
  6
CENTER
 62
     1
  5
122
 10
243.676653
 20
-22.267131
 30
0.0
 11
243.676653
 21
-1.267131
 31
0.0
  0
LINE
  8
0
  6
CENTER
 62
     1
  5
123
 10
233.176653
 20
34.732869
 30
0.0
 11
254.176653
 21
34.732869
 31
0.0
  0
LINE
  8
0
  6
CENTER
 62
     1
  5
124
 10
243.676653
 20
24.232869
 30
0.0
 11
243.676653
 21
45.232869
 31
0.0
  0
LINE
  8
0
  6
CENTER
 62
     1
  5
125
 10
17.860814
 20
150.398282
 30
0.0
 11
17.860814
 21
177.398282
 31
0.0
  0
LINE
  8
0
  6
CENTER
 62
     1
  5
126
 10
15.110814
 20
138.398282
 30
0.0
 11
15.110814
 21
168.398282
 31
0.0
  0
LINE
  8
0
  6
CENTER
 62
     1
  5
127
 10
-8.139186
 20
170.898282
 30
0.0
 11
-8.139186
 21
161.898282
 31
0.0
  0
LINE
  8
0
  6
CENTER
 62
     1
  5
128
 10
-31.389186
 20
138.398282
 30
0.0
 11
-31.389186
 21
168.398282
 31
0.0
  0
LINE
  8
0
  6
CENTER
 62
     1
  5
129
 10
-34.139186
 20
149.898282
 30
0.0
 11
-34.139186
 21
177.398282
 31
0.0
  0
ENDSEC
  0
EOF
