  0
SECTION
  2
HEADER
  9
$ACADVER
  1
AC1009
  9
$DWGCODEPAGE
  3
ansi_1252
  9
$INSBASE
 10
0.0
 20
0.0
 30
0.0
  9
$EXTMIN
 10
-8.781586
 20
-67.313704
 30
0.0
  9
$EXTMAX
 10
313.534253
 20
382.120975
 30
5.0
  9
$LIMMIN
 10
-8.781586
 20
-67.313704
  9
$LIMMAX
 10
313.534253
 20
382.120975
  9
$ORTHOMODE
 70
     0
  9
$REGENMODE
 70
     1
  9
$FILLMODE
 70
     1
  9
$QTEXTMODE
 70
     0
  9
$MIRRTEXT
 70
     1
  9
$DRAGMODE
 70
     2
  9
$LTSCALE
 40
10.0
  9
$OSMODE
 70
     0
  9
$ATTMODE
 70
     1
  9
$TEXTSIZE
 40
0.2
  9
$TRACEWID
 40
0.05
  9
$TEXTSTYLE
  7
STANDARD
  9
$CLAYER
  8
0
  9
$CELTYPE
  6
CONTINUOUS
  9
$CECOLOR
 62
   256
  9
$DIMSCALE
 40
1.0
  9
$DIMASZ
 40
1.25
  9
$DIMEXO
 40
1.0
  9
$DIMDLI
 40
0.38
  9
$DIMRND
 40
0.0
  9
$DIMDLE
 40
0.0
  9
$DIMEXE
 40
0.75
  9
$DIMTP
 40
0.0
  9
$DIMTM
 40
0.0
  9
$DIMTXT
 40
2.5
  9
$DIMCEN
 40
0.09
  9
$DIMTSZ
 40
0.0
  9
$DIMTOL
 70
     0
  9
$DIMLIM
 70
     0
  9
$DIMTIH
 70
     0
  9
$DIMTOH
 70
     0
  9
$DIMSE1
 70
     0
  9
$DIMSE2
 70
     0
  9
$DIMTAD
 70
     1
  9
$DIMZIN
 70
     0
  9
$DIMBLK
  1

  9
$DIMASO
 70
     1
  9
$DIMSHO
 70
     1
  9
$DIMPOST
  1

  9
$DIMAPOST
  1

  9
$DIMALT
 70
     0
  9
$DIMALTD
 70
     2
  9
$DIMALTF
 40
25.4
  9
$DIMLFAC
 40
1.0
  9
$DIMTOFL
 70
     0
  9
$DIMTVP
 40
0.0
  9
$DIMTIX
 70
     0
  9
$DIMSOXD
 70
     0
  9
$DIMSAH
 70
     0
  9
$DIMBLK1
  1

  9
$DIMBLK2
  1

  9
$DIMSTYLE
  2
STANDARD
  9
$DIMCLRD
 70
     7
  9
$DIMCLRE
 70
     7
  9
$DIMCLRT
 70
     7
  9
$DIMTFAC
 40
0.8
  9
$DIMGAP
 40
1.25
  9
$LUNITS
 70
     2
  9
$LUPREC
 70
     4
  9
$AXISMODE
 70
     0
  9
$AXISUNIT
 10
0.0
 20
0.0
  9
$SKETCHINC
 40
0.1
  9
$FILLETRAD
 40
0.0
  9
$AUNITS
 70
     0
  9
$AUPREC
 70
     0
  9
$MENU
  1
acad
  9
$ELEVATION
 40
0.0
  9
$PELEVATION
 40
0.0
  9
$THICKNESS
 40
0.0
  9
$LIMCHECK
 70
     0
  9
$BLIPMODE
 70
     1
  9
$CHAMFERA
 40
0.0
  9
$CHAMFERB
 40
0.0
  9
$SKPOLY
 70
     0
  9
$TDCREATE
 40
2454894.658356482
  9
$TDUPDATE
 40
2454894.616134259
  9
$TDINDWG
 40
0.0000000000
  9
$TDUSRTIMER
 40
0.0000000000
  9
$USRTIMER
 70
     1
  9
$ANGBASE
 50
0.0
  9
$ANGDIR
 70
     0
  9
$PDMODE
 70
     0
  9
$PDSIZE
 40
0.0
  9
$PLINEWID
 40
0.0
  9
$COORDS
 70
     0
  9
$SPLFRAME
 70
     0
  9
$SPLINETYPE
 70
     6
  9
$SPLINESEGS
 70
     8
  9
$ATTDIA
 70
     0
  9
$ATTREQ
 70
     1
  9
$HANDLING
 70
     1
  9
$HANDSEED
  5
117
  9
$SURFTAB1
 70
     6
  9
$SURFTAB2
 70
     6
  9
$SURFTYPE
 70
     6
  9
$SURFU
 70
     6
  9
$SURFV
 70
     6
  9
$UCSNAME
  2

  9
$UCSORG
 10
0.0
 20
0.0
 30
0.0
  9
$UCSXDIR
 10
1.0
 20
0.0
 30
0.0
  9
$UCSYDIR
 10
0.0
 20
1.0
 30
0.0
  9
$PUCSNAME
  2

  9
$PUCSORG
 10
0.0
 20
0.0
 30
0.0
  9
$PUCSXDIR
 10
1.0
 20
0.0
 30
0.0
  9
$PUCSYDIR
 10
0.0
 20
1.0
 30
0.0
  9
$USERI1
 70
     0
  9
$USERI2
 70
     0
  9
$USERI3
 70
     0
  9
$USERI4
 70
     0
  9
$USERI5
 70
     0
  9
$USERR1
 40
0.0
  9
$USERR2
 40
0.0
  9
$USERR3
 40
0.0
  9
$USERR4
 40
0.0
  9
$USERR5
 40
0.0
  9
$WORLDVIEW
 70
     1
  9
$SHADEDGE
 70
     3
  9
$SHADEDIF
 70
    70
  9
$TILEMODE
 70
     1
  9
$MAXACTVP
 70
    16
  9
$PINSBASE
 10
0.0
 20
0.0
 30
0.0
  9
$PLIMCHECK
 70
     0
  9
$PEXTMIN
 10
1.000000E+20
 20
1.000000E+20
 30
1.000000E+20
  9
$PEXTMAX
 10
-1.000000E+20
 20
-1.000000E+20
 30
-1.000000E+20
  9
$PLIMMIN
 10
0.0
 20
0.0
  9
$PLIMMAX
 10
12.0
 20
9.0
  9
$UNITMODE
 70
     0
  9
$VISRETAIN
 70
     0
  9
$PLINEGEN
 70
     1
  9
$PSLTSCALE
 70
     0
  9
$TREEDEPTH
 70
  3020
  0
ENDSEC
  0
SECTION
  2
TABLES
  0
TABLE
  2
VPORT
 70
     1
  0
VPORT
  2
*ACTIVE
 70
     0
 10
0.0
 20
0.0
 11
1.0
 21
1.0
 12
6.591288
 22
4.579184
 13
0.0
 23
0.0
 14
1.0
 24
1.0
 15
0.0
 25
0.0
 16
0.0
 26
0.0
 36
1.0
 17
0.0
 27
0.0
 37
0.0
 40
9.158369
 41
0.688564
 42
50.0
 43
0.0
 44
0.0
 50
0.0
 51
0.0
 71
     0
 72
   100
 73
     1
 74
     1
 75
     0
 76
     0
 77
     0
 78
     0
  0
ENDTAB
  0
TABLE
  2
LTYPE
 70
     2
  0
LTYPE
  2
CONTINUOUS
 70
    64
  3
Solid line
 72
    65
 73
     0
 40
0.0
  0
LTYPE
  2
CENTER
 70
    64
  3
____ _ ____ _ ____ _ ____ _ ____ _ ____ _ ____
 72
    65
 73
     4
 40
2.0
 49
1.25
 49
-0.25
 49
0.25
 49
-0.25
  0
ENDTAB
  0
TABLE
  2
LAYER
 70
     1
  0
LAYER
  2
0
 70
     0
 62
     7
  6
CONTINUOUS
  0
ENDTAB
  0
TABLE
  2
STYLE
 70
     1
  0
STYLE
  2
STANDARD
 70
     0
 40
0.0
 41
1.0
 50
0.0
 71
     0
 42
0.0
  3
IsonormD
  4

  0
ENDTAB
  0
TABLE
  2
VIEW
 70
     0
  0
ENDTAB
  0
TABLE
  2
UCS
 70
     0
  0
ENDTAB
  0
TABLE
  2
APPID
 70
     2
  0
APPID
  2
ACAD
 70
     0
  0
APPID
  2
TopSolid_Draft
 70
     0
  0
ENDTAB
  0
TABLE
  2
DIMSTYLE
 70
     1
  0
DIMSTYLE
  2
STANDARD
 70
     0
  3

  4

  5

  6

  7

 40
1.0
 41
1.25
 42
1.0
 43
0.38
 44
0.75
 45
0.0
 46
0.0
 47
0.0
 48
0.0
 71
     0
 72
     0
 73
     0
 74
     0
 75
     0
 76
     0
 77
     1
 78
     0
140
2.5
141
0.09
142
0.0
143
25.4
144
1.0
145
0.0
146
0.8
147
1.25
170
     0
171
     2
172
     0
173
     0
174
     0
175
     0
176
     7
177
     7
178
     7
  0
ENDTAB
  0
ENDSEC
  0
SECTION
  2
BLOCKS
  0
BLOCK
  8
0
  5
25
  2
AID3
 70
     0
 10
0.0
 20
0.0
 30
0.0
  3
#draft view
  0
LINE
  8
0
  6
CONTINUOUS
 62
     7
  5
26
 10
196.034253
 20
162.062629
 30
0.0
 11
196.034253
 21
150.062629
 31
0.0
  0
LINE
  8
0
  6
CONTINUOUS
 62
     7
  5
27
 10
196.034253
 20
150.062629
 30
0.0
 11
193.034253
 21
150.062629
 31
0.0
  0
LINE
  8
0
  6
CONTINUOUS
 62
     7
  5
28
 10
193.034253
 20
150.062629
 30
0.0
 11
193.034253
 21
162.062629
 31
0.0
  0
LINE
  8
0
  6
CONTINUOUS
 62
     7
  5
29
 10
193.034253
 20
162.062629
 30
0.0
 11
196.034253
 21
162.062629
 31
0.0
  0
LINE
  8
0
  6
CONTINUOUS
 62
     7
  5
2A
 10
310.034253
 20
150.062629
 30
0.0
 11
310.034253
 21
162.062629
 31
0.0
  0
LINE
  8
0
  6
CONTINUOUS
 62
     7
  5
2B
 10
310.034253
 20
150.062629
 30
0.0
 11
196.034253
 21
150.062629
 31
0.0
  0
LINE
  8
0
  6
CONTINUOUS
 62
     7
  5
2C
 10
310.034253
 20
162.062629
 30
0.0
 11
196.034253
 21
162.062629
 31
0.0
  0
LINE
  8
0
  6
CONTINUOUS
 62
     7
  5
2D
 10
313.034253
 20
162.062629
 30
0.0
 11
313.034253
 21
150.062629
 31
0.0
  0
LINE
  8
0
  6
CONTINUOUS
 62
     7
  5
2E
 10
313.034253
 20
150.062629
 30
0.0
 11
310.034253
 21
150.062629
 31
0.0
  0
LINE
  8
0
  6
CONTINUOUS
 62
     7
  5
2F
 10
310.034253
 20
162.062629
 30
0.0
 11
313.034253
 21
162.062629
 31
0.0
  0
LINE
  8
0
  6
CONTINUOUS
 62
     7
  5
30
 10
299.034253
 20
138.187629
 30
0.0
 11
307.034253
 21
138.187629
 31
0.0
  0
LINE
  8
0
  6
CONTINUOUS
 62
     7
  5
31
 10
207.034253
 20
138.187629
 30
0.0
 11
199.034253
 21
138.187629
 31
0.0
  0
LINE
  8
0
  6
CONTINUOUS
 62
     7
  5
32
 10
306.409253
 20
137.562629
 30
0.0
 11
299.659253
 21
137.562629
 31
0.0
  0
LINE
  8
0
  6
CONTINUOUS
 62
     7
  5
33
 10
199.659253
 20
137.562629
 30
0.0
 11
206.409253
 21
137.562629
 31
0.0
  0
LINE
  8
0
  6
CONTINUOUS
 62
     7
  5
34
 10
272.284253
 20
194.062629
 30
0.0
 11
263.784253
 21
194.062629
 31
0.0
  0
LINE
  8
0
  6
CONTINUOUS
 62
     7
  5
35
 10
263.784253
 20
189.062629
 30
0.0
 11
272.284253
 21
189.062629
 31
0.0
  0
LINE
  8
0
  6
CONTINUOUS
 62
     7
  5
36
 10
233.784253
 20
194.062629
 30
0.0
 11
242.284253
 21
194.062629
 31
0.0
  0
LINE
  8
0
  6
CONTINUOUS
 62
     7
  5
37
 10
242.284253
 20
189.062629
 30
0.0
 11
233.784253
 21
189.062629
 31
0.0
  0
LINE
  8
0
  6
CONTINUOUS
 62
     7
  5
38
 10
299.034253
 20
150.062629
 30
0.0
 11
299.034253
 21
138.187629
 31
0.0
  0
LINE
  8
0
  6
CONTINUOUS
 62
     7
  5
39
 10
307.034253
 20
138.187629
 30
0.0
 11
307.034253
 21
150.062629
 31
0.0
  0
LINE
  8
0
  6
CONTINUOUS
 62
     7
  5
3A
 10
199.034253
 20
150.062629
 30
0.0
 11
199.034253
 21
138.187629
 31
0.0
  0
LINE
  8
0
  6
CONTINUOUS
 62
     7
  5
3B
 10
207.034253
 20
138.187629
 30
0.0
 11
207.034253
 21
150.062629
 31
0.0
  0
LINE
  8
0
  6
CONTINUOUS
 62
     7
  5
3C
 10
299.034253
 20
138.187629
 30
0.0
 11
299.659253
 21
137.562629
 31
0.0
  0
LINE
  8
0
  6
CONTINUOUS
 62
     7
  5
3D
 10
306.409253
 20
137.562629
 30
0.0
 11
307.034253
 21
138.187629
 31
0.0
  0
LINE
  8
0
  6
CONTINUOUS
 62
     7
  5
3E
 10
199.034253
 20
138.187629
 30
0.0
 11
199.659253
 21
137.562629
 31
0.0
  0
LINE
  8
0
  6
CONTINUOUS
 62
     7
  5
3F
 10
206.409253
 20
137.562629
 30
0.0
 11
207.034253
 21
138.187629
 31
0.0
  0
LINE
  8
0
  6
CONTINUOUS
 62
     7
  5
40
 10
272.284253
 20
189.062629
 30
0.0
 11
272.284253
 21
194.062629
 31
0.0
  0
LINE
  8
0
  6
CONTINUOUS
 62
     7
  5
41
 10
263.784253
 20
194.062629
 30
0.0
 11
263.784253
 21
189.062629
 31
0.0
  0
LINE
  8
0
  6
CONTINUOUS
 62
     7
  5
42
 10
242.284253
 20
189.062629
 30
0.0
 11
242.284253
 21
194.062629
 31
0.0
  0
LINE
  8
0
  6
CONTINUOUS
 62
     7
  5
43
 10
233.784253
 20
194.062629
 30
0.0
 11
233.784253
 21
189.062629
 31
0.0
  0
LINE
  8
0
  6
CONTINUOUS
 62
     7
  5
44
 10
235.534253
 20
189.062629
 30
0.0
 11
235.534253
 21
162.062629
 31
0.0
  0
LINE
  8
0
  6
CONTINUOUS
 62
     7
  5
45
 10
240.534253
 20
162.062629
 30
0.0
 11
240.534253
 21
189.062629
 31
0.0
  0
LINE
  8
0
  6
CONTINUOUS
 62
     7
  5
46
 10
265.534253
 20
189.062629
 30
0.0
 11
265.534253
 21
162.062629
 31
0.0
  0
LINE
  8
0
  6
CONTINUOUS
 62
     7
  5
47
 10
270.534253
 20
162.062629
 30
0.0
 11
270.534253
 21
189.062629
 31
0.0
  0
ENDBLK
  8
0
  5
48
  0
BLOCK
  8
0
  5
4B
  2
AID75
 70
     0
 10
0.0
 20
0.0
 30
0.0
  3
#auxiliary draft view
  0
CIRCLE
  8
0
  6
CONTINUOUS
 62
     7
  5
4C
 10
303.034253
 20
345.370975
 30
0.0
 40
3.375
210
0.0
220
0.0
230
1.0
  0
CIRCLE
  8
0
  6
CONTINUOUS
 62
     7
  5
4D
 10
203.034253
 20
345.370975
 30
0.0
 40
3.375
210
0.0
220
0.0
230
1.0
  0
CIRCLE
  8
0
  6
CONTINUOUS
 62
     7
  5
4E
 10
203.034253
 20
345.370975
 30
0.0
 40
4.0
210
0.0
220
0.0
230
1.0
  0
CIRCLE
  8
0
  6
CONTINUOUS
 62
     7
  5
4F
 10
303.034253
 20
345.370975
 30
0.0
 40
4.0
210
0.0
220
0.0
230
1.0
  0
CIRCLE
  8
0
  6
CONTINUOUS
 62
     7
  5
50
 10
203.034253
 20
298.870975
 30
0.0
 40
3.375
210
0.0
220
0.0
230
1.0
  0
CIRCLE
  8
0
  6
CONTINUOUS
 62
     7
  5
51
 10
203.034253
 20
298.870975
 30
0.0
 40
4.0
210
0.0
220
0.0
230
1.0
  0
CIRCLE
  8
0
  6
CONTINUOUS
 62
     7
  5
52
 10
303.034253
 20
298.870975
 30
0.0
 40
3.375
210
0.0
220
0.0
230
1.0
  0
CIRCLE
  8
0
  6
CONTINUOUS
 62
     7
  5
53
 10
303.034253
 20
298.870975
 30
0.0
 40
4.0
210
0.0
220
0.0
230
1.0
  0
CIRCLE
  8
0
  6
CONTINUOUS
 62
     7
  5
54
 10
303.034253
 20
298.870975
 30
0.0
 40
4.5
210
0.0
220
0.0
230
1.0
  0
CIRCLE
  8
0
  6
CONTINUOUS
 62
     7
  5
55
 10
203.034253
 20
298.870975
 30
0.0
 40
4.5
210
0.0
220
0.0
230
1.0
  0
CIRCLE
  8
0
  6
CONTINUOUS
 62
     7
  5
56
 10
303.034253
 20
345.370975
 30
0.0
 40
4.5
210
0.0
220
0.0
230
1.0
  0
CIRCLE
  8
0
  6
CONTINUOUS
 62
     7
  5
57
 10
203.034253
 20
345.370975
 30
0.0
 40
4.5
210
0.0
220
0.0
230
1.0
  0
CIRCLE
  8
0
  6
CONTINUOUS
 62
     7
  5
58
 10
268.034253
 20
307.120975
 30
0.0
 40
2.5
210
0.0
220
0.0
230
1.0
  0
CIRCLE
  8
0
  6
CONTINUOUS
 62
     7
  5
59
 10
238.034253
 20
307.120975
 30
0.0
 40
2.5
210
0.0
220
0.0
230
1.0
  0
CIRCLE
  8
0
  6
CONTINUOUS
 62
     7
  5
5A
 10
268.034253
 20
337.120975
 30
0.0
 40
2.5
210
0.0
220
0.0
230
1.0
  0
CIRCLE
  8
0
  6
CONTINUOUS
 62
     7
  5
5B
 10
238.034253
 20
337.120975
 30
0.0
 40
2.5
210
0.0
220
0.0
230
1.0
  0
LINE
  8
0
  6
CONTINUOUS
 62
     7
  5
5C
 10
313.034253
 20
265.120975
 30
0.0
 11
313.034253
 21
379.120975
 31
0.0
  0
LINE
  8
0
  6
CONTINUOUS
 62
     7
  5
5D
 10
310.034253
 20
262.120975
 30
0.0
 11
313.034253
 21
265.120975
 31
0.0
  0
LINE
  8
0
  6
CONTINUOUS
 62
     7
  5
5E
 10
196.034253
 20
262.120975
 30
0.0
 11
310.034253
 21
262.120975
 31
0.0
  0
LINE
  8
0
  6
CONTINUOUS
 62
     7
  5
5F
 10
193.034253
 20
265.120975
 30
0.0
 11
196.034253
 21
262.120975
 31
0.0
  0
LINE
  8
0
  6
CONTINUOUS
 62
     7
  5
60
 10
193.034253
 20
379.120975
 30
0.0
 11
193.034253
 21
265.120975
 31
0.0
  0
LINE
  8
0
  6
CONTINUOUS
 62
     7
  5
61
 10
196.034253
 20
382.120975
 30
0.0
 11
193.034253
 21
379.120975
 31
0.0
  0
LINE
  8
0
  6
CONTINUOUS
 62
     7
  5
62
 10
310.034253
 20
382.120975
 30
0.0
 11
196.034253
 21
382.120975
 31
0.0
  0
LINE
  8
0
  6
CONTINUOUS
 62
     7
  5
63
 10
313.034253
 20
379.120975
 30
0.0
 11
310.034253
 21
382.120975
 31
0.0
  0
CIRCLE
  8
0
  6
CONTINUOUS
 62
     7
  5
64
 10
268.034253
 20
337.120975
 30
0.0
 40
2.067
210
0.0
220
0.0
230
1.0
  0
CIRCLE
  8
0
  6
CONTINUOUS
 62
     7
  5
65
 10
238.034253
 20
337.120975
 30
0.0
 40
2.067
210
0.0
220
0.0
230
1.0
  0
CIRCLE
  8
0
  6
CONTINUOUS
 62
     7
  5
66
 10
268.034253
 20
307.120975
 30
0.0
 40
2.067
210
0.0
220
0.0
230
1.0
  0
CIRCLE
  8
0
  6
CONTINUOUS
 62
     7
  5
67
 10
238.034253
 20
307.120975
 30
0.0
 40
2.067
210
0.0
220
0.0
230
1.0
  0
ENDBLK
  8
0
  5
68
  0
BLOCK
  8
0
  5
6B
  2
AID135
 70
     0
 10
0.0
 20
0.0
 30
0.0
  3
#auxiliary draft view
  0
LINE
  8
0
  6
CONTINUOUS
 62
     7
  5
6C
 10
268.034253
 20
-24.623105
 30
0.0
 11
266.034253
 21
-23.468405
 31
0.0
  0
LINE
  8
0
  6
CONTINUOUS
 62
     7
  5
6D
 10
270.034253
 20
-23.468405
 30
0.0
 11
268.034253
 21
-24.623105
 31
0.0
  0
LINE
  8
0
  6
CONTINUOUS
 62
     7
  5
6E
 10
270.034253
 20
-21.159004
 30
0.0
 11
270.034253
 21
-23.468405
 31
0.0
  0
LINE
  8
0
  6
CONTINUOUS
 62
     7
  5
6F
 10
268.034253
 20
-20.004303
 30
0.0
 11
270.034253
 21
-21.159004
 31
0.0
  0
LINE
  8
0
  6
CONTINUOUS
 62
     7
  5
70
 10
266.034253
 20
-21.159004
 30
0.0
 11
268.034253
 21
-20.004303
 31
0.0
  0
LINE
  8
0
  6
CONTINUOUS
 62
     7
  5
71
 10
266.034253
 20
-23.468405
 30
0.0
 11
266.034253
 21
-21.159004
 31
0.0
  0
CIRCLE
  8
0
  6
CONTINUOUS
 62
     7
  5
72
 10
268.034253
 20
-22.313704
 30
0.0
 40
4.25
210
0.0
220
0.0
230
1.0
  0
LINE
  8
0
  6
CONTINUOUS
 62
     7
  5
73
 10
240.034253
 20
8.840996
 30
0.0
 11
240.034253
 21
6.531595
 31
0.0
  0
CIRCLE
  8
0
  6
CONTINUOUS
 62
     7
  5
74
 10
238.034253
 20
7.686296
 30
0.0
 40
4.25
210
0.0
220
0.0
230
1.0
  0
LINE
  8
0
  6
CONTINUOUS
 62
     7
  5
75
 10
238.034253
 20
9.995697
 30
0.0
 11
240.034253
 21
8.840996
 31
0.0
  0
LINE
  8
0
  6
CONTINUOUS
 62
     7
  5
76
 10
236.034253
 20
8.840996
 30
0.0
 11
238.034253
 21
9.995697
 31
0.0
  0
LINE
  8
0
  6
CONTINUOUS
 62
     7
  5
77
 10
236.034253
 20
6.531595
 30
0.0
 11
236.034253
 21
8.840996
 31
0.0
  0
LINE
  8
0
  6
CONTINUOUS
 62
     7
  5
78
 10
238.034253
 20
5.376895
 30
0.0
 11
236.034253
 21
6.531595
 31
0.0
  0
LINE
  8
0
  6
CONTINUOUS
 62
     7
  5
79
 10
240.034253
 20
6.531595
 30
0.0
 11
238.034253
 21
5.376895
 31
0.0
  0
LINE
  8
0
  6
CONTINUOUS
 62
     7
  5
7A
 10
266.034253
 20
8.840996
 30
0.0
 11
266.034253
 21
6.531595
 31
0.0
  0
LINE
  8
0
  6
CONTINUOUS
 62
     7
  5
7B
 10
270.034253
 20
8.840996
 30
0.0
 11
268.034253
 21
9.995697
 31
0.0
  0
CIRCLE
  8
0
  6
CONTINUOUS
 62
     7
  5
7C
 10
268.034253
 20
7.686296
 30
0.0
 40
4.25
210
0.0
220
0.0
230
1.0
  0
LINE
  8
0
  6
CONTINUOUS
 62
     7
  5
7D
 10
268.034253
 20
9.995697
 30
0.0
 11
266.034253
 21
8.840996
 31
0.0
  0
LINE
  8
0
  6
CONTINUOUS
 62
     7
  5
7E
 10
270.034253
 20
6.531595
 30
0.0
 11
270.034253
 21
8.840996
 31
0.0
  0
LINE
  8
0
  6
CONTINUOUS
 62
     7
  5
7F
 10
266.034253
 20
6.531595
 30
0.0
 11
268.034253
 21
5.376895
 31
0.0
  0
LINE
  8
0
  6
CONTINUOUS
 62
     7
  5
80
 10
268.034253
 20
5.376895
 30
0.0
 11
270.034253
 21
6.531595
 31
0.0
  0
LINE
  8
0
  6
CONTINUOUS
 62
     7
  5
81
 10
240.034253
 20
-23.468405
 30
0.0
 11
240.034253
 21
-21.159004
 31
0.0
  0
LINE
  8
0
  6
CONTINUOUS
 62
     7
  5
82
 10
240.034253
 20
-21.159004
 30
0.0
 11
238.034253
 21
-20.004303
 31
0.0
  0
LINE
  8
0
  6
CONTINUOUS
 62
     7
  5
83
 10
238.034253
 20
-20.004303
 30
0.0
 11
236.034253
 21
-21.159004
 31
0.0
  0
LINE
  8
0
  6
CONTINUOUS
 62
     7
  5
84
 10
236.034253
 20
-21.159004
 30
0.0
 11
236.034253
 21
-23.468405
 31
0.0
  0
LINE
  8
0
  6
CONTINUOUS
 62
     7
  5
85
 10
238.034253
 20
-24.623105
 30
0.0
 11
240.034253
 21
-23.468405
 31
0.0
  0
LINE
  8
0
  6
CONTINUOUS
 62
     7
  5
86
 10
236.034253
 20
-23.468405
 30
0.0
 11
238.034253
 21
-24.623105
 31
0.0
  0
CIRCLE
  8
0
  6
CONTINUOUS
 62
     7
  5
87
 10
238.034253
 20
-22.313704
 30
0.0
 40
4.25
210
0.0
220
0.0
230
1.0
  0
CIRCLE
  8
0
  6
CONTINUOUS
 62
     7
  5
88
 10
268.034253
 20
-7.313704
 30
0.0
 40
2.5
210
0.0
220
0.0
230
1.0
  0
CIRCLE
  8
0
  6
CONTINUOUS
 62
     7
  5
89
 10
238.034253
 20
-7.313704
 30
0.0
 40
2.5
210
0.0
220
0.0
230
1.0
  0
CIRCLE
  8
0
  6
CONTINUOUS
 62
     7
  5
8A
 10
203.034253
 20
15.936296
 30
0.0
 40
7.5
210
0.0
220
0.0
230
1.0
  0
LINE
  8
0
  6
CONTINUOUS
 62
     7
  5
8B
 10
313.034253
 20
49.686296
 30
0.0
 11
313.034253
 21
-64.313704
 31
0.0
  0
LINE
  8
0
  6
CONTINUOUS
 62
     7
  5
8C
 10
196.034253
 20
52.686296
 30
0.0
 11
310.034253
 21
52.686296
 31
0.0
  0
LINE
  8
0
  6
CONTINUOUS
 62
     7
  5
8D
 10
310.034253
 20
-67.313704
 30
0.0
 11
313.034253
 21
-64.313704
 31
0.0
  0
LINE
  8
0
  6
CONTINUOUS
 62
     7
  5
8E
 10
193.034253
 20
-64.313704
 30
0.0
 11
196.034253
 21
-67.313704
 31
0.0
  0
CIRCLE
  8
0
  6
CONTINUOUS
 62
     7
  5
8F
 10
203.034253
 20
-30.563704
 30
0.0
 40
7.5
210
0.0
220
0.0
230
1.0
  0
LINE
  8
0
  6
CONTINUOUS
 62
     7
  5
90
 10
310.034253
 20
-67.313704
 30
0.0
 11
196.034253
 21
-67.313704
 31
0.0
  0
CIRCLE
  8
0
  6
CONTINUOUS
 62
     7
  5
91
 10
303.034253
 20
-30.563704
 30
0.0
 40
7.5
210
0.0
220
0.0
230
1.0
  0
LINE
  8
0
  6
CONTINUOUS
 62
     7
  5
92
 10
193.034253
 20
-64.313704
 30
0.0
 11
193.034253
 21
49.686296
 31
0.0
  0
LINE
  8
0
  6
CONTINUOUS
 62
     7
  5
93
 10
313.034253
 20
49.686296
 30
0.0
 11
310.034253
 21
52.686296
 31
0.0
  0
LINE
  8
0
  6
CONTINUOUS
 62
     7
  5
94
 10
196.034253
 20
52.686296
 30
0.0
 11
193.034253
 21
49.686296
 31
0.0
  0
CIRCLE
  8
0
  6
CONTINUOUS
 62
     7
  5
95
 10
303.034253
 20
15.936296
 30
0.0
 40
7.5
210
0.0
220
0.0
230
1.0
  0
LINE
  8
0
  6
CONTINUOUS
 62
     7
  5
96
 10
200.034253
 20
17.668347
 30
0.0
 11
203.034253
 21
19.400397
 31
0.0
  0
LINE
  8
0
  6
CONTINUOUS
 62
     7
  5
97
 10
200.034253
 20
14.204245
 30
0.0
 11
200.034253
 21
17.668347
 31
0.0
  0
LINE
  8
0
  6
CONTINUOUS
 62
     7
  5
98
 10
203.034253
 20
12.472194
 30
0.0
 11
200.034253
 21
14.204245
 31
0.0
  0
LINE
  8
0
  6
CONTINUOUS
 62
     7
  5
99
 10
206.034253
 20
17.668347
 30
0.0
 11
206.034253
 21
14.204245
 31
0.0
  0
LINE
  8
0
  6
CONTINUOUS
 62
     7
  5
9A
 10
203.034253
 20
19.400397
 30
0.0
 11
206.034253
 21
17.668347
 31
0.0
  0
CIRCLE
  8
0
  6
CONTINUOUS
 62
     7
  5
9B
 10
203.034253
 20
15.936296
 30
0.0
 40
6.5
210
0.0
220
0.0
230
1.0
  0
LINE
  8
0
  6
CONTINUOUS
 62
     7
  5
9C
 10
206.034253
 20
14.204245
 30
0.0
 11
203.034253
 21
12.472194
 31
0.0
  0
LINE
  8
0
  6
CONTINUOUS
 62
     7
  5
9D
 10
306.034253
 20
-32.295755
 30
0.0
 11
303.034253
 21
-34.027806
 31
0.0
  0
LINE
  8
0
  6
CONTINUOUS
 62
     7
  5
9E
 10
306.034253
 20
-28.831653
 30
0.0
 11
306.034253
 21
-32.295755
 31
0.0
  0
LINE
  8
0
  6
CONTINUOUS
 62
     7
  5
9F
 10
303.034253
 20
-27.099603
 30
0.0
 11
306.034253
 21
-28.831653
 31
0.0
  0
LINE
  8
0
  6
CONTINUOUS
 62
     7
  5
A0
 10
303.034253
 20
-34.027806
 30
0.0
 11
300.034253
 21
-32.295755
 31
0.0
  0
CIRCLE
  8
0
  6
CONTINUOUS
 62
     7
  5
A1
 10
303.034253
 20
-30.563704
 30
0.0
 40
6.5
210
0.0
220
0.0
230
1.0
  0
LINE
  8
0
  6
CONTINUOUS
 62
     7
  5
A2
 10
300.034253
 20
-32.295755
 30
0.0
 11
300.034253
 21
-28.831653
 31
0.0
  0
LINE
  8
0
  6
CONTINUOUS
 62
     7
  5
A3
 10
300.034253
 20
-28.831653
 30
0.0
 11
303.034253
 21
-27.099603
 31
0.0
  0
LINE
  8
0
  6
CONTINUOUS
 62
     7
  5
A4
 10
206.034253
 20
-32.295755
 30
0.0
 11
206.034253
 21
-28.831653
 31
0.0
  0
LINE
  8
0
  6
CONTINUOUS
 62
     7
  5
A5
 10
206.034253
 20
-28.831653
 30
0.0
 11
203.034253
 21
-27.099603
 31
0.0
  0
LINE
  8
0
  6
CONTINUOUS
 62
     7
  5
A6
 10
203.034253
 20
-34.027806
 30
0.0
 11
206.034253
 21
-32.295755
 31
0.0
  0
CIRCLE
  8
0
  6
CONTINUOUS
 62
     7
  5
A7
 10
203.034253
 20
-30.563704
 30
0.0
 40
6.5
210
0.0
220
0.0
230
1.0
  0
LINE
  8
0
  6
CONTINUOUS
 62
     7
  5
A8
 10
203.034253
 20
-27.099603
 30
0.0
 11
200.034253
 21
-28.831653
 31
0.0
  0
LINE
  8
0
  6
CONTINUOUS
 62
     7
  5
A9
 10
200.034253
 20
-32.295755
 30
0.0
 11
203.034253
 21
-34.027806
 31
0.0
  0
LINE
  8
0
  6
CONTINUOUS
 62
     7
  5
AA
 10
200.034253
 20
-28.831653
 30
0.0
 11
200.034253
 21
-32.295755
 31
0.0
  0
LINE
  8
0
  6
CONTINUOUS
 62
     7
  5
AB
 10
300.034253
 20
17.668347
 30
0.0
 11
300.034253
 21
14.204245
 31
0.0
  0
LINE
  8
0
  6
CONTINUOUS
 62
     7
  5
AC
 10
306.034253
 20
17.668347
 30
0.0
 11
303.034253
 21
19.400397
 31
0.0
  0
LINE
  8
0
  6
CONTINUOUS
 62
     7
  5
AD
 10
300.034253
 20
14.204245
 30
0.0
 11
303.034253
 21
12.472194
 31
0.0
  0
LINE
  8
0
  6
CONTINUOUS
 62
     7
  5
AE
 10
303.034253
 20
12.472194
 30
0.0
 11
306.034253
 21
14.204245
 31
0.0
  0
LINE
  8
0
  6
CONTINUOUS
 62
     7
  5
AF
 10
306.034253
 20
14.204245
 30
0.0
 11
306.034253
 21
17.668347
 31
0.0
  0
CIRCLE
  8
0
  6
CONTINUOUS
 62
     7
  5
B0
 10
303.034253
 20
15.936296
 30
0.0
 40
6.5
210
0.0
220
0.0
230
1.0
  0
LINE
  8
0
  6
CONTINUOUS
 62
     7
  5
B1
 10
303.034253
 20
19.400397
 30
0.0
 11
300.034253
 21
17.668347
 31
0.0
  0
ENDBLK
  8
0
  5
B2
  0
BLOCK
  8
0
  5
B5
  2
AID279
 70
     0
 10
0.0
 20
0.0
 30
0.0
  3
#auxiliary draft view
  0
LINE
  8
0
  6
CONTINUOUS
 62
     7
  5
B6
 10
108.218414
 20
150.062629
 30
0.0
 11
108.218414
 21
162.062629
 31
0.0
  0
LINE
  8
0
  6
CONTINUOUS
 62
     7
  5
B7
 10
108.218414
 20
150.062629
 30
0.0
 11
-5.781586
 21
150.062629
 31
0.0
  0
LINE
  8
0
  6
CONTINUOUS
 62
     7
  5
B8
 10
-5.781586
 20
162.062629
 30
0.0
 11
-5.781586
 21
150.062629
 31
0.0
  0
LINE
  8
0
  6
CONTINUOUS
 62
     7
  5
B9
 10
108.218414
 20
162.062629
 30
0.0
 11
-5.781586
 21
162.062629
 31
0.0
  0
LINE
  8
0
  6
CONTINUOUS
 62
     7
  5
BA
 10
-5.781586
 20
150.062629
 30
0.0
 11
-8.781586
 21
150.062629
 31
0.0
  0
LINE
  8
0
  6
CONTINUOUS
 62
     7
  5
BB
 10
-8.781586
 20
150.062629
 30
0.0
 11
-8.781586
 21
162.062629
 31
0.0
  0
LINE
  8
0
  6
CONTINUOUS
 62
     7
  5
BC
 10
-8.781586
 20
162.062629
 30
0.0
 11
-5.781586
 21
162.062629
 31
0.0
  0
LINE
  8
0
  6
CONTINUOUS
 62
     7
  5
BD
 10
111.218414
 20
162.062629
 30
0.0
 11
111.218414
 21
150.062629
 31
0.0
  0
LINE
  8
0
  6
CONTINUOUS
 62
     7
  5
BE
 10
111.218414
 20
150.062629
 30
0.0
 11
108.218414
 21
150.062629
 31
0.0
  0
LINE
  8
0
  6
CONTINUOUS
 62
     7
  5
BF
 10
108.218414
 20
162.062629
 30
0.0
 11
111.218414
 21
162.062629
 31
0.0
  0
LINE
  8
0
  6
CONTINUOUS
 62
     7
  5
C0
 10
31.343414
 20
137.562629
 30
0.0
 11
27.968414
 21
137.562629
 31
0.0
  0
LINE
  8
0
  6
CONTINUOUS
 62
     7
  5
C1
 10
23.968414
 20
138.187629
 30
0.0
 11
27.968414
 21
138.187629
 31
0.0
  0
LINE
  8
0
  6
CONTINUOUS
 62
     7
  5
C2
 10
27.968414
 20
137.562629
 30
0.0
 11
24.593414
 21
137.562629
 31
0.0
  0
LINE
  8
0
  6
CONTINUOUS
 62
     7
  5
C3
 10
27.968414
 20
138.187629
 30
0.0
 11
31.968414
 21
138.187629
 31
0.0
  0
LINE
  8
0
  6
CONTINUOUS
 62
     7
  5
C4
 10
78.468414
 20
138.187629
 30
0.0
 11
74.468414
 21
138.187629
 31
0.0
  0
LINE
  8
0
  6
CONTINUOUS
 62
     7
  5
C5
 10
74.468414
 20
138.187629
 30
0.0
 11
70.468414
 21
138.187629
 31
0.0
  0
LINE
  8
0
  6
CONTINUOUS
 62
     7
  5
C6
 10
71.093414
 20
137.562629
 30
0.0
 11
74.468414
 21
137.562629
 31
0.0
  0
LINE
  8
0
  6
CONTINUOUS
 62
     7
  5
C7
 10
74.468414
 20
137.562629
 30
0.0
 11
77.843414
 21
137.562629
 31
0.0
  0
LINE
  8
0
  6
CONTINUOUS
 62
     7
  5
C8
 10
40.468414
 20
194.062629
 30
0.0
 11
36.218414
 21
194.062629
 31
0.0
  0
LINE
  8
0
  6
CONTINUOUS
 62
     7
  5
C9
 10
31.968414
 20
189.062629
 30
0.0
 11
40.468414
 21
189.062629
 31
0.0
  0
LINE
  8
0
  6
CONTINUOUS
 62
     7
  5
CA
 10
36.218414
 20
194.062629
 30
0.0
 11
31.968414
 21
194.062629
 31
0.0
  0
LINE
  8
0
  6
CONTINUOUS
 62
     7
  5
CB
 10
61.968414
 20
194.062629
 30
0.0
 11
66.218414
 21
194.062629
 31
0.0
  0
LINE
  8
0
  6
CONTINUOUS
 62
     7
  5
CC
 10
70.468414
 20
189.062629
 30
0.0
 11
61.968414
 21
189.062629
 31
0.0
  0
LINE
  8
0
  6
CONTINUOUS
 62
     7
  5
CD
 10
66.218414
 20
194.062629
 30
0.0
 11
70.468414
 21
194.062629
 31
0.0
  0
LINE
  8
0
  6
CONTINUOUS
 62
     7
  5
CE
 10
48.718414
 20
164.412629
 30
0.0
 11
53.718414
 21
164.412629
 31
0.0
  0
LINE
  8
0
  6
CONTINUOUS
 62
     7
  5
CF
 10
23.968414
 20
138.187629
 30
0.0
 11
24.593414
 21
137.562629
 31
0.0
  0
LINE
  8
0
  6
CONTINUOUS
 62
     7
  5
D0
 10
31.343414
 20
137.562629
 30
0.0
 11
31.968414
 21
138.187629
 31
0.0
  0
LINE
  8
0
  6
CONTINUOUS
 62
     7
  5
D1
 10
23.968414
 20
150.062629
 30
0.0
 11
23.968414
 21
138.187629
 31
0.0
  0
LINE
  8
0
  6
CONTINUOUS
 62
     7
  5
D2
 10
31.968414
 20
138.187629
 30
0.0
 11
31.968414
 21
150.062629
 31
0.0
  0
LINE
  8
0
  6
CONTINUOUS
 62
     7
  5
D3
 10
70.468414
 20
150.062629
 30
0.0
 11
70.468414
 21
138.187629
 31
0.0
  0
LINE
  8
0
  6
CONTINUOUS
 62
     7
  5
D4
 10
78.468414
 20
138.187629
 30
0.0
 11
78.468414
 21
150.062629
 31
0.0
  0
LINE
  8
0
  6
CONTINUOUS
 62
     7
  5
D5
 10
70.468414
 20
138.187629
 30
0.0
 11
71.093414
 21
137.562629
 31
0.0
  0
LINE
  8
0
  6
CONTINUOUS
 62
     7
  5
D6
 10
77.843414
 20
137.562629
 30
0.0
 11
78.468414
 21
138.187629
 31
0.0
  0
LINE
  8
0
  6
CONTINUOUS
 62
     7
  5
D7
 10
40.468414
 20
189.062629
 30
0.0
 11
40.468414
 21
194.062629
 31
0.0
  0
LINE
  8
0
  6
CONTINUOUS
 62
     7
  5
D8
 10
31.968414
 20
194.062629
 30
0.0
 11
31.968414
 21
189.062629
 31
0.0
  0
LINE
  8
0
  6
CONTINUOUS
 62
     7
  5
D9
 10
70.468414
 20
189.062629
 30
0.0
 11
70.468414
 21
194.062629
 31
0.0
  0
LINE
  8
0
  6
CONTINUOUS
 62
     7
  5
DA
 10
61.968414
 20
194.062629
 30
0.0
 11
61.968414
 21
189.062629
 31
0.0
  0
ARC
  8
0
  6
CONTINUOUS
 62
     7
  5
DB
 10
51.252945
 20
160.062748
 30
0.0
 40
5.0
 50
60.455868
 51
90.0
210
0.0
220
0.0
230
1.0
  0
ARC
  8
0
  6
CONTINUOUS
 62
     7
  5
DC
 10
51.183883
 20
160.062748
 30
0.0
 40
5.0
 50
90.0
 51
119.544132
210
0.0
220
0.0
230
1.0
  0
LINE
  8
0
  6
CONTINUOUS
 62
     7
  5
DD
 10
51.252945
 20
165.062748
 30
0.0
 11
51.183883
 21
165.062748
 31
0.0
  0
LINE
  8
0
  6
CONTINUOUS
 62
     7
  5
DE
 10
48.718414
 20
164.412629
 30
0.0
 11
48.718414
 21
162.062629
 31
0.0
  0
LINE
  8
0
  6
CONTINUOUS
 62
     7
  5
DF
 10
53.718414
 20
162.062629
 30
0.0
 11
53.718414
 21
164.412629
 31
0.0
  0
LINE
  8
0
  6
CONTINUOUS
 62
     7
  5
E0
 10
33.718414
 20
189.062629
 30
0.0
 11
33.718414
 21
162.062629
 31
0.0
  0
LINE
  8
0
  6
CONTINUOUS
 62
     7
  5
E1
 10
38.718414
 20
162.062629
 30
0.0
 11
38.718414
 21
189.062629
 31
0.0
  0
LINE
  8
0
  6
CONTINUOUS
 62
     7
  5
E2
 10
63.718414
 20
189.062629
 30
0.0
 11
63.718414
 21
162.062629
 31
0.0
  0
LINE
  8
0
  6
CONTINUOUS
 62
     7
  5
E3
 10
68.718414
 20
162.062629
 30
0.0
 11
68.718414
 21
189.062629
 31
0.0
  0
ENDBLK
  8
0
  5
E4
  0
ENDSEC
  0
SECTION
  2
ENTITIES
  0
INSERT
  8
0
  5
49
  2
AID3
 10
0.0
 20
0.0
 30
0.0
  0
INSERT
  8
0
  5
69
  2
AID75
 10
0.0
 20
0.0
 30
0.0
  0
INSERT
  8
0
  5
B3
  2
AID135
 10
0.0
 20
0.0
 30
0.0
  0
INSERT
  8
0
  5
E5
  2
AID279
 10
0.0
 20
0.0
 30
0.0
  0
LINE
  8
0
  6
CENTER
 62
     1
  5
E7
 10
195.534253
 20
298.870975
 30
0.0
 11
210.534253
 21
298.870975
 31
0.0
  0
LINE
  8
0
  6
CENTER
 62
     1
  5
E8
 10
203.034253
 20
291.370975
 30
0.0
 11
203.034253
 21
306.370975
 31
0.0
  0
LINE
  8
0
  6
CENTER
 62
     1
  5
E9
 10
195.534253
 20
345.370975
 30
0.0
 11
210.534253
 21
345.370975
 31
0.0
  0
LINE
  8
0
  6
CENTER
 62
     1
  5
EA
 10
203.034253
 20
337.870975
 30
0.0
 11
203.034253
 21
352.870975
 31
0.0
  0
LINE
  8
0
  6
CENTER
 62
     1
  5
EB
 10
232.534253
 20
307.120975
 30
0.0
 11
243.534253
 21
307.120975
 31
0.0
  0
LINE
  8
0
  6
CENTER
 62
     1
  5
EC
 10
238.034253
 20
301.620975
 30
0.0
 11
238.034253
 21
312.620975
 31
0.0
  0
LINE
  8
0
  6
CENTER
 62
     1
  5
ED
 10
232.534253
 20
337.120975
 30
0.0
 11
243.534253
 21
337.120975
 31
0.0
  0
LINE
  8
0
  6
CENTER
 62
     1
  5
EE
 10
238.034253
 20
331.620975
 30
0.0
 11
238.034253
 21
342.620975
 31
0.0
  0
LINE
  8
0
  6
CENTER
 62
     1
  5
EF
 10
262.534253
 20
307.120975
 30
0.0
 11
273.534253
 21
307.120975
 31
0.0
  0
LINE
  8
0
  6
CENTER
 62
     1
  5
F0
 10
268.034253
 20
301.620975
 30
0.0
 11
268.034253
 21
312.620975
 31
0.0
  0
LINE
  8
0
  6
CENTER
 62
     1
  5
F1
 10
262.534253
 20
337.120975
 30
0.0
 11
273.534253
 21
337.120975
 31
0.0
  0
LINE
  8
0
  6
CENTER
 62
     1
  5
F2
 10
268.034253
 20
331.620975
 30
0.0
 11
268.034253
 21
342.620975
 31
0.0
  0
LINE
  8
0
  6
CENTER
 62
     1
  5
F3
 10
295.534253
 20
298.870975
 30
0.0
 11
310.534253
 21
298.870975
 31
0.0
  0
LINE
  8
0
  6
CENTER
 62
     1
  5
F4
 10
303.034253
 20
291.370975
 30
0.0
 11
303.034253
 21
306.370975
 31
0.0
  0
LINE
  8
0
  6
CENTER
 62
     1
  5
F5
 10
295.534253
 20
345.370975
 30
0.0
 11
310.534253
 21
345.370975
 31
0.0
  0
LINE
  8
0
  6
CENTER
 62
     1
  5
F6
 10
303.034253
 20
337.870975
 30
0.0
 11
303.034253
 21
352.870975
 31
0.0
  0
LINE
  8
0
  6
CENTER
 62
     1
  5
F7
 10
303.034253
 20
134.562629
 30
0.0
 11
303.034253
 21
156.562629
 31
0.0
  0
LINE
  8
0
  6
CENTER
 62
     1
  5
F8
 10
268.034253
 20
159.062629
 30
0.0
 11
268.034253
 21
197.062629
 31
0.0
  0
LINE
  8
0
  6
CENTER
 62
     1
  5
F9
 10
238.034253
 20
159.062629
 30
0.0
 11
238.034253
 21
197.062629
 31
0.0
  0
LINE
  8
0
  6
CENTER
 62
     1
  5
FA
 10
203.034253
 20
134.562629
 30
0.0
 11
203.034253
 21
156.562629
 31
0.0
  0
LINE
  8
0
  6
CENTER
 62
     1
  5
FB
 10
36.218414
 20
157.062629
 30
0.0
 11
36.218414
 21
147.495629
 31
0.0
  0
LINE
  8
0
  6
CENTER
 62
     1
  5
FC
 10
74.468414
 20
134.562629
 30
0.0
 11
74.468414
 21
156.562629
 31
0.0
  0
LINE
  8
0
  6
CENTER
 62
     1
  5
FD
 10
66.218414
 20
159.062629
 30
0.0
 11
66.218414
 21
197.062629
 31
0.0
  0
LINE
  8
0
  6
CENTER
 62
     1
  5
FE
 10
51.218414
 20
167.412629
 30
0.0
 11
51.218414
 21
154.062629
 31
0.0
  0
LINE
  8
0
  6
CENTER
 62
     1
  5
FF
 10
36.218414
 20
159.062629
 30
0.0
 11
36.218414
 21
197.062629
 31
0.0
  0
LINE
  8
0
  6
CENTER
 62
     1
  5
100
 10
27.968414
 20
134.562629
 30
0.0
 11
27.968414
 21
156.562629
 31
0.0
  0
LINE
  8
0
  6
CENTER
 62
     1
  5
101
 10
192.534253
 20
-30.563704
 30
0.0
 11
213.534253
 21
-30.563704
 31
0.0
  0
LINE
  8
0
  6
CENTER
 62
     1
  5
102
 10
203.034253
 20
-41.063704
 30
0.0
 11
203.034253
 21
-20.063704
 31
0.0
  0
LINE
  8
0
  6
CENTER
 62
     1
  5
103
 10
192.534253
 20
15.936296
 30
0.0
 11
213.534253
 21
15.936296
 31
0.0
  0
LINE
  8
0
  6
CENTER
 62
     1
  5
104
 10
203.034253
 20
5.436296
 30
0.0
 11
203.034253
 21
26.436296
 31
0.0
  0
LINE
  8
0
  6
CENTER
 62
     1
  5
105
 10
230.784253
 20
-22.313704
 30
0.0
 11
245.284253
 21
-22.313704
 31
0.0
  0
LINE
  8
0
  6
CENTER
 62
     1
  5
106
 10
238.034253
 20
-29.563704
 30
0.0
 11
238.034253
 21
-15.063704
 31
0.0
  0
LINE
  8
0
  6
CENTER
 62
     1
  5
107
 10
232.534253
 20
-7.313704
 30
0.0
 11
243.534253
 21
-7.313704
 31
0.0
  0
LINE
  8
0
  6
CENTER
 62
     1
  5
108
 10
238.034253
 20
-12.813704
 30
0.0
 11
238.034253
 21
-1.813704
 31
0.0
  0
LINE
  8
0
  6
CENTER
 62
     1
  5
109
 10
230.784253
 20
7.686296
 30
0.0
 11
245.284253
 21
7.686296
 31
0.0
  0
LINE
  8
0
  6
CENTER
 62
     1
  5
10A
 10
238.034253
 20
0.436296
 30
0.0
 11
238.034253
 21
14.936296
 31
0.0
  0
LINE
  8
0
  6
CENTER
 62
     1
  5
10B
 10
260.784253
 20
-22.313704
 30
0.0
 11
275.284253
 21
-22.313704
 31
0.0
  0
LINE
  8
0
  6
CENTER
 62
     1
  5
10C
 10
268.034253
 20
-29.563704
 30
0.0
 11
268.034253
 21
-15.063704
 31
0.0
  0
LINE
  8
0
  6
CENTER
 62
     1
  5
10D
 10
262.534253
 20
-7.313704
 30
0.0
 11
273.534253
 21
-7.313704
 31
0.0
  0
LINE
  8
0
  6
CENTER
 62
     1
  5
10E
 10
268.034253
 20
-12.813704
 30
0.0
 11
268.034253
 21
-1.813704
 31
0.0
  0
LINE
  8
0
  6
CENTER
 62
     1
  5
10F
 10
260.784253
 20
7.686296
 30
0.0
 11
275.284253
 21
7.686296
 31
0.0
  0
LINE
  8
0
  6
CENTER
 62
     1
  5
110
 10
268.034253
 20
0.436296
 30
0.0
 11
268.034253
 21
14.936296
 31
0.0
  0
LINE
  8
0
  6
CENTER
 62
     1
  5
111
 10
292.534253
 20
-30.563704
 30
0.0
 11
313.534253
 21
-30.563704
 31
0.0
  0
LINE
  8
0
  6
CENTER
 62
     1
  5
112
 10
303.034253
 20
-41.063704
 30
0.0
 11
303.034253
 21
-20.063704
 31
0.0
  0
LINE
  8
0
  6
CENTER
 62
     1
  5
113
 10
292.534253
 20
15.936296
 30
0.0
 11
313.534253
 21
15.936296
 31
0.0
  0
LINE
  8
0
  6
CENTER
 62
     1
  5
114
 10
303.034253
 20
5.436296
 30
0.0
 11
303.034253
 21
26.436296
 31
0.0
  0
ENDSEC
  0
EOF
