  0
SECTION
  2
HEADER
  9
$ACADVER
  1
AC1009
  9
$DWGCODEPAGE
  3
ansi_1252
  9
$INSBASE
 10
0.0
 20
0.0
 30
0.0
  9
$EXTMIN
 10
-136.27917
 20
-99.359811
 30
0.0
  9
$EXTMAX
 10
582.929712
 20
392.554932
 30
5.0
  9
$LIMMIN
 10
-136.27917
 20
-99.359811
  9
$LIMMAX
 10
582.929712
 20
392.554932
  9
$ORTHOMODE
 70
     0
  9
$REGENMODE
 70
     1
  9
$FILLMODE
 70
     1
  9
$QTEXTMODE
 70
     0
  9
$MIRRTEXT
 70
     1
  9
$DRAGMODE
 70
     2
  9
$LTSCALE
 40
10.0
  9
$OSMODE
 70
     0
  9
$ATTMODE
 70
     1
  9
$TEXTSIZE
 40
0.2
  9
$TRACEWID
 40
0.05
  9
$TEXTSTYLE
  7
STANDARD
  9
$CLAYER
  8
0
  9
$CELTYPE
  6
CONTINUOUS
  9
$CECOLOR
 62
   256
  9
$DIMSCALE
 40
1.0
  9
$DIMASZ
 40
1.25
  9
$DIMEXO
 40
1.0
  9
$DIMDLI
 40
0.38
  9
$DIMRND
 40
0.0
  9
$DIMDLE
 40
0.0
  9
$DIMEXE
 40
0.75
  9
$DIMTP
 40
0.0
  9
$DIMTM
 40
0.0
  9
$DIMTXT
 40
2.5
  9
$DIMCEN
 40
0.09
  9
$DIMTSZ
 40
0.0
  9
$DIMTOL
 70
     0
  9
$DIMLIM
 70
     0
  9
$DIMTIH
 70
     0
  9
$DIMTOH
 70
     0
  9
$DIMSE1
 70
     0
  9
$DIMSE2
 70
     0
  9
$DIMTAD
 70
     1
  9
$DIMZIN
 70
     0
  9
$DIMBLK
  1

  9
$DIMASO
 70
     1
  9
$DIMSHO
 70
     1
  9
$DIMPOST
  1

  9
$DIMAPOST
  1

  9
$DIMALT
 70
     0
  9
$DIMALTD
 70
     2
  9
$DIMALTF
 40
25.4
  9
$DIMLFAC
 40
1.0
  9
$DIMTOFL
 70
     0
  9
$DIMTVP
 40
0.0
  9
$DIMTIX
 70
     0
  9
$DIMSOXD
 70
     0
  9
$DIMSAH
 70
     0
  9
$DIMBLK1
  1

  9
$DIMBLK2
  1

  9
$DIMSTYLE
  2
STANDARD
  9
$DIMCLRD
 70
     7
  9
$DIMCLRE
 70
     7
  9
$DIMCLRT
 70
     7
  9
$DIMTFAC
 40
0.8
  9
$DIMGAP
 40
1.25
  9
$LUNITS
 70
     2
  9
$LUPREC
 70
     4
  9
$AXISMODE
 70
     0
  9
$AXISUNIT
 10
0.0
 20
0.0
  9
$SKETCHINC
 40
0.1
  9
$FILLETRAD
 40
0.0
  9
$AUNITS
 70
     0
  9
$AUPREC
 70
     0
  9
$MENU
  1
acad
  9
$ELEVATION
 40
0.0
  9
$PELEVATION
 40
0.0
  9
$THICKNESS
 40
0.0
  9
$LIMCHECK
 70
     0
  9
$BLIPMODE
 70
     1
  9
$CHAMFERA
 40
0.0
  9
$CHAMFERB
 40
0.0
  9
$SKPOLY
 70
     0
  9
$TDCREATE
 40
2454334.699537037
  9
$TDUPDATE
 40
2454334.615752315
  9
$TDINDWG
 40
0.0000000000
  9
$TDUSRTIMER
 40
0.0000000000
  9
$USRTIMER
 70
     1
  9
$ANGBASE
 50
0.0
  9
$ANGDIR
 70
     0
  9
$PDMODE
 70
     0
  9
$PDSIZE
 40
0.0
  9
$PLINEWID
 40
0.0
  9
$COORDS
 70
     0
  9
$SPLFRAME
 70
     0
  9
$SPLINETYPE
 70
     6
  9
$SPLINESEGS
 70
     8
  9
$ATTDIA
 70
     0
  9
$ATTREQ
 70
     1
  9
$HANDLING
 70
     1
  9
$HANDSEED
  5
949
  9
$SURFTAB1
 70
     6
  9
$SURFTAB2
 70
     6
  9
$SURFTYPE
 70
     6
  9
$SURFU
 70
     6
  9
$SURFV
 70
     6
  9
$UCSNAME
  2

  9
$UCSORG
 10
0.0
 20
0.0
 30
0.0
  9
$UCSXDIR
 10
1.0
 20
0.0
 30
0.0
  9
$UCSYDIR
 10
0.0
 20
1.0
 30
0.0
  9
$PUCSNAME
  2

  9
$PUCSORG
 10
0.0
 20
0.0
 30
0.0
  9
$PUCSXDIR
 10
1.0
 20
0.0
 30
0.0
  9
$PUCSYDIR
 10
0.0
 20
1.0
 30
0.0
  9
$USERI1
 70
     0
  9
$USERI2
 70
     0
  9
$USERI3
 70
     0
  9
$USERI4
 70
     0
  9
$USERI5
 70
     0
  9
$USERR1
 40
0.0
  9
$USERR2
 40
0.0
  9
$USERR3
 40
0.0
  9
$USERR4
 40
0.0
  9
$USERR5
 40
0.0
  9
$WORLDVIEW
 70
     1
  9
$SHADEDGE
 70
     3
  9
$SHADEDIF
 70
    70
  9
$TILEMODE
 70
     1
  9
$MAXACTVP
 70
    16
  9
$PINSBASE
 10
0.0
 20
0.0
 30
0.0
  9
$PLIMCHECK
 70
     0
  9
$PEXTMIN
 10
1.000000E+20
 20
1.000000E+20
 30
1.000000E+20
  9
$PEXTMAX
 10
-1.000000E+20
 20
-1.000000E+20
 30
-1.000000E+20
  9
$PLIMMIN
 10
0.0
 20
0.0
  9
$PLIMMAX
 10
12.0
 20
9.0
  9
$UNITMODE
 70
     0
  9
$VISRETAIN
 70
     0
  9
$PLINEGEN
 70
     1
  9
$PSLTSCALE
 70
     0
  9
$TREEDEPTH
 70
  3020
  0
ENDSEC
  0
SECTION
  2
TABLES
  0
TABLE
  2
VPORT
 70
     1
  0
VPORT
  2
*ACTIVE
 70
     0
 10
0.0
 20
0.0
 11
1.0
 21
1.0
 12
6.591288
 22
4.579184
 13
0.0
 23
0.0
 14
1.0
 24
1.0
 15
0.0
 25
0.0
 16
0.0
 26
0.0
 36
1.0
 17
0.0
 27
0.0
 37
0.0
 40
9.158369
 41
0.688564
 42
50.0
 43
0.0
 44
0.0
 50
0.0
 51
0.0
 71
     0
 72
   100
 73
     1
 74
     1
 75
     0
 76
     0
 77
     0
 78
     0
  0
ENDTAB
  0
TABLE
  2
LTYPE
 70
     1
  0
LTYPE
  2
CONTINUOUS
 70
    64
  3
Solid line
 72
    65
 73
     0
 40
0.0
  0
ENDTAB
  0
TABLE
  2
LAYER
 70
     1
  0
LAYER
  2
0
 70
     0
 62
     7
  6
CONTINUOUS
  0
ENDTAB
  0
TABLE
  2
STYLE
 70
     1
  0
STYLE
  2
STANDARD
 70
     0
 40
0.0
 41
1.0
 50
0.0
 71
     0
 42
0.0
  3
IsonormD
  4

  0
ENDTAB
  0
TABLE
  2
VIEW
 70
     0
  0
ENDTAB
  0
TABLE
  2
UCS
 70
     0
  0
ENDTAB
  0
TABLE
  2
APPID
 70
     2
  0
APPID
  2
ACAD
 70
     0
  0
APPID
  2
TopSolid_Draft
 70
     0
  0
ENDTAB
  0
TABLE
  2
DIMSTYLE
 70
     1
  0
DIMSTYLE
  2
STANDARD
 70
     0
  3

  4

  5

  6

  7

 40
1.0
 41
1.25
 42
1.0
 43
0.38
 44
0.75
 45
0.0
 46
0.0
 47
0.0
 48
0.0
 71
     0
 72
     0
 73
     0
 74
     0
 75
     0
 76
     0
 77
     1
 78
     0
140
2.5
141
0.09
142
0.0
143
25.4
144
1.0
145
0.0
146
0.8
147
1.25
170
     0
171
     2
172
     0
173
     0
174
     0
175
     0
176
     7
177
     7
178
     7
  0
ENDTAB
  0
ENDSEC
  0
SECTION
  2
BLOCKS
  0
BLOCK
  8
0
  5
25
  2
AID3
 70
     0
 10
0.0
 20
0.0
 30
0.0
  3
#draft view
  0
ARC
  8
0
  6
CONTINUOUS
 62
     7
  5
26
 10
250.420284
 20
114.705455
 30
0.0
 40
5.0
 50
180.0
 51
270.0
210
0.0
220
0.0
230
1.0
  0
ARC
  8
0
  6
CONTINUOUS
 62
     7
  5
27
 10
250.420284
 20
114.705455
 30
0.0
 40
5.0
 50
360.0
 51
180.0
210
0.0
220
0.0
230
1.0
  0
ARC
  8
0
  6
CONTINUOUS
 62
     7
  5
28
 10
250.420284
 20
114.705455
 30
0.0
 40
5.0
 50
270.0
 51
360.0
210
0.0
220
0.0
230
1.0
  0
LINE
  8
0
  6
CONTINUOUS
 62
     7
  5
29
 10
288.420284
 20
112.205455
 30
0.0
 11
262.755092
 21
116.730921
 31
0.0
  0
LINE
  8
0
  6
CONTINUOUS
 62
     7
  5
2A
 10
288.420284
 20
102.205455
 30
0.0
 11
288.420284
 21
112.205455
 31
0.0
  0
LINE
  8
0
  6
CONTINUOUS
 62
     7
  5
2B
 10
250.420284
 20
102.205455
 30
0.0
 11
288.420284
 21
102.205455
 31
0.0
  0
ARC
  8
0
  6
CONTINUOUS
 62
     7
  5
2C
 10
250.420284
 20
114.705455
 30
0.0
 40
12.5
 50
9.325166
 51
270.0
210
0.0
220
0.0
230
0.9999999999999999
  0
LINE
  8
0
  6
CONTINUOUS
 62
     7
  5
2D
 10
163.420284
 20
100.205455
 30
0.0
 11
290.420284
 21
100.205455
 31
0.0
  0
LINE
  8
0
  6
CONTINUOUS
 62
     7
  5
2E
 10
163.420284
 20
100.205455
 30
0.0
 11
163.420284
 21
101.905455
 31
0.0
  0
LINE
  8
0
  6
CONTINUOUS
 62
     7
  5
2F
 10
288.420284
 20
108.205455
 30
0.0
 11
305.420284
 21
108.205455
 31
0.0
  0
LINE
  8
0
  6
CONTINUOUS
 62
     7
  5
30
 10
305.420284
 20
108.205455
 30
0.0
 11
305.420284
 21
104.205455
 31
0.0
  0
LINE
  8
0
  6
CONTINUOUS
 62
     7
  5
31
 10
305.420284
 20
104.205455
 30
0.0
 11
290.420284
 21
104.205455
 31
0.0
  0
LINE
  8
0
  6
CONTINUOUS
 62
     7
  5
32
 10
290.420284
 20
100.205455
 30
0.0
 11
290.420284
 21
104.205455
 31
0.0
  0
LINE
  8
0
  6
CONTINUOUS
 62
     7
  5
33
 10
275.420284
 20
115.324258
 30
0.0
 11
274.323593
 21
114.691082
 31
0.0
  0
LINE
  8
0
  6
CONTINUOUS
 62
     7
  5
34
 10
277.48139
 20
114.134278
 30
0.0
 11
275.420284
 21
115.324258
 31
0.0
  0
LINE
  8
0
  6
CONTINUOUS
 62
     7
  5
35
 10
261.645256
 20
120.205455
 30
0.0
 11
290.420284
 21
120.205455
 31
0.0
  0
LINE
  8
0
  6
CONTINUOUS
 62
     7
  5
36
 10
290.420284
 20
108.205455
 30
0.0
 11
290.420284
 21
120.205455
 31
0.0
  0
LINE
  8
0
  6
CONTINUOUS
 62
     7
  5
37
 10
340.420284
 20
198.205455
 30
0.0
 11
356.420284
 21
198.205455
 31
0.0
  0
LINE
  8
0
  6
CONTINUOUS
 62
     7
  5
38
 10
340.420284
 20
199.512154
 30
0.0
 11
340.420284
 21
198.205455
 31
0.0
  0
ARC
  8
0
  6
CONTINUOUS
 62
     7
  5
39
 10
334.420284
 20
210.705455
 30
0.0
 40
12.7
 50
298.192861
 51
9.009046
210
0.0
220
0.0
230
1.0
  0
LINE
  8
0
  6
CONTINUOUS
 62
     7
  5
3A
 10
372.420284
 20
208.205455
 30
0.0
 11
346.963612
 21
212.694154
 31
0.0
  0
LINE
  8
0
  6
CONTINUOUS
 62
     7
  5
3B
 10
372.420284
 20
198.205455
 30
0.0
 11
372.420284
 21
208.205455
 31
0.0
  0
LINE
  8
0
  6
CONTINUOUS
 62
     7
  5
3C
 10
372.420284
 20
198.205455
 30
0.0
 11
374.420284
 21
198.205455
 31
0.0
  0
LINE
  8
0
  6
CONTINUOUS
 62
     7
  5
3D
 10
374.420284
 20
198.205455
 30
0.0
 11
374.420284
 21
195.205455
 31
0.0
  0
LINE
  8
0
  6
CONTINUOUS
 62
     7
  5
3E
 10
374.420284
 20
195.205455
 30
0.0
 11
359.420284
 21
195.205455
 31
0.0
  0
LINE
  8
0
  6
CONTINUOUS
 62
     7
  5
3F
 10
359.420284
 20
195.205455
 30
0.0
 11
359.420284
 21
188.205455
 31
0.0
  0
LINE
  8
0
  6
CONTINUOUS
 62
     7
  5
40
 10
356.420284
 20
188.205455
 30
0.0
 11
359.420284
 21
188.205455
 31
0.0
  0
LINE
  8
0
  6
CONTINUOUS
 62
     7
  5
41
 10
356.420284
 20
188.205455
 30
0.0
 11
356.420284
 21
198.205455
 31
0.0
  0
CIRCLE
  8
0
  6
CONTINUOUS
 62
     7
  5
42
 10
334.420284
 20
210.705455
 30
0.0
 40
5.0
210
0.0
220
0.0
230
1.0
  0
LINE
  8
0
  6
CONTINUOUS
 62
     7
  5
43
 10
359.420284
 20
183.205455
 30
0.0
 11
356.420284
 21
183.205455
 31
0.0
  0
LINE
  8
0
  6
CONTINUOUS
 62
     7
  5
44
 10
359.420284
 20
188.205455
 30
0.0
 11
359.420284
 21
183.205455
 31
0.0
  0
LINE
  8
0
  6
CONTINUOUS
 62
     7
  5
45
 10
356.420284
 20
183.205455
 30
0.0
 11
356.420284
 21
188.205455
 31
0.0
  0
LINE
  8
0
  6
CONTINUOUS
 62
     7
  5
46
 10
340.420284
 20
198.205455
 30
0.0
 11
334.420284
 21
198.205455
 31
0.0
  0
LINE
  8
0
  6
CONTINUOUS
 62
     7
  5
47
 10
346.755092
 20
212.730921
 30
0.0
 11
346.963612
 21
212.694154
 31
0.0
  0
LINE
  8
0
  6
CONTINUOUS
 62
     7
  5
48
 10
389.420284
 20
204.205455
 30
0.0
 11
389.420284
 21
200.205455
 31
0.0
  0
LINE
  8
0
  6
CONTINUOUS
 62
     7
  5
49
 10
389.420284
 20
200.205455
 30
0.0
 11
374.420284
 21
200.205455
 31
0.0
  0
LINE
  8
0
  6
CONTINUOUS
 62
     7
  5
4A
 10
372.420284
 20
204.205455
 30
0.0
 11
389.420284
 21
204.205455
 31
0.0
  0
LINE
  8
0
  6
CONTINUOUS
 62
     7
  5
4B
 10
374.420284
 20
200.205455
 30
0.0
 11
374.420284
 21
198.205455
 31
0.0
  0
LINE
  8
0
  6
CONTINUOUS
 62
     7
  5
4C
 10
353.620284
 20
184.684729
 30
0.0
 11
356.420284
 21
184.684729
 31
0.0
  0
LINE
  8
0
  6
CONTINUOUS
 62
     7
  5
4D
 10
353.620284
 20
184.684729
 30
0.0
 11
353.620284
 21
188.726181
 31
0.0
  0
LINE
  8
0
  6
CONTINUOUS
 62
     7
  5
4E
 10
353.620284
 20
188.726181
 30
0.0
 11
356.420284
 21
188.726181
 31
0.0
  0
LINE
  8
0
  6
CONTINUOUS
 62
     7
  5
4F
 10
353.620284
 20
190.746907
 30
0.0
 11
356.420284
 21
190.746907
 31
0.0
  0
LINE
  8
0
  6
CONTINUOUS
 62
     7
  5
50
 10
353.620284
 20
188.726181
 30
0.0
 11
353.620284
 21
190.746907
 31
0.0
  0
LINE
  8
0
  6
CONTINUOUS
 62
     7
  5
51
 10
353.620284
 20
182.664004
 30
0.0
 11
356.420284
 21
182.664004
 31
0.0
  0
LINE
  8
0
  6
CONTINUOUS
 62
     7
  5
52
 10
356.420284
 20
182.664004
 30
0.0
 11
356.420284
 21
183.205455
 31
0.0
  0
LINE
  8
0
  6
CONTINUOUS
 62
     7
  5
53
 10
353.620284
 20
182.664004
 30
0.0
 11
353.620284
 21
184.684729
 31
0.0
  0
LINE
  8
0
  6
CONTINUOUS
 62
     7
  5
54
 10
366.070284
 20
184.705455
 30
0.0
 11
366.070284
 21
188.705455
 31
0.0
  0
LINE
  8
0
  6
CONTINUOUS
 62
     7
  5
55
 10
366.420284
 20
188.355455
 30
0.0
 11
366.420284
 21
185.055455
 31
0.0
  0
LINE
  8
0
  6
CONTINUOUS
 62
     7
  5
56
 10
353.620284
 20
192.726181
 30
0.0
 11
356.420284
 21
192.726181
 31
0.0
  0
LINE
  8
0
  6
CONTINUOUS
 62
     7
  5
57
 10
353.620284
 20
192.726181
 30
0.0
 11
353.620284
 21
194.746907
 31
0.0
  0
LINE
  8
0
  6
CONTINUOUS
 62
     7
  5
58
 10
353.620284
 20
194.746907
 30
0.0
 11
356.420284
 21
194.746907
 31
0.0
  0
LINE
  8
0
  6
CONTINUOUS
 62
     7
  5
59
 10
353.620284
 20
190.746907
 30
0.0
 11
353.620284
 21
192.726181
 31
0.0
  0
LINE
  8
0
  6
CONTINUOUS
 62
     7
  5
5A
 10
366.070284
 20
188.705455
 30
0.0
 11
366.070284
 21
192.705455
 31
0.0
  0
LINE
  8
0
  6
CONTINUOUS
 62
     7
  5
5B
 10
366.420284
 20
192.355455
 30
0.0
 11
366.420284
 21
189.055455
 31
0.0
  0
ARC
  8
0
  6
CONTINUOUS
 62
     7
  5
5C
 10
334.420284
 20
210.705455
 30
0.0
 40
12.5
 50
298.685402
 51
61.314598
210
0.0
220
0.0
230
1.0
  0
LINE
  8
0
  6
CONTINUOUS
 62
     7
  5
5D
 10
340.420284
 20
221.671312
 30
0.0
 11
340.420284
 21
199.739599
 31
0.0
  0
ARC
  8
0
  6
CONTINUOUS
 62
     7
  5
5E
 10
303.920284
 20
210.705455
 30
0.0
 40
5.0
 50
0.0
 51
180.0
210
0.0
220
0.0
230
1.0
  0
ARC
  8
0
  6
CONTINUOUS
 62
     7
  5
5F
 10
303.920284
 20
210.705455
 30
0.0
 40
5.0
 50
180.0
 51
360.0
210
0.0
220
0.0
230
1.0
  0
LINE
  8
0
  6
CONTINUOUS
 62
     7
  5
60
 10
334.420284
 20
197.905455
 30
0.0
 11
312.270284
 21
197.905455
 31
0.0
  0
LINE
  8
0
  6
CONTINUOUS
 62
     7
  5
61
 10
312.270284
 20
197.905455
 30
0.0
 11
312.270284
 21
201.004038
 31
0.0
  0
ARC
  8
0
  6
CONTINUOUS
 62
     7
  5
62
 10
303.920284
 20
210.705455
 30
0.0
 40
12.8
 50
310.718545
 51
360.0
210
0.0
220
0.0
230
1.0
  0
ARC
  8
0
  6
CONTINUOUS
 62
     7
  5
63
 10
303.920284
 20
210.705455
 30
0.0
 40
12.8
 50
0.0
 51
49.281455
210
0.0
220
0.0
230
1.0
  0
LINE
  8
0
  6
CONTINUOUS
 62
     7
  5
64
 10
312.270284
 20
223.505455
 30
0.0
 11
334.420284
 21
223.505455
 31
0.0
  0
LINE
  8
0
  6
CONTINUOUS
 62
     7
  5
65
 10
334.420284
 20
198.205455
 30
0.0
 11
334.420284
 21
197.905455
 31
0.0
  0
LINE
  8
0
  6
CONTINUOUS
 62
     7
  5
66
 10
334.420284
 20
223.505455
 30
0.0
 11
334.420284
 21
223.205455
 31
0.0
  0
LINE
  8
0
  6
CONTINUOUS
 62
     7
  5
67
 10
312.270284
 20
220.406873
 30
0.0
 11
312.270284
 21
223.505455
 31
0.0
  0
ARC
  8
0
  6
CONTINUOUS
 62
     7
  5
68
 10
334.420284
 20
210.705455
 30
0.0
 40
12.5
 50
61.314598
 51
90.0
210
0.0
220
0.0
230
1.0
  0
ARC
  8
0
  6
CONTINUOUS
 62
     7
  5
69
 10
334.420284
 20
210.705455
 30
0.0
 40
12.5
 50
270.0
 51
298.685402
210
0.0
220
0.0
230
1.0
  0
LINE
  8
0
  6
CONTINUOUS
 62
     7
  5
6A
 10
312.270284
 20
197.905455
 30
0.0
 11
303.920284
 21
197.905455
 31
0.0
  0
LINE
  8
0
  6
CONTINUOUS
 62
     7
  5
6B
 10
303.920284
 20
223.505455
 30
0.0
 11
312.270284
 21
223.505455
 31
0.0
  0
LINE
  8
0
  6
CONTINUOUS
 62
     7
  5
6C
 10
309.920284
 20
221.671312
 30
0.0
 11
309.920284
 21
199.739599
 31
0.0
  0
ARC
  8
0
  6
CONTINUOUS
 62
     7
  5
6D
 10
303.920284
 20
210.705455
 30
0.0
 40
12.5
 50
298.685402
 51
61.314598
210
0.0
220
0.0
230
1.0
  0
ARC
  8
0
  6
CONTINUOUS
 62
     7
  5
6E
 10
273.420284
 20
210.705455
 30
0.0
 40
5.0
 50
0.0
 51
180.0
210
0.0
220
0.0
230
1.0
  0
ARC
  8
0
  6
CONTINUOUS
 62
     7
  5
6F
 10
273.420284
 20
210.705455
 30
0.0
 40
5.0
 50
180.0
 51
360.0
210
0.0
220
0.0
230
1.0
  0
LINE
  8
0
  6
CONTINUOUS
 62
     7
  5
70
 10
303.920284
 20
197.905455
 30
0.0
 11
281.770284
 21
197.905455
 31
0.0
  0
LINE
  8
0
  6
CONTINUOUS
 62
     7
  5
71
 10
281.770284
 20
197.905455
 30
0.0
 11
281.770284
 21
201.004038
 31
0.0
  0
ARC
  8
0
  6
CONTINUOUS
 62
     7
  5
72
 10
273.420284
 20
210.705455
 30
0.0
 40
12.8
 50
310.718545
 51
360.0
210
0.0
220
0.0
230
1.0
  0
ARC
  8
0
  6
CONTINUOUS
 62
     7
  5
73
 10
273.420284
 20
210.705455
 30
0.0
 40
12.8
 50
0.0
 51
49.281455
210
0.0
220
0.0
230
1.0
  0
LINE
  8
0
  6
CONTINUOUS
 62
     7
  5
74
 10
303.920284
 20
198.205455
 30
0.0
 11
303.920284
 21
197.905455
 31
0.0
  0
LINE
  8
0
  6
CONTINUOUS
 62
     7
  5
75
 10
303.920284
 20
223.505455
 30
0.0
 11
303.920284
 21
223.205455
 31
0.0
  0
LINE
  8
0
  6
CONTINUOUS
 62
     7
  5
76
 10
281.770284
 20
223.505455
 30
0.0
 11
303.920284
 21
223.505455
 31
0.0
  0
LINE
  8
0
  6
CONTINUOUS
 62
     7
  5
77
 10
281.770284
 20
220.406873
 30
0.0
 11
281.770284
 21
223.505455
 31
0.0
  0
ARC
  8
0
  6
CONTINUOUS
 62
     7
  5
78
 10
303.920284
 20
210.705455
 30
0.0
 40
12.5
 50
61.314598
 51
90.0
210
0.0
220
0.0
230
1.0
  0
ARC
  8
0
  6
CONTINUOUS
 62
     7
  5
79
 10
303.920284
 20
210.705455
 30
0.0
 40
12.5
 50
270.0
 51
298.685402
210
0.0
220
0.0
230
1.0
  0
LINE
  8
0
  6
CONTINUOUS
 62
     7
  5
7A
 10
281.770284
 20
197.905455
 30
0.0
 11
273.420284
 21
197.905455
 31
0.0
  0
LINE
  8
0
  6
CONTINUOUS
 62
     7
  5
7B
 10
273.420284
 20
223.505455
 30
0.0
 11
281.770284
 21
223.505455
 31
0.0
  0
ARC
  8
0
  6
CONTINUOUS
 62
     7
  5
7C
 10
273.420284
 20
210.705455
 30
0.0
 40
12.5
 50
298.685402
 51
61.314598
210
0.0
220
0.0
230
1.0
  0
LINE
  8
0
  6
CONTINUOUS
 62
     7
  5
7D
 10
279.420284
 20
221.671312
 30
0.0
 11
279.420284
 21
199.739599
 31
0.0
  0
ARC
  8
0
  6
CONTINUOUS
 62
     7
  5
7E
 10
242.920284
 20
210.705455
 30
0.0
 40
5.0
 50
0.0
 51
180.0
210
0.0
220
0.0
230
1.0
  0
ARC
  8
0
  6
CONTINUOUS
 62
     7
  5
7F
 10
242.920284
 20
210.705455
 30
0.0
 40
5.0
 50
180.0
 51
360.0
210
0.0
220
0.0
230
1.0
  0
LINE
  8
0
  6
CONTINUOUS
 62
     7
  5
80
 10
273.420284
 20
197.905455
 30
0.0
 11
251.270284
 21
197.905455
 31
0.0
  0
LINE
  8
0
  6
CONTINUOUS
 62
     7
  5
81
 10
251.270284
 20
197.905455
 30
0.0
 11
251.270284
 21
201.004038
 31
0.0
  0
ARC
  8
0
  6
CONTINUOUS
 62
     7
  5
82
 10
242.920284
 20
210.705455
 30
0.0
 40
12.8
 50
310.718545
 51
0.0
210
0.0
220
0.0
230
1.0
  0
ARC
  8
0
  6
CONTINUOUS
 62
     7
  5
83
 10
242.920284
 20
210.705455
 30
0.0
 40
12.8
 50
0.0
 51
49.281455
210
0.0
220
0.0
230
1.0
  0
LINE
  8
0
  6
CONTINUOUS
 62
     7
  5
84
 10
273.420284
 20
223.505455
 30
0.0
 11
273.420284
 21
223.205455
 31
0.0
  0
LINE
  8
0
  6
CONTINUOUS
 62
     7
  5
85
 10
273.420284
 20
198.205455
 30
0.0
 11
273.420284
 21
197.905455
 31
0.0
  0
LINE
  8
0
  6
CONTINUOUS
 62
     7
  5
86
 10
251.270284
 20
223.505455
 30
0.0
 11
273.420284
 21
223.505455
 31
0.0
  0
LINE
  8
0
  6
CONTINUOUS
 62
     7
  5
87
 10
251.270284
 20
220.406873
 30
0.0
 11
251.270284
 21
223.505455
 31
0.0
  0
ARC
  8
0
  6
CONTINUOUS
 62
     7
  5
88
 10
273.420284
 20
210.705455
 30
0.0
 40
12.5
 50
61.314598
 51
90.0
210
0.0
220
0.0
230
1.0
  0
ARC
  8
0
  6
CONTINUOUS
 62
     7
  5
89
 10
273.420284
 20
210.705455
 30
0.0
 40
12.5
 50
270.0
 51
298.685402
210
0.0
220
0.0
230
1.0
  0
LINE
  8
0
  6
CONTINUOUS
 62
     7
  5
8A
 10
251.270284
 20
197.905455
 30
0.0
 11
242.920284
 21
197.905455
 31
0.0
  0
LINE
  8
0
  6
CONTINUOUS
 62
     7
  5
8B
 10
242.920284
 20
223.505455
 30
0.0
 11
251.270284
 21
223.505455
 31
0.0
  0
LINE
  8
0
  6
CONTINUOUS
 62
     7
  5
8C
 10
248.920284
 20
221.671312
 30
0.0
 11
248.920284
 21
199.739599
 31
0.0
  0
ARC
  8
0
  6
CONTINUOUS
 62
     7
  5
8D
 10
242.920284
 20
210.705455
 30
0.0
 40
12.5
 50
298.685402
 51
61.314598
210
0.0
220
0.0
230
1.0
  0
ARC
  8
0
  6
CONTINUOUS
 62
     7
  5
8E
 10
212.420284
 20
210.705455
 30
0.0
 40
5.0
 50
0.0
 51
180.0
210
0.0
220
0.0
230
1.0
  0
ARC
  8
0
  6
CONTINUOUS
 62
     7
  5
8F
 10
212.420284
 20
210.705455
 30
0.0
 40
5.0
 50
180.0
 51
360.0
210
0.0
220
0.0
230
1.0
  0
LINE
  8
0
  6
CONTINUOUS
 62
     7
  5
90
 10
242.920284
 20
197.905455
 30
0.0
 11
220.770284
 21
197.905455
 31
0.0
  0
LINE
  8
0
  6
CONTINUOUS
 62
     7
  5
91
 10
220.770284
 20
197.905455
 30
0.0
 11
220.770284
 21
201.004038
 31
0.0
  0
ARC
  8
0
  6
CONTINUOUS
 62
     7
  5
92
 10
212.420284
 20
210.705455
 30
0.0
 40
12.8
 50
310.718545
 51
0.0
210
0.0
220
0.0
230
1.0
  0
ARC
  8
0
  6
CONTINUOUS
 62
     7
  5
93
 10
212.420284
 20
210.705455
 30
0.0
 40
12.8
 50
0.0
 51
49.281455
210
0.0
220
0.0
230
1.0
  0
LINE
  8
0
  6
CONTINUOUS
 62
     7
  5
94
 10
220.770284
 20
223.505455
 30
0.0
 11
242.920284
 21
223.505455
 31
0.0
  0
LINE
  8
0
  6
CONTINUOUS
 62
     7
  5
95
 10
242.920284
 20
223.505455
 30
0.0
 11
242.920284
 21
223.205455
 31
0.0
  0
LINE
  8
0
  6
CONTINUOUS
 62
     7
  5
96
 10
242.920284
 20
198.205455
 30
0.0
 11
242.920284
 21
197.905455
 31
0.0
  0
LINE
  8
0
  6
CONTINUOUS
 62
     7
  5
97
 10
220.770284
 20
220.406873
 30
0.0
 11
220.770284
 21
223.505455
 31
0.0
  0
ARC
  8
0
  6
CONTINUOUS
 62
     7
  5
98
 10
242.920284
 20
210.705455
 30
0.0
 40
12.5
 50
61.314598
 51
90.0
210
0.0
220
0.0
230
1.0
  0
ARC
  8
0
  6
CONTINUOUS
 62
     7
  5
99
 10
242.920284
 20
210.705455
 30
0.0
 40
12.5
 50
270.0
 51
298.685402
210
0.0
220
0.0
230
1.0
  0
LINE
  8
0
  6
CONTINUOUS
 62
     7
  5
9A
 10
220.770284
 20
197.905455
 30
0.0
 11
212.420284
 21
197.905455
 31
0.0
  0
LINE
  8
0
  6
CONTINUOUS
 62
     7
  5
9B
 10
212.420284
 20
223.505455
 30
0.0
 11
220.770284
 21
223.505455
 31
0.0
  0
ARC
  8
0
  6
CONTINUOUS
 62
     7
  5
9C
 10
212.420284
 20
210.705455
 30
0.0
 40
12.5
 50
298.685402
 51
61.314598
210
0.0
220
0.0
230
1.0
  0
LINE
  8
0
  6
CONTINUOUS
 62
     7
  5
9D
 10
218.420284
 20
221.671312
 30
0.0
 11
218.420284
 21
199.739599
 31
0.0
  0
ARC
  8
0
  6
CONTINUOUS
 62
     7
  5
9E
 10
181.920284
 20
210.705455
 30
0.0
 40
5.0
 50
0.0
 51
180.0
210
0.0
220
0.0
230
1.0
  0
ARC
  8
0
  6
CONTINUOUS
 62
     7
  5
9F
 10
181.920284
 20
210.705455
 30
0.0
 40
5.0
 50
180.0
 51
360.0
210
0.0
220
0.0
230
1.0
  0
LINE
  8
0
  6
CONTINUOUS
 62
     7
  5
A0
 10
212.420284
 20
197.905455
 30
0.0
 11
190.270284
 21
197.905455
 31
0.0
  0
LINE
  8
0
  6
CONTINUOUS
 62
     7
  5
A1
 10
190.270284
 20
197.905455
 30
0.0
 11
190.270284
 21
201.004038
 31
0.0
  0
ARC
  8
0
  6
CONTINUOUS
 62
     7
  5
A2
 10
181.920284
 20
210.705455
 30
0.0
 40
12.8
 50
310.718545
 51
360.0
210
0.0
220
0.0
230
1.0
  0
ARC
  8
0
  6
CONTINUOUS
 62
     7
  5
A3
 10
181.920284
 20
210.705455
 30
0.0
 40
12.8
 50
0.0
 51
49.281455
210
0.0
220
0.0
230
1.0
  0
LINE
  8
0
  6
CONTINUOUS
 62
     7
  5
A4
 10
190.270284
 20
220.406873
 30
0.0
 11
190.270284
 21
223.505455
 31
0.0
  0
LINE
  8
0
  6
CONTINUOUS
 62
     7
  5
A5
 10
190.270284
 20
223.505455
 30
0.0
 11
212.420284
 21
223.505455
 31
0.0
  0
LINE
  8
0
  6
CONTINUOUS
 62
     7
  5
A6
 10
212.420284
 20
223.505455
 30
0.0
 11
212.420284
 21
223.205455
 31
0.0
  0
LINE
  8
0
  6
CONTINUOUS
 62
     7
  5
A7
 10
212.420284
 20
198.205455
 30
0.0
 11
212.420284
 21
197.905455
 31
0.0
  0
ARC
  8
0
  6
CONTINUOUS
 62
     7
  5
A8
 10
212.420284
 20
210.705455
 30
0.0
 40
12.5
 50
61.314598
 51
90.0
210
0.0
220
0.0
230
1.0
  0
ARC
  8
0
  6
CONTINUOUS
 62
     7
  5
A9
 10
212.420284
 20
210.705455
 30
0.0
 40
12.5
 50
270.0
 51
298.685402
210
0.0
220
0.0
230
1.0
  0
LINE
  8
0
  6
CONTINUOUS
 62
     7
  5
AA
 10
190.270284
 20
197.905455
 30
0.0
 11
181.920284
 21
197.905455
 31
0.0
  0
LINE
  8
0
  6
CONTINUOUS
 62
     7
  5
AB
 10
181.920284
 20
223.505455
 30
0.0
 11
190.270284
 21
223.505455
 31
0.0
  0
ARC
  8
0
  6
CONTINUOUS
 62
     7
  5
AC
 10
181.920284
 20
210.705455
 30
0.0
 40
12.5
 50
298.685402
 51
61.314598
210
0.0
220
0.0
230
1.0
  0
LINE
  8
0
  6
CONTINUOUS
 62
     7
  5
AD
 10
187.920284
 20
221.671312
 30
0.0
 11
187.920284
 21
199.739599
 31
0.0
  0
ARC
  8
0
  6
CONTINUOUS
 62
     7
  5
AE
 10
151.420284
 20
210.705455
 30
0.0
 40
5.0
 50
0.0
 51
180.0
210
0.0
220
0.0
230
1.0
  0
ARC
  8
0
  6
CONTINUOUS
 62
     7
  5
AF
 10
151.420284
 20
210.705455
 30
0.0
 40
5.0
 50
180.0
 51
360.0
210
0.0
220
0.0
230
1.0
  0
LINE
  8
0
  6
CONTINUOUS
 62
     7
  5
B0
 10
181.920284
 20
197.905455
 30
0.0
 11
159.770284
 21
197.905455
 31
0.0
  0
LINE
  8
0
  6
CONTINUOUS
 62
     7
  5
B1
 10
159.770284
 20
197.905455
 30
0.0
 11
159.770284
 21
201.004038
 31
0.0
  0
ARC
  8
0
  6
CONTINUOUS
 62
     7
  5
B2
 10
151.420284
 20
210.705455
 30
0.0
 40
12.8
 50
310.718545
 51
360.0
210
0.0
220
0.0
230
1.0
  0
ARC
  8
0
  6
CONTINUOUS
 62
     7
  5
B3
 10
151.420284
 20
210.705455
 30
0.0
 40
12.8
 50
0.0
 51
49.281455
210
0.0
220
0.0
230
1.0
  0
LINE
  8
0
  6
CONTINUOUS
 62
     7
  5
B4
 10
159.770284
 20
220.406873
 30
0.0
 11
159.770284
 21
223.505455
 31
0.0
  0
LINE
  8
0
  6
CONTINUOUS
 62
     7
  5
B5
 10
181.920284
 20
198.205455
 30
0.0
 11
181.920284
 21
197.905455
 31
0.0
  0
LINE
  8
0
  6
CONTINUOUS
 62
     7
  5
B6
 10
159.770284
 20
223.505455
 30
0.0
 11
181.920284
 21
223.505455
 31
0.0
  0
LINE
  8
0
  6
CONTINUOUS
 62
     7
  5
B7
 10
181.920284
 20
223.505455
 30
0.0
 11
181.920284
 21
223.205455
 31
0.0
  0
ARC
  8
0
  6
CONTINUOUS
 62
     7
  5
B8
 10
181.920284
 20
210.705455
 30
0.0
 40
12.5
 50
61.314598
 51
90.0
210
0.0
220
0.0
230
1.0
  0
ARC
  8
0
  6
CONTINUOUS
 62
     7
  5
B9
 10
181.920284
 20
210.705455
 30
0.0
 40
12.5
 50
270.0
 51
298.685402
210
0.0
220
0.0
230
1.0
  0
LINE
  8
0
  6
CONTINUOUS
 62
     7
  5
BA
 10
159.770284
 20
197.905455
 30
0.0
 11
151.420284
 21
197.905455
 31
0.0
  0
LINE
  8
0
  6
CONTINUOUS
 62
     7
  5
BB
 10
151.420284
 20
223.505455
 30
0.0
 11
159.770284
 21
223.505455
 31
0.0
  0
LINE
  8
0
  6
CONTINUOUS
 62
     7
  5
BC
 10
157.420284
 20
221.671312
 30
0.0
 11
157.420284
 21
199.739599
 31
0.0
  0
ARC
  8
0
  6
CONTINUOUS
 62
     7
  5
BD
 10
151.420284
 20
210.705455
 30
0.0
 40
12.5
 50
298.685402
 51
61.314598
210
0.0
220
0.0
230
1.0
  0
ARC
  8
0
  6
CONTINUOUS
 62
     7
  5
BE
 10
120.920284
 20
210.705455
 30
0.0
 40
5.0
 50
180.0
 51
360.0
210
0.0
220
0.0
230
1.0
  0
ARC
  8
0
  6
CONTINUOUS
 62
     7
  5
BF
 10
120.920284
 20
210.705455
 30
0.0
 40
5.0
 50
0.0
 51
180.0
210
0.0
220
0.0
230
1.0
  0
LINE
  8
0
  6
CONTINUOUS
 62
     7
  5
C0
 10
151.420284
 20
197.905455
 30
0.0
 11
129.270284
 21
197.905455
 31
0.0
  0
LINE
  8
0
  6
CONTINUOUS
 62
     7
  5
C1
 10
129.270284
 20
197.905455
 30
0.0
 11
129.270284
 21
201.004038
 31
0.0
  0
ARC
  8
0
  6
CONTINUOUS
 62
     7
  5
C2
 10
120.920284
 20
210.705455
 30
0.0
 40
12.8
 50
310.718545
 51
0.0
210
0.0
220
0.0
230
1.0
  0
ARC
  8
0
  6
CONTINUOUS
 62
     7
  5
C3
 10
120.920284
 20
210.705455
 30
0.0
 40
12.8
 50
0.0
 51
49.281455
210
0.0
220
0.0
230
1.0
  0
LINE
  8
0
  6
CONTINUOUS
 62
     7
  5
C4
 10
129.270284
 20
220.406873
 30
0.0
 11
129.270284
 21
223.505455
 31
0.0
  0
LINE
  8
0
  6
CONTINUOUS
 62
     7
  5
C5
 10
129.270284
 20
223.505455
 30
0.0
 11
151.420284
 21
223.505455
 31
0.0
  0
LINE
  8
0
  6
CONTINUOUS
 62
     7
  5
C6
 10
151.420284
 20
198.205455
 30
0.0
 11
151.420284
 21
197.905455
 31
0.0
  0
LINE
  8
0
  6
CONTINUOUS
 62
     7
  5
C7
 10
151.420284
 20
223.505455
 30
0.0
 11
151.420284
 21
223.205455
 31
0.0
  0
ARC
  8
0
  6
CONTINUOUS
 62
     7
  5
C8
 10
151.420284
 20
210.705455
 30
0.0
 40
12.5
 50
61.314598
 51
90.0
210
0.0
220
0.0
230
1.0
  0
ARC
  8
0
  6
CONTINUOUS
 62
     7
  5
C9
 10
151.420284
 20
210.705455
 30
0.0
 40
12.5
 50
270.0
 51
298.685402
210
0.0
220
0.0
230
1.0
  0
LINE
  8
0
  6
CONTINUOUS
 62
     7
  5
CA
 10
120.920284
 20
223.205455
 30
0.0
 11
120.920284
 21
223.505455
 31
0.0
  0
LINE
  8
0
  6
CONTINUOUS
 62
     7
  5
CB
 10
129.270284
 20
197.905455
 30
0.0
 11
121.501634
 21
197.905455
 31
0.0
  0
LINE
  8
0
  6
CONTINUOUS
 62
     7
  5
CC
 10
120.920284
 20
223.505455
 30
0.0
 11
129.270284
 21
223.505455
 31
0.0
  0
LINE
  8
0
  6
CONTINUOUS
 62
     7
  5
CD
 10
125.901538
 20
222.170058
 30
0.0
 11
127.889625
 21
200.328641
 31
0.0
  0
ARC
  8
0
  6
CONTINUOUS
 62
     7
  5
CE
 10
120.920284
 20
210.705455
 30
0.0
 40
12.5
 50
303.886346
 51
66.515542
210
0.0
220
0.0
230
1.0
  0
ARC
  8
0
  6
CONTINUOUS
 62
     7
  5
CF
 10
90.545855
 20
207.940661
 30
0.0
 40
5.0
 50
5.200944
 51
185.200944
210
0.0
220
0.0
230
1.0
  0
ARC
  8
0
  6
CONTINUOUS
 62
     7
  5
D0
 10
90.545855
 20
207.940661
 30
0.0
 40
5.0
 50
185.200944
 51
5.200944
210
0.0
220
0.0
230
1.0
  0
LINE
  8
0
  6
CONTINUOUS
 62
     7
  5
D1
 10
122.080591
 20
197.958154
 30
0.0
 11
100.021785
 21
195.950279
 31
0.0
  0
LINE
  8
0
  6
CONTINUOUS
 62
     7
  5
D2
 10
100.021785
 20
195.950279
 30
0.0
 11
99.740901
 21
199.036105
 31
0.0
  0
ARC
  8
0
  6
CONTINUOUS
 62
     7
  5
D3
 10
90.545855
 20
207.940661
 30
0.0
 40
12.8
 50
315.919489
 51
5.200944
210
0.0
220
0.0
230
1.0
  0
ARC
  8
0
  6
CONTINUOUS
 62
     7
  5
D4
 10
90.545855
 20
207.940661
 30
0.0
 40
12.8
 50
5.200944
 51
54.4824
210
0.0
220
0.0
230
1.0
  0
LINE
  8
0
  6
CONTINUOUS
 62
     7
  5
D5
 10
97.982054
 20
218.359056
 30
0.0
 11
97.701171
 21
221.444881
 31
0.0
  0
LINE
  8
0
  6
CONTINUOUS
 62
     7
  5
D6
 10
97.701171
 20
221.444881
 30
0.0
 11
119.759977
 21
223.452757
 31
0.0
  0
LINE
  8
0
  6
CONTINUOUS
 62
     7
  5
D7
 10
119.759977
 20
223.452757
 30
0.0
 11
119.787172
 21
223.153992
 31
0.0
  0
LINE
  8
0
  6
CONTINUOUS
 62
     7
  5
D8
 10
122.053396
 20
198.256919
 30
0.0
 11
122.080591
 21
197.958154
 31
0.0
  0
ARC
  8
0
  6
CONTINUOUS
 62
     7
  5
D9
 10
120.920284
 20
210.705455
 30
0.0
 40
12.5
 50
66.515542
 51
95.200944
210
0.0
220
0.0
230
1.0
  0
ARC
  8
0
  6
CONTINUOUS
 62
     7
  5
DA
 10
120.920284
 20
210.705455
 30
0.0
 40
12.5
 50
275.200944
 51
303.886346
210
0.0
220
0.0
230
1.0
  0
LINE
  8
0
  6
CONTINUOUS
 62
     7
  5
DB
 10
89.412743
 20
220.389198
 30
0.0
 11
89.385548
 21
220.687962
 31
0.0
  0
LINE
  8
0
  6
CONTINUOUS
 62
     7
  5
DC
 10
100.021785
 20
195.950279
 30
0.0
 11
95.637137
 21
195.551172
 31
0.0
  0
LINE
  8
0
  6
CONTINUOUS
 62
     7
  5
DD
 10
89.385548
 20
220.687962
 30
0.0
 11
97.701171
 21
221.444881
 31
0.0
  0
LINE
  8
0
  6
CONTINUOUS
 62
     7
  5
DE
 10
47.447366
 20
160.001978
 30
0.0
 11
67.548503
 21
168.773766
 31
0.0
  0
ARC
  8
0
  6
CONTINUOUS
 62
     7
  5
DF
 10
59.897689
 20
158.888674
 30
0.0
 40
12.5
 50
52.261026
 51
174.890222
210
0.0
220
0.0
230
1.0
  0
ARC
  8
0
  6
CONTINUOUS
 62
     7
  5
E0
 10
72.096443
 20
130.934418
 30
0.0
 40
5.0
 50
293.575624
 51
113.575624
210
0.0
220
0.0
230
1.0
  0
ARC
  8
0
  6
CONTINUOUS
 62
     7
  5
E1
 10
72.096443
 20
130.934418
 30
0.0
 40
5.0
 50
113.575624
 51
293.575624
210
0.0
220
0.0
230
0.9999999999999999
  0
LINE
  8
0
  6
CONTINUOUS
 62
     7
  5
E2
 10
71.629311
 20
164.008151
 30
0.0
 11
80.488406
 21
143.706946
 31
0.0
  0
LINE
  8
0
  6
CONTINUOUS
 62
     7
  5
E3
 10
80.488406
 20
143.706946
 30
0.0
 11
77.648453
 21
142.467639
 31
0.0
  0
ARC
  8
0
  6
CONTINUOUS
 62
     7
  5
E4
 10
72.096443
 20
130.934418
 30
0.0
 40
12.8
 50
64.294169
 51
113.575624
210
0.0
220
0.0
230
1.0
  0
ARC
  8
0
  6
CONTINUOUS
 62
     7
  5
E5
 10
72.096443
 20
130.934418
 30
0.0
 40
12.8
 50
113.575624
 51
162.857079
210
0.0
220
0.0
230
1.0
  0
LINE
  8
0
  6
CONTINUOUS
 62
     7
  5
E6
 10
59.865115
 20
134.707298
 30
0.0
 11
57.025162
 21
133.467992
 31
0.0
  0
LINE
  8
0
  6
CONTINUOUS
 62
     7
  5
E7
 10
57.025162
 20
133.467992
 30
0.0
 11
48.166067
 21
153.769197
 31
0.0
  0
LINE
  8
0
  6
CONTINUOUS
 62
     7
  5
E8
 10
48.166067
 20
153.769197
 30
0.0
 11
48.441027
 21
153.889185
 31
0.0
  0
LINE
  8
0
  6
CONTINUOUS
 62
     7
  5
E9
 10
71.354352
 20
163.888163
 30
0.0
 11
71.629311
 21
164.008151
 31
0.0
  0
ARC
  8
0
  6
CONTINUOUS
 62
     7
  5
EA
 10
59.897689
 20
158.888674
 30
0.0
 40
12.5
 50
174.890222
 51
203.575624
210
0.0
220
0.0
230
1.0
  0
ARC
  8
0
  6
CONTINUOUS
 62
     7
  5
EB
 10
59.897689
 20
158.888674
 30
0.0
 40
12.5
 50
23.575624
 51
52.261026
210
0.0
220
0.0
230
1.0
  0
LINE
  8
0
  6
CONTINUOUS
 62
     7
  5
EC
 10
60.639781
 20
125.934929
 30
0.0
 11
60.364821
 21
125.814941
 31
0.0
  0
LINE
  8
0
  6
CONTINUOUS
 62
     7
  5
ED
 10
80.488406
 20
143.706946
 30
0.0
 11
82.249336
 21
139.671657
 31
0.0
  0
LINE
  8
0
  6
CONTINUOUS
 62
     7
  5
EE
 10
60.364821
 20
125.814941
 30
0.0
 11
57.025162
 21
133.467992
 31
0.0
  0
ARC
  8
0
  6
CONTINUOUS
 62
     7
  5
EF
 10
67.003878
 20
188.549289
 30
0.0
 40
12.5
 50
15.212244
 51
137.84144
210
0.0
220
0.0
230
1.0
  0
LINE
  8
0
  6
CONTINUOUS
 62
     7
  5
F0
 10
57.737751
 20
196.939097
 30
0.0
 11
79.065884
 21
191.829231
 31
0.0
  0
ARC
  8
0
  6
CONTINUOUS
 62
     7
  5
F1
 10
59.897689
 20
158.888674
 30
0.0
 40
5.0
 50
256.526842
 51
76.526842
210
0.0
220
0.0
230
1.0
  0
ARC
  8
0
  6
CONTINUOUS
 62
     7
  5
F2
 10
59.897689
 20
158.888674
 30
0.0
 40
5.0
 50
76.526842
 51
256.526842
210
0.0
220
0.0
230
1.0
  0
LINE
  8
0
  6
CONTINUOUS
 62
     7
  5
F3
 10
79.451612
 20
185.56702
 30
0.0
 11
74.290888
 21
164.026606
 31
0.0
  0
LINE
  8
0
  6
CONTINUOUS
 62
     7
  5
F4
 10
74.290888
 20
164.026606
 30
0.0
 11
71.277581
 21
164.748544
 31
0.0
  0
ARC
  8
0
  6
CONTINUOUS
 62
     7
  5
F5
 10
59.897689
 20
158.888674
 30
0.0
 40
12.8
 50
27.245386
 51
76.526842
210
0.0
220
0.0
230
1.0
  0
ARC
  8
0
  6
CONTINUOUS
 62
     7
  5
F6
 10
59.897689
 20
158.888674
 30
0.0
 40
12.8
 50
76.526842
 51
125.808297
210
0.0
220
0.0
230
1.0
  0
LINE
  8
0
  6
CONTINUOUS
 62
     7
  5
F7
 10
52.408728
 20
169.269207
 30
0.0
 11
49.395421
 21
169.991145
 31
0.0
  0
LINE
  8
0
  6
CONTINUOUS
 62
     7
  5
F8
 10
49.395421
 20
169.991145
 30
0.0
 11
54.556145
 21
191.531558
 31
0.0
  0
LINE
  8
0
  6
CONTINUOUS
 62
     7
  5
F9
 10
54.556145
 20
191.531558
 30
0.0
 11
54.847889
 21
191.461662
 31
0.0
  0
LINE
  8
0
  6
CONTINUOUS
 62
     7
  5
FA
 10
79.159868
 20
185.636916
 30
0.0
 11
79.451612
 21
185.56702
 31
0.0
  0
ARC
  8
0
  6
CONTINUOUS
 62
     7
  5
FB
 10
67.003878
 20
188.549289
 30
0.0
 40
12.5
 50
137.84144
 51
166.526842
210
0.0
220
0.0
230
1.0
  0
ARC
  8
0
  6
CONTINUOUS
 62
     7
  5
FC
 10
67.003878
 20
188.549289
 30
0.0
 40
12.5
 50
346.526842
 51
15.212244
210
0.0
220
0.0
230
1.0
  0
LINE
  8
0
  6
CONTINUOUS
 62
     7
  5
FD
 10
47.7417
 20
161.801047
 30
0.0
 11
47.449956
 21
161.870944
 31
0.0
  0
LINE
  8
0
  6
CONTINUOUS
 62
     7
  5
FE
 10
47.449956
 20
161.870944
 30
0.0
 11
49.395421
 21
169.991145
 31
0.0
  0
LINE
  8
0
  6
CONTINUOUS
 62
     7
  5
FF
 10
74.290888
 20
164.026606
 30
0.0
 11
73.344688
 21
160.077251
 31
0.0
  0
ARC
  8
0
  6
CONTINUOUS
 62
     7
  5
100
 10
67.003878
 20
188.549289
 30
0.0
 40
5.0
 50
39.47806
 51
219.47806
210
0.0
220
0.0
230
1.0
  0
ARC
  8
0
  6
CONTINUOUS
 62
     7
  5
101
 10
67.003878
 20
188.549289
 30
0.0
 40
5.0
 50
219.47806
 51
39.47806
210
0.0
220
0.0
230
1.0
  0
LINE
  8
0
  6
CONTINUOUS
 62
     7
  5
102
 10
88.205163
 20
220.219552
 30
0.0
 11
102.148966
 21
203.291163
 31
0.0
  0
ARC
  8
0
  6
CONTINUOUS
 62
     7
  5
103
 10
90.545855
 20
207.940661
 30
0.0
 40
12.5
 50
338.163462
 51
100.792658
210
0.0
220
0.0
230
1.0
  0
LINE
  8
0
  6
CONTINUOUS
 62
     7
  5
104
 10
98.683874
 20
198.06075
 30
0.0
 11
81.586996
 21
183.978163
 31
0.0
  0
LINE
  8
0
  6
CONTINUOUS
 62
     7
  5
105
 10
81.586996
 20
183.978163
 30
0.0
 11
79.61697
 21
186.36986
 31
0.0
  0
ARC
  8
0
  6
CONTINUOUS
 62
     7
  5
106
 10
67.003878
 20
188.549289
 30
0.0
 40
12.8
 50
350.196604
 51
39.47806
210
0.0
220
0.0
230
1.0
  0
ARC
  8
0
  6
CONTINUOUS
 62
     7
  5
107
 10
67.003878
 20
188.549289
 30
0.0
 40
12.8
 50
39.47806
 51
88.759515
210
0.0
220
0.0
230
1.0
  0
LINE
  8
0
  6
CONTINUOUS
 62
     7
  5
108
 10
67.280984
 20
201.346289
 30
0.0
 11
65.310959
 21
203.737986
 31
0.0
  0
LINE
  8
0
  6
CONTINUOUS
 62
     7
  5
109
 10
82.407837
 20
217.820573
 30
0.0
 11
82.598572
 21
217.589012
 31
0.0
  0
LINE
  8
0
  6
CONTINUOUS
 62
     7
  5
10A
 10
98.493139
 20
198.29231
 30
0.0
 11
98.683874
 21
198.06075
 31
0.0
  0
LINE
  8
0
  6
CONTINUOUS
 62
     7
  5
10B
 10
65.310959
 20
203.737986
 30
0.0
 11
82.407837
 21
217.820573
 31
0.0
  0
ARC
  8
0
  6
CONTINUOUS
 62
     7
  5
10C
 10
90.545855
 20
207.940661
 30
0.0
 40
12.5
 50
100.792658
 51
129.47806
210
0.0
220
0.0
230
1.0
  0
ARC
  8
0
  6
CONTINUOUS
 62
     7
  5
10D
 10
90.545855
 20
207.940661
 30
0.0
 40
12.5
 50
309.47806
 51
338.163462
210
0.0
220
0.0
230
1.0
  0
LINE
  8
0
  6
CONTINUOUS
 62
     7
  5
10E
 10
59.056595
 20
198.19764
 30
0.0
 11
58.86586
 21
198.429201
 31
0.0
  0
LINE
  8
0
  6
CONTINUOUS
 62
     7
  5
10F
 10
81.586996
 20
183.978163
 30
0.0
 11
78.452347
 21
181.396173
 31
0.0
  0
LINE
  8
0
  6
CONTINUOUS
 62
     7
  5
110
 10
58.86586
 20
198.429201
 30
0.0
 11
65.310959
 21
203.737986
 31
0.0
  0
ARC
  8
0
  6
CONTINUOUS
 62
     7
  5
111
 10
72.096443
 20
130.934418
 30
0.0
 40
12.5
 50
86.538142
 51
209.167338
210
0.0
220
0.0
230
1.0
  0
LINE
  8
0
  6
CONTINUOUS
 62
     7
  5
112
 10
61.181443
 20
124.842394
 30
0.0
 11
72.851244
 21
143.411609
 31
0.0
  0
ARC
  8
0
  6
CONTINUOUS
 62
     7
  5
113
 10
97.920284
 20
114.705455
 30
0.0
 40
5.0
 50
327.85274
 51
147.85274
210
0.0
220
0.0
230
1.0
  0
ARC
  8
0
  6
CONTINUOUS
 62
     7
  5
114
 10
97.920284
 20
114.705455
 30
0.0
 40
5.0
 50
147.85274
 51
327.85274
210
0.0
220
0.0
230
1.0
  0
LINE
  8
0
  6
CONTINUOUS
 62
     7
  5
115
 10
97.661322
 20
129.986013
 30
0.0
 11
96.012575
 21
127.362495
 31
0.0
  0
ARC
  8
0
  6
CONTINUOUS
 62
     7
  5
116
 10
97.920284
 20
114.705455
 30
0.0
 40
12.8
 50
98.571284
 51
147.85274
210
0.0
220
0.0
230
1.0
  0
ARC
  8
0
  6
CONTINUOUS
 62
     7
  5
117
 10
97.920284
 20
114.705455
 30
0.0
 40
12.8
 50
147.85274
 51
197.134195
210
0.0
220
0.0
230
1.0
  0
LINE
  8
0
  6
CONTINUOUS
 62
     7
  5
118
 10
85.688382
 20
110.934438
 30
0.0
 11
84.039635
 21
108.31092
 31
0.0
  0
LINE
  8
0
  6
CONTINUOUS
 62
     7
  5
119
 10
84.039635
 20
108.31092
 30
0.0
 11
65.2856
 21
120.096872
 31
0.0
  0
LINE
  8
0
  6
CONTINUOUS
 62
     7
  5
11A
 10
65.2856
 20
120.096872
 30
0.0
 11
65.445229
 21
120.350877
 31
0.0
  0
LINE
  8
0
  6
CONTINUOUS
 62
     7
  5
11B
 10
78.907287
 20
141.771965
 30
0.0
 11
97.661322
 21
129.986013
 31
0.0
  0
LINE
  8
0
  6
CONTINUOUS
 62
     7
  5
11C
 10
78.747657
 20
141.51796
 30
0.0
 11
78.907287
 21
141.771965
 31
0.0
  0
ARC
  8
0
  6
CONTINUOUS
 62
     7
  5
11D
 10
72.096443
 20
130.934418
 30
0.0
 40
12.5
 50
209.167338
 51
237.85274
210
0.0
220
0.0
230
1.0
  0
ARC
  8
0
  6
CONTINUOUS
 62
     7
  5
11E
 10
72.096443
 20
130.934418
 30
0.0
 40
12.5
 50
57.85274
 51
86.538142
210
0.0
220
0.0
230
1.0
  0
LINE
  8
0
  6
CONTINUOUS
 62
     7
  5
11F
 10
91.26907
 20
104.121914
 30
0.0
 11
91.109441
 21
103.867909
 31
0.0
  0
LINE
  8
0
  6
CONTINUOUS
 62
     7
  5
120
 10
91.109441
 20
103.867909
 30
0.0
 11
84.039635
 21
108.31092
 31
0.0
  0
LINE
  8
0
  6
CONTINUOUS
 62
     7
  5
121
 10
97.661322
 20
129.986013
 30
0.0
 11
101.608433
 21
127.505455
 31
0.0
  0
LINE
  8
0
  6
CONTINUOUS
 62
     7
  5
122
 10
91.920284
 20
103.739599
 30
0.0
 11
91.920284
 21
125.671312
 31
0.0
  0
ARC
  8
0
  6
CONTINUOUS
 62
     7
  5
123
 10
97.920284
 20
114.705455
 30
0.0
 40
12.5
 50
118.685402
 51
241.314598
210
0.0
220
0.0
230
1.0
  0
ARC
  8
0
  6
CONTINUOUS
 62
     7
  5
124
 10
128.420284
 20
114.705455
 30
0.0
 40
5.0
 50
0.0
 51
180.0
210
0.0
220
0.0
230
1.0
  0
ARC
  8
0
  6
CONTINUOUS
 62
     7
  5
125
 10
128.420284
 20
114.705455
 30
0.0
 40
5.0
 50
180.0
 51
360.0
210
0.0
220
0.0
230
1.0
  0
LINE
  8
0
  6
CONTINUOUS
 62
     7
  5
126
 10
97.920284
 20
127.505455
 30
0.0
 11
120.070284
 21
127.505455
 31
0.0
  0
LINE
  8
0
  6
CONTINUOUS
 62
     7
  5
127
 10
120.070284
 20
127.505455
 30
0.0
 11
120.070284
 21
124.406873
 31
0.0
  0
ARC
  8
0
  6
CONTINUOUS
 62
     7
  5
128
 10
128.420284
 20
114.705455
 30
0.0
 40
12.8
 50
180.0
 51
229.281455
210
0.0
220
0.0
230
1.0
  0
LINE
  8
0
  6
CONTINUOUS
 62
     7
  5
129
 10
120.070284
 20
105.004038
 30
0.0
 11
120.070284
 21
101.905455
 31
0.0
  0
LINE
  8
0
  6
CONTINUOUS
 62
     7
  5
12A
 10
120.070284
 20
101.905455
 30
0.0
 11
97.920284
 21
101.905455
 31
0.0
  0
LINE
  8
0
  6
CONTINUOUS
 62
     7
  5
12B
 10
97.920284
 20
101.905455
 30
0.0
 11
97.920284
 21
102.205455
 31
0.0
  0
LINE
  8
0
  6
CONTINUOUS
 62
     7
  5
12C
 10
97.920284
 20
127.205455
 30
0.0
 11
97.920284
 21
127.505455
 31
0.0
  0
ARC
  8
0
  6
CONTINUOUS
 62
     7
  5
12D
 10
128.420284
 20
114.705455
 30
0.0
 40
12.8
 50
130.718545
 51
180.0
210
0.0
220
0.0
230
0.9999999999999999
  0
ARC
  8
0
  6
CONTINUOUS
 62
     7
  5
12E
 10
97.920284
 20
114.705455
 30
0.0
 40
12.5
 50
241.314598
 51
270.0
210
0.0
220
0.0
230
1.0
  0
ARC
  8
0
  6
CONTINUOUS
 62
     7
  5
12F
 10
97.920284
 20
114.705455
 30
0.0
 40
12.5
 50
90.0
 51
118.685402
210
0.0
220
0.0
230
1.0
  0
LINE
  8
0
  6
CONTINUOUS
 62
     7
  5
130
 10
128.420284
 20
101.905455
 30
0.0
 11
120.070284
 21
101.905455
 31
0.0
  0
LINE
  8
0
  6
CONTINUOUS
 62
     7
  5
131
 10
120.070284
 20
127.505455
 30
0.0
 11
128.420284
 21
127.505455
 31
0.0
  0
ARC
  8
0
  6
CONTINUOUS
 62
     7
  5
132
 10
128.420284
 20
114.705455
 30
0.0
 40
12.5
 50
118.685402
 51
241.314598
210
0.0
220
0.0
230
1.0
  0
LINE
  8
0
  6
CONTINUOUS
 62
     7
  5
133
 10
122.420284
 20
103.739599
 30
0.0
 11
122.420284
 21
125.671312
 31
0.0
  0
ARC
  8
0
  6
CONTINUOUS
 62
     7
  5
134
 10
158.920284
 20
114.705455
 30
0.0
 40
5.0
 50
180.0
 51
360.0
210
0.0
220
0.0
230
1.0
  0
ARC
  8
0
  6
CONTINUOUS
 62
     7
  5
135
 10
158.920284
 20
114.705455
 30
0.0
 40
5.0
 50
0.0
 51
180.0
210
0.0
220
0.0
230
1.0
  0
LINE
  8
0
  6
CONTINUOUS
 62
     7
  5
136
 10
128.420284
 20
127.505455
 30
0.0
 11
150.570284
 21
127.505455
 31
0.0
  0
LINE
  8
0
  6
CONTINUOUS
 62
     7
  5
137
 10
150.570284
 20
127.505455
 30
0.0
 11
150.570284
 21
124.406873
 31
0.0
  0
ARC
  8
0
  6
CONTINUOUS
 62
     7
  5
138
 10
158.920284
 20
114.705455
 30
0.0
 40
12.8
 50
130.718545
 51
180.0
210
0.0
220
0.0
230
0.9999999999999999
  0
ARC
  8
0
  6
CONTINUOUS
 62
     7
  5
139
 10
158.920284
 20
114.705455
 30
0.0
 40
12.8
 50
180.0
 51
229.281455
210
0.0
220
0.0
230
1.0
  0
LINE
  8
0
  6
CONTINUOUS
 62
     7
  5
13A
 10
150.570284
 20
105.004038
 30
0.0
 11
150.570284
 21
101.905455
 31
0.0
  0
LINE
  8
0
  6
CONTINUOUS
 62
     7
  5
13B
 10
150.570284
 20
101.905455
 30
0.0
 11
128.420284
 21
101.905455
 31
0.0
  0
LINE
  8
0
  6
CONTINUOUS
 62
     7
  5
13C
 10
128.420284
 20
101.905455
 30
0.0
 11
128.420284
 21
102.205455
 31
0.0
  0
LINE
  8
0
  6
CONTINUOUS
 62
     7
  5
13D
 10
128.420284
 20
127.205455
 30
0.0
 11
128.420284
 21
127.505455
 31
0.0
  0
ARC
  8
0
  6
CONTINUOUS
 62
     7
  5
13E
 10
128.420284
 20
114.705455
 30
0.0
 40
12.5
 50
241.314598
 51
270.0
210
0.0
220
0.0
230
1.0
  0
ARC
  8
0
  6
CONTINUOUS
 62
     7
  5
13F
 10
128.420284
 20
114.705455
 30
0.0
 40
12.5
 50
90.0
 51
118.685402
210
0.0
220
0.0
230
1.0
  0
LINE
  8
0
  6
CONTINUOUS
 62
     7
  5
140
 10
158.920284
 20
101.905455
 30
0.0
 11
150.570284
 21
101.905455
 31
0.0
  0
LINE
  8
0
  6
CONTINUOUS
 62
     7
  5
141
 10
150.570284
 20
127.505455
 30
0.0
 11
158.920284
 21
127.505455
 31
0.0
  0
LINE
  8
0
  6
CONTINUOUS
 62
     7
  5
142
 10
152.920284
 20
103.739599
 30
0.0
 11
152.920284
 21
125.671312
 31
0.0
  0
ARC
  8
0
  6
CONTINUOUS
 62
     7
  5
143
 10
158.920284
 20
114.705455
 30
0.0
 40
12.5
 50
118.685402
 51
241.314598
210
0.0
220
0.0
230
1.0
  0
ARC
  8
0
  6
CONTINUOUS
 62
     7
  5
144
 10
189.420284
 20
114.705455
 30
0.0
 40
5.0
 50
180.0
 51
360.0
210
0.0
220
0.0
230
1.0
  0
ARC
  8
0
  6
CONTINUOUS
 62
     7
  5
145
 10
189.420284
 20
114.705455
 30
0.0
 40
5.0
 50
0.0
 51
180.0
210
0.0
220
0.0
230
1.0
  0
LINE
  8
0
  6
CONTINUOUS
 62
     7
  5
146
 10
158.920284
 20
127.505455
 30
0.0
 11
181.070284
 21
127.505455
 31
0.0
  0
LINE
  8
0
  6
CONTINUOUS
 62
     7
  5
147
 10
181.070284
 20
127.505455
 30
0.0
 11
181.070284
 21
124.406873
 31
0.0
  0
ARC
  8
0
  6
CONTINUOUS
 62
     7
  5
148
 10
189.420284
 20
114.705455
 30
0.0
 40
12.8
 50
130.718545
 51
180.0
210
0.0
220
0.0
230
0.9999999999999999
  0
ARC
  8
0
  6
CONTINUOUS
 62
     7
  5
149
 10
189.420284
 20
114.705455
 30
0.0
 40
12.8
 50
180.0
 51
229.281455
210
0.0
220
0.0
230
1.0
  0
LINE
  8
0
  6
CONTINUOUS
 62
     7
  5
14A
 10
181.070284
 20
105.004038
 30
0.0
 11
181.070284
 21
101.905455
 31
0.0
  0
LINE
  8
0
  6
CONTINUOUS
 62
     7
  5
14B
 10
181.070284
 20
101.905455
 30
0.0
 11
158.920284
 21
101.905455
 31
0.0
  0
LINE
  8
0
  6
CONTINUOUS
 62
     7
  5
14C
 10
158.920284
 20
101.905455
 30
0.0
 11
158.920284
 21
102.205455
 31
0.0
  0
LINE
  8
0
  6
CONTINUOUS
 62
     7
  5
14D
 10
158.920284
 20
127.205455
 30
0.0
 11
158.920284
 21
127.505455
 31
0.0
  0
ARC
  8
0
  6
CONTINUOUS
 62
     7
  5
14E
 10
158.920284
 20
114.705455
 30
0.0
 40
12.5
 50
241.314598
 51
270.0
210
0.0
220
0.0
230
1.0
  0
ARC
  8
0
  6
CONTINUOUS
 62
     7
  5
14F
 10
158.920284
 20
114.705455
 30
0.0
 40
12.5
 50
90.0
 51
118.685402
210
0.0
220
0.0
230
1.0
  0
LINE
  8
0
  6
CONTINUOUS
 62
     7
  5
150
 10
189.420284
 20
101.905455
 30
0.0
 11
181.070284
 21
101.905455
 31
0.0
  0
LINE
  8
0
  6
CONTINUOUS
 62
     7
  5
151
 10
181.070284
 20
127.505455
 30
0.0
 11
189.420284
 21
127.505455
 31
0.0
  0
ARC
  8
0
  6
CONTINUOUS
 62
     7
  5
152
 10
189.420284
 20
114.705455
 30
0.0
 40
12.5
 50
118.685402
 51
241.314598
210
0.0
220
0.0
230
1.0
  0
LINE
  8
0
  6
CONTINUOUS
 62
     7
  5
153
 10
183.420284
 20
103.739599
 30
0.0
 11
183.420284
 21
125.671312
 31
0.0
  0
ARC
  8
0
  6
CONTINUOUS
 62
     7
  5
154
 10
219.920284
 20
114.705455
 30
0.0
 40
5.0
 50
180.0
 51
360.0
210
0.0
220
0.0
230
1.0
  0
ARC
  8
0
  6
CONTINUOUS
 62
     7
  5
155
 10
219.920284
 20
114.705455
 30
0.0
 40
5.0
 50
0.0
 51
180.0
210
0.0
220
0.0
230
1.0
  0
LINE
  8
0
  6
CONTINUOUS
 62
     7
  5
156
 10
211.570284
 20
127.505455
 30
0.0
 11
211.570284
 21
124.406873
 31
0.0
  0
ARC
  8
0
  6
CONTINUOUS
 62
     7
  5
157
 10
219.920284
 20
114.705455
 30
0.0
 40
12.8
 50
130.718545
 51
180.0
210
0.0
220
0.0
230
1.0
  0
ARC
  8
0
  6
CONTINUOUS
 62
     7
  5
158
 10
219.920284
 20
114.705455
 30
0.0
 40
12.8
 50
180.0
 51
229.281455
210
0.0
220
0.0
230
1.0
  0
LINE
  8
0
  6
CONTINUOUS
 62
     7
  5
159
 10
211.570284
 20
105.004038
 30
0.0
 11
211.570284
 21
101.905455
 31
0.0
  0
LINE
  8
0
  6
CONTINUOUS
 62
     7
  5
15A
 10
211.570284
 20
101.905455
 30
0.0
 11
189.420284
 21
101.905455
 31
0.0
  0
LINE
  8
0
  6
CONTINUOUS
 62
     7
  5
15B
 10
189.420284
 20
101.905455
 30
0.0
 11
189.420284
 21
102.205455
 31
0.0
  0
LINE
  8
0
  6
CONTINUOUS
 62
     7
  5
15C
 10
189.420284
 20
127.205455
 30
0.0
 11
189.420284
 21
127.505455
 31
0.0
  0
LINE
  8
0
  6
CONTINUOUS
 62
     7
  5
15D
 10
189.420284
 20
127.505455
 30
0.0
 11
211.570284
 21
127.505455
 31
0.0
  0
ARC
  8
0
  6
CONTINUOUS
 62
     7
  5
15E
 10
189.420284
 20
114.705455
 30
0.0
 40
12.5
 50
241.314598
 51
270.0
210
0.0
220
0.0
230
1.0
  0
ARC
  8
0
  6
CONTINUOUS
 62
     7
  5
15F
 10
189.420284
 20
114.705455
 30
0.0
 40
12.5
 50
90.0
 51
118.685402
210
0.0
220
0.0
230
1.0
  0
LINE
  8
0
  6
CONTINUOUS
 62
     7
  5
160
 10
219.920284
 20
101.905455
 30
0.0
 11
211.570284
 21
101.905455
 31
0.0
  0
LINE
  8
0
  6
CONTINUOUS
 62
     7
  5
161
 10
211.570284
 20
127.505455
 30
0.0
 11
219.920284
 21
127.505455
 31
0.0
  0
LINE
  8
0
  6
CONTINUOUS
 62
     7
  5
162
 10
213.920284
 20
103.739599
 30
0.0
 11
213.920284
 21
125.671312
 31
0.0
  0
ARC
  8
0
  6
CONTINUOUS
 62
     7
  5
163
 10
219.920284
 20
114.705455
 30
0.0
 40
12.5
 50
118.685402
 51
241.314598
210
0.0
220
0.0
230
1.0
  0
ARC
  8
0
  6
CONTINUOUS
 62
     7
  5
164
 10
250.420284
 20
114.705455
 30
0.0
 40
5.0
 50
0.0
 51
180.0
210
0.0
220
0.0
230
1.0
  0
ARC
  8
0
  6
CONTINUOUS
 62
     7
  5
165
 10
250.420284
 20
114.705455
 30
0.0
 40
5.0
 50
180.0
 51
270.0
210
0.0
220
0.0
230
1.0
  0
ARC
  8
0
  6
CONTINUOUS
 62
     7
  5
166
 10
250.420284
 20
114.705455
 30
0.0
 40
5.0
 50
270.0
 51
360.0
210
0.0
220
0.0
230
1.0
  0
LINE
  8
0
  6
CONTINUOUS
 62
     7
  5
167
 10
219.920284
 20
127.505455
 30
0.0
 11
242.070284
 21
127.505455
 31
0.0
  0
ARC
  8
0
  6
CONTINUOUS
 62
     7
  5
168
 10
250.420284
 20
114.705455
 30
0.0
 40
12.8
 50
180.0
 51
229.281455
210
0.0
220
0.0
230
1.0
  0
LINE
  8
0
  6
CONTINUOUS
 62
     7
  5
169
 10
242.070284
 20
105.004038
 30
0.0
 11
242.070284
 21
101.905455
 31
0.0
  0
LINE
  8
0
  6
CONTINUOUS
 62
     7
  5
16A
 10
242.070284
 20
101.905455
 30
0.0
 11
219.920284
 21
101.905455
 31
0.0
  0
LINE
  8
0
  6
CONTINUOUS
 62
     7
  5
16B
 10
219.920284
 20
101.905455
 30
0.0
 11
219.920284
 21
102.205455
 31
0.0
  0
LINE
  8
0
  6
CONTINUOUS
 62
     7
  5
16C
 10
242.070284
 20
127.505455
 30
0.0
 11
242.070284
 21
124.406873
 31
0.0
  0
LINE
  8
0
  6
CONTINUOUS
 62
     7
  5
16D
 10
219.920284
 20
127.205455
 30
0.0
 11
219.920284
 21
127.505455
 31
0.0
  0
ARC
  8
0
  6
CONTINUOUS
 62
     7
  5
16E
 10
250.420284
 20
114.705455
 30
0.0
 40
12.8
 50
130.718545
 51
180.0
210
0.0
220
0.0
230
1.0
  0
ARC
  8
0
  6
CONTINUOUS
 62
     7
  5
16F
 10
219.920284
 20
114.705455
 30
0.0
 40
12.5
 50
241.314598
 51
270.0
210
0.0
220
0.0
230
1.0
  0
ARC
  8
0
  6
CONTINUOUS
 62
     7
  5
170
 10
219.920284
 20
114.705455
 30
0.0
 40
12.5
 50
90.0
 51
118.685402
210
0.0
220
0.0
230
1.0
  0
LINE
  8
0
  6
CONTINUOUS
 62
     7
  5
171
 10
250.420284
 20
102.205455
 30
0.0
 11
250.420284
 21
101.905455
 31
0.0
  0
LINE
  8
0
  6
CONTINUOUS
 62
     7
  5
172
 10
250.420284
 20
127.505455
 30
0.0
 11
250.420284
 21
127.205455
 31
0.0
  0
LINE
  8
0
  6
CONTINUOUS
 62
     7
  5
173
 10
250.420284
 20
101.905455
 30
0.0
 11
242.070284
 21
101.905455
 31
0.0
  0
LINE
  8
0
  6
CONTINUOUS
 62
     7
  5
174
 10
242.070284
 20
127.505455
 30
0.0
 11
250.420284
 21
127.505455
 31
0.0
  0
LINE
  8
0
  6
CONTINUOUS
 62
     7
  5
175
 10
359.420284
 20
184.705455
 30
0.0
 11
366.070284
 21
184.705455
 31
0.0
  0
LINE
  8
0
  6
CONTINUOUS
 62
     7
  5
176
 10
366.070284
 20
188.705455
 30
0.0
 11
359.420284
 21
188.705455
 31
0.0
  0
LINE
  8
0
  6
CONTINUOUS
 62
     7
  5
177
 10
366.070284
 20
184.705455
 30
0.0
 11
366.420284
 21
185.055455
 31
0.0
  0
LINE
  8
0
  6
CONTINUOUS
 62
     7
  5
178
 10
366.420284
 20
188.355455
 30
0.0
 11
366.070284
 21
188.705455
 31
0.0
  0
LINE
  8
0
  6
CONTINUOUS
 62
     7
  5
179
 10
366.070284
 20
192.705455
 30
0.0
 11
359.420284
 21
192.705455
 31
0.0
  0
LINE
  8
0
  6
CONTINUOUS
 62
     7
  5
17A
 10
366.070284
 20
188.705455
 30
0.0
 11
366.420284
 21
189.055455
 31
0.0
  0
LINE
  8
0
  6
CONTINUOUS
 62
     7
  5
17B
 10
366.420284
 20
192.355455
 30
0.0
 11
366.070284
 21
192.705455
 31
0.0
  0
ENDBLK
  8
0
  5
17C
  0
BLOCK
  8
0
  5
17F
  2
AID691
 70
     0
 10
0.0
 20
0.0
 30
0.0
  3
#auxiliary draft view
  0
LINE
  8
0
  6
CONTINUOUS
 62
     7
  5
180
 10
163.420284
 20
332.554932
 30
0.0
 11
290.420284
 21
332.554932
 31
0.0
  0
LINE
  8
0
  6
CONTINUOUS
 62
     7
  5
181
 10
163.420284
 20
332.554932
 30
0.0
 11
163.420284
 21
382.554932
 31
0.0
  0
LINE
  8
0
  6
CONTINUOUS
 62
     7
  5
182
 10
163.420284
 20
382.554932
 30
0.0
 11
290.420284
 21
382.554932
 31
0.0
  0
LINE
  8
0
  6
CONTINUOUS
 62
     7
  5
183
 10
290.420284
 20
332.554932
 30
0.0
 11
290.420284
 21
382.554932
 31
0.0
  0
LINE
  8
0
  6
CONTINUOUS
 62
     7
  5
184
 10
237.920284
 20
392.554932
 30
0.0
 11
250.420284
 21
392.554932
 31
0.0
  0
LINE
  8
0
  6
CONTINUOUS
 62
     9
  5
185
 10
250.420284
 20
392.554932
 30
0.0
 11
250.420284
 21
389.554932
 31
0.0
  0
LINE
  8
0
  6
CONTINUOUS
 62
     7
  5
186
 10
252.665279
 20
386.554932
 30
0.0
 11
258.420284
 21
386.554932
 31
0.0
  0
LINE
  8
0
  6
CONTINUOUS
 62
     7
  5
187
 10
252.665279
 20
389.554932
 30
0.0
 11
252.665279
 21
386.554932
 31
0.0
  0
LINE
  8
0
  6
CONTINUOUS
 62
     7
  5
188
 10
250.420284
 20
392.554932
 30
0.0
 11
288.420284
 21
392.554932
 31
0.0
  0
LINE
  8
0
  6
CONTINUOUS
 62
     7
  5
189
 10
288.420284
 20
392.554932
 30
0.0
 11
288.420284
 21
382.554932
 31
0.0
  0
LINE
  8
0
  6
CONTINUOUS
 62
     7
  5
18A
 10
250.420284
 20
389.554932
 30
0.0
 11
252.665279
 21
389.554932
 31
0.0
  0
LINE
  8
0
  6
CONTINUOUS
 62
     7
  5
18B
 10
258.420284
 20
386.554932
 30
0.0
 11
258.420284
 21
382.554932
 31
0.0
  0
LINE
  8
0
  6
CONTINUOUS
 62
     7
  5
18C
 10
305.420284
 20
382.554932
 30
0.0
 11
305.420284
 21
376.554932
 31
0.0
  0
LINE
  8
0
  6
CONTINUOUS
 62
     7
  5
18D
 10
291.920284
 20
376.554932
 30
0.0
 11
305.420284
 21
376.554932
 31
0.0
  0
LINE
  8
0
  6
CONTINUOUS
 62
     7
  5
18E
 10
291.920284
 20
374.554932
 30
0.0
 11
291.920284
 21
376.554932
 31
0.0
  0
LINE
  8
0
  6
CONTINUOUS
 62
     7
  5
18F
 10
305.420284
 20
374.554932
 30
0.0
 11
291.920284
 21
374.554932
 31
0.0
  0
LINE
  8
0
  6
CONTINUOUS
 62
     7
  5
190
 10
305.420284
 20
374.554932
 30
0.0
 11
305.420284
 21
368.554932
 31
0.0
  0
LINE
  8
0
  6
CONTINUOUS
 62
     7
  5
191
 10
291.920284
 20
368.554932
 30
0.0
 11
305.420284
 21
368.554932
 31
0.0
  0
LINE
  8
0
  6
CONTINUOUS
 62
     7
  5
192
 10
291.920284
 20
366.554932
 30
0.0
 11
291.920284
 21
368.554932
 31
0.0
  0
LINE
  8
0
  6
CONTINUOUS
 62
     7
  5
193
 10
305.420284
 20
366.554932
 30
0.0
 11
291.920284
 21
366.554932
 31
0.0
  0
LINE
  8
0
  6
CONTINUOUS
 62
     7
  5
194
 10
305.420284
 20
366.554932
 30
0.0
 11
305.420284
 21
360.554932
 31
0.0
  0
LINE
  8
0
  6
CONTINUOUS
 62
     7
  5
195
 10
291.920284
 20
360.554932
 30
0.0
 11
305.420284
 21
360.554932
 31
0.0
  0
LINE
  8
0
  6
CONTINUOUS
 62
     7
  5
196
 10
291.920284
 20
358.554932
 30
0.0
 11
291.920284
 21
360.554932
 31
0.0
  0
LINE
  8
0
  6
CONTINUOUS
 62
     7
  5
197
 10
305.420284
 20
358.554932
 30
0.0
 11
291.920284
 21
358.554932
 31
0.0
  0
LINE
  8
0
  6
CONTINUOUS
 62
     7
  5
198
 10
305.420284
 20
358.554932
 30
0.0
 11
305.420284
 21
352.554932
 31
0.0
  0
LINE
  8
0
  6
CONTINUOUS
 62
     7
  5
199
 10
290.420284
 20
352.554932
 30
0.0
 11
305.420284
 21
352.554932
 31
0.0
  0
LINE
  8
0
  6
CONTINUOUS
 62
     7
  5
19A
 10
305.420284
 20
382.554932
 30
0.0
 11
290.420284
 21
382.554932
 31
0.0
  0
LINE
  8
0
  6
CONTINUOUS
 62
     7
  5
19B
 10
175.920284
 20
322.954932
 30
0.0
 11
178.420284
 21
322.954932
 31
0.0
  0
LINE
  8
0
  6
CONTINUOUS
 62
     7
  5
19C
 10
178.420284
 20
322.954932
 30
0.0
 11
180.920284
 21
322.954932
 31
0.0
  0
LINE
  8
0
  6
CONTINUOUS
 62
     7
  5
19D
 10
180.520284
 20
322.554932
 30
0.0
 11
178.420284
 21
322.554932
 31
0.0
  0
LINE
  8
0
  6
CONTINUOUS
 62
     7
  5
19E
 10
178.420284
 20
322.554932
 30
0.0
 11
176.320284
 21
322.554932
 31
0.0
  0
LINE
  8
0
  6
CONTINUOUS
 62
     7
  5
19F
 10
272.920284
 20
322.954932
 30
0.0
 11
275.420284
 21
322.954932
 31
0.0
  0
LINE
  8
0
  6
CONTINUOUS
 62
     7
  5
1A0
 10
275.420284
 20
322.954932
 30
0.0
 11
277.920284
 21
322.954932
 31
0.0
  0
LINE
  8
0
  6
CONTINUOUS
 62
     7
  5
1A1
 10
277.520284
 20
322.554932
 30
0.0
 11
275.420284
 21
322.554932
 31
0.0
  0
LINE
  8
0
  6
CONTINUOUS
 62
     7
  5
1A2
 10
275.420284
 20
322.554932
 30
0.0
 11
273.320284
 21
322.554932
 31
0.0
  0
LINE
  8
0
  6
CONTINUOUS
 62
     7
  5
1A3
 10
353.620284
 20
319.554932
 30
0.0
 11
356.420284
 21
319.554932
 31
0.0
  0
LINE
  8
0
  6
CONTINUOUS
 62
     7
  5
1A4
 10
353.620284
 20
323.054932
 30
0.0
 11
356.420284
 21
323.054932
 31
0.0
  0
LINE
  8
0
  6
CONTINUOUS
 62
     7
  5
1A5
 10
356.420284
 20
322.11711
 30
0.0
 11
356.420284
 21
323.054932
 31
0.0
  0
LINE
  8
0
  6
CONTINUOUS
 62
     7
  5
1A6
 10
353.620284
 20
319.554932
 30
0.0
 11
353.620284
 21
323.054932
 31
0.0
  0
LINE
  8
0
  6
CONTINUOUS
 62
     7
  5
1A7
 10
353.620284
 20
326.554932
 30
0.0
 11
356.420284
 21
326.554932
 31
0.0
  0
LINE
  8
0
  6
CONTINUOUS
 62
     7
  5
1A8
 10
356.420284
 20
323.054932
 30
0.0
 11
356.420284
 21
323.992754
 31
0.0
  0
LINE
  8
0
  6
CONTINUOUS
 62
     7
  5
1A9
 10
353.620284
 20
323.054932
 30
0.0
 11
353.620284
 21
326.554932
 31
0.0
  0
LINE
  8
0
  6
CONTINUOUS
 62
     7
  5
1AA
 10
359.420284
 20
301.054932
 30
0.0
 11
356.420284
 21
301.054932
 31
0.0
  0
LINE
  8
0
  6
CONTINUOUS
 62
     7
  5
1AB
 10
356.420284
 20
301.054932
 30
0.0
 11
356.420284
 21
322.11711
 31
0.0
  0
LINE
  8
0
  6
CONTINUOUS
 62
     7
  5
1AC
 10
356.420284
 20
323.992754
 30
0.0
 11
356.420284
 21
387.554932
 31
0.0
  0
LINE
  8
0
  6
CONTINUOUS
 62
     7
  5
1AD
 10
359.420284
 20
387.554932
 30
0.0
 11
356.420284
 21
387.554932
 31
0.0
  0
LINE
  8
0
  6
CONTINUOUS
 62
     7
  5
1AE
 10
359.420284
 20
301.054932
 30
0.0
 11
359.420284
 21
387.554932
 31
0.0
  0
LINE
  8
0
  6
CONTINUOUS
 62
     7
  5
1AF
 10
356.420284
 20
392.554932
 30
0.0
 11
359.420284
 21
392.554932
 31
0.0
  0
LINE
  8
0
  6
CONTINUOUS
 62
     7
  5
1B0
 10
356.420284
 20
387.554932
 30
0.0
 11
356.420284
 21
392.554932
 31
0.0
  0
LINE
  8
0
  6
CONTINUOUS
 62
     7
  5
1B1
 10
359.420284
 20
392.554932
 30
0.0
 11
359.420284
 21
387.554932
 31
0.0
  0
LINE
  8
0
  6
CONTINUOUS
 62
     7
  5
1B2
 10
366.420284
 20
324.704932
 30
0.0
 11
366.420284
 21
321.404932
 31
0.0
  0
LINE
  8
0
  6
CONTINUOUS
 62
     7
  5
1B3
 10
366.070284
 20
321.054932
 30
0.0
 11
366.070284
 21
325.054932
 31
0.0
  0
LINE
  8
0
  6
CONTINUOUS
 62
     7
  5
1B4
 10
353.620284
 20
302.054932
 30
0.0
 11
356.420284
 21
302.054932
 31
0.0
  0
LINE
  8
0
  6
CONTINUOUS
 62
     7
  5
1B5
 10
353.620284
 20
302.054932
 30
0.0
 11
353.620284
 21
305.554932
 31
0.0
  0
LINE
  8
0
  6
CONTINUOUS
 62
     7
  5
1B6
 10
353.620284
 20
305.554932
 30
0.0
 11
356.420284
 21
305.554932
 31
0.0
  0
LINE
  8
0
  6
CONTINUOUS
 62
     7
  5
1B7
 10
353.620284
 20
305.554932
 30
0.0
 11
353.620284
 21
309.054932
 31
0.0
  0
LINE
  8
0
  6
CONTINUOUS
 62
     7
  5
1B8
 10
353.620284
 20
309.054932
 30
0.0
 11
356.420284
 21
309.054932
 31
0.0
  0
LINE
  8
0
  6
CONTINUOUS
 62
     7
  5
1B9
 10
366.070284
 20
303.554932
 30
0.0
 11
366.070284
 21
307.554932
 31
0.0
  0
LINE
  8
0
  6
CONTINUOUS
 62
     7
  5
1BA
 10
366.420284
 20
307.204932
 30
0.0
 11
366.420284
 21
303.904932
 31
0.0
  0
LINE
  8
0
  6
CONTINUOUS
 62
     7
  5
1BB
 10
374.420284
 20
301.054932
 30
0.0
 11
374.420284
 21
392.554932
 31
0.0
  0
LINE
  8
0
  6
CONTINUOUS
 62
     7
  5
1BC
 10
374.420284
 20
392.554932
 30
0.0
 11
359.420284
 21
392.554932
 31
0.0
  0
LINE
  8
0
  6
CONTINUOUS
 62
     7
  5
1BD
 10
374.420284
 20
301.054932
 30
0.0
 11
359.420284
 21
301.054932
 31
0.0
  0
LINE
  8
0
  6
CONTINUOUS
 62
     9
  5
1BE
 10
334.420284
 20
348.554932
 30
0.0
 11
334.420284
 21
345.554932
 31
0.0
  0
LINE
  8
0
  6
CONTINUOUS
 62
     7
  5
1BF
 10
334.420284
 20
348.554932
 30
0.0
 11
326.070284
 21
348.554932
 31
0.0
  0
LINE
  8
0
  6
CONTINUOUS
 62
     9
  5
1C0
 10
334.420284
 20
389.554932
 30
0.0
 11
334.420284
 21
386.554932
 31
0.0
  0
LINE
  8
0
  6
CONTINUOUS
 62
     7
  5
1C1
 10
334.420284
 20
345.554932
 30
0.0
 11
340.420284
 21
345.554932
 31
0.0
  0
LINE
  8
0
  6
CONTINUOUS
 62
     7
  5
1C2
 10
340.420284
 20
392.554932
 30
0.0
 11
340.420284
 21
389.554932
 31
0.0
  0
LINE
  8
0
  6
CONTINUOUS
 62
     7
  5
1C3
 10
334.420284
 20
386.554932
 30
0.0
 11
342.420284
 21
386.554932
 31
0.0
  0
LINE
  8
0
  6
CONTINUOUS
 62
     7
  5
1C4
 10
340.420284
 20
345.554932
 30
0.0
 11
340.420284
 21
342.554932
 31
0.0
  0
LINE
  8
0
  6
CONTINUOUS
 62
     7
  5
1C5
 10
342.420284
 20
386.554932
 30
0.0
 11
342.420284
 21
348.554932
 31
0.0
  0
LINE
  8
0
  6
CONTINUOUS
 62
     7
  5
1C6
 10
340.420284
 20
389.554932
 30
0.0
 11
334.420284
 21
389.554932
 31
0.0
  0
LINE
  8
0
  6
CONTINUOUS
 62
     7
  5
1C7
 10
340.420284
 20
342.554932
 30
0.0
 11
356.420284
 21
342.554932
 31
0.0
  0
LINE
  8
0
  6
CONTINUOUS
 62
     7
  5
1C8
 10
342.420284
 20
348.554932
 30
0.0
 11
334.420284
 21
348.554932
 31
0.0
  0
LINE
  8
0
  6
CONTINUOUS
 62
     7
  5
1C9
 10
340.420284
 20
392.554932
 30
0.0
 11
356.420284
 21
392.554932
 31
0.0
  0
LINE
  8
0
  6
CONTINUOUS
 62
     7
  5
1CA
 10
326.070284
 20
386.554932
 30
0.0
 11
334.420284
 21
386.554932
 31
0.0
  0
LINE
  8
0
  6
CONTINUOUS
 62
     7
  5
1CB
 10
389.420284
 20
382.554932
 30
0.0
 11
389.420284
 21
376.554932
 31
0.0
  0
LINE
  8
0
  6
CONTINUOUS
 62
     7
  5
1CC
 10
389.420284
 20
374.554932
 30
0.0
 11
375.920284
 21
374.554932
 31
0.0
  0
LINE
  8
0
  6
CONTINUOUS
 62
     7
  5
1CD
 10
375.920284
 20
368.554932
 30
0.0
 11
389.420284
 21
368.554932
 31
0.0
  0
LINE
  8
0
  6
CONTINUOUS
 62
     7
  5
1CE
 10
389.420284
 20
366.554932
 30
0.0
 11
375.920284
 21
366.554932
 31
0.0
  0
LINE
  8
0
  6
CONTINUOUS
 62
     7
  5
1CF
 10
375.920284
 20
360.554932
 30
0.0
 11
389.420284
 21
360.554932
 31
0.0
  0
LINE
  8
0
  6
CONTINUOUS
 62
     7
  5
1D0
 10
375.920284
 20
358.554932
 30
0.0
 11
375.920284
 21
360.554932
 31
0.0
  0
LINE
  8
0
  6
CONTINUOUS
 62
     7
  5
1D1
 10
389.420284
 20
358.554932
 30
0.0
 11
375.920284
 21
358.554932
 31
0.0
  0
LINE
  8
0
  6
CONTINUOUS
 62
     7
  5
1D2
 10
389.420284
 20
374.554932
 30
0.0
 11
389.420284
 21
368.554932
 31
0.0
  0
LINE
  8
0
  6
CONTINUOUS
 62
     7
  5
1D3
 10
375.920284
 20
376.554932
 30
0.0
 11
389.420284
 21
376.554932
 31
0.0
  0
LINE
  8
0
  6
CONTINUOUS
 62
     7
  5
1D4
 10
375.920284
 20
366.554932
 30
0.0
 11
375.920284
 21
368.554932
 31
0.0
  0
LINE
  8
0
  6
CONTINUOUS
 62
     7
  5
1D5
 10
375.920284
 20
374.554932
 30
0.0
 11
375.920284
 21
376.554932
 31
0.0
  0
LINE
  8
0
  6
CONTINUOUS
 62
     7
  5
1D6
 10
389.420284
 20
358.554932
 30
0.0
 11
389.420284
 21
352.554932
 31
0.0
  0
LINE
  8
0
  6
CONTINUOUS
 62
     7
  5
1D7
 10
389.420284
 20
366.554932
 30
0.0
 11
389.420284
 21
360.554932
 31
0.0
  0
LINE
  8
0
  6
CONTINUOUS
 62
     7
  5
1D8
 10
389.420284
 20
382.554932
 30
0.0
 11
374.420284
 21
382.554932
 31
0.0
  0
LINE
  8
0
  6
CONTINUOUS
 62
     7
  5
1D9
 10
374.420284
 20
352.554932
 30
0.0
 11
389.420284
 21
352.554932
 31
0.0
  0
LINE
  8
0
  6
CONTINUOUS
 62
     7
  5
1DA
 10
329.420284
 20
392.554932
 30
0.0
 11
334.420284
 21
392.554932
 31
0.0
  0
LINE
  8
0
  6
CONTINUOUS
 62
     7
  5
1DB
 10
334.420284
 20
392.554932
 30
0.0
 11
339.420284
 21
392.554932
 31
0.0
  0
LINE
  8
0
  6
CONTINUOUS
 62
     7
  5
1DC
 10
339.420284
 20
342.554932
 30
0.0
 11
329.420284
 21
342.554932
 31
0.0
  0
LINE
  8
0
  6
CONTINUOUS
 62
     7
  5
1DD
 10
312.270284
 20
345.554932
 30
0.0
 11
312.270284
 21
342.954932
 31
0.0
  0
LINE
  8
0
  6
CONTINUOUS
 62
     7
  5
1DE
 10
303.920284
 20
345.554932
 30
0.0
 11
312.270284
 21
345.554932
 31
0.0
  0
LINE
  8
0
  6
CONTINUOUS
 62
     7
  5
1DF
 10
326.070284
 20
345.554932
 30
0.0
 11
326.070284
 21
348.554932
 31
0.0
  0
LINE
  8
0
  6
CONTINUOUS
 62
     7
  5
1E0
 10
334.420284
 20
345.554932
 30
0.0
 11
326.070284
 21
345.554932
 31
0.0
  0
LINE
  8
0
  6
CONTINUOUS
 62
     7
  5
1E1
 10
334.420284
 20
342.954932
 30
0.0
 11
334.420284
 21
345.554932
 31
0.0
  0
LINE
  8
0
  6
CONTINUOUS
 62
     7
  5
1E2
 10
312.270284
 20
342.954932
 30
0.0
 11
334.420284
 21
342.954932
 31
0.0
  0
LINE
  8
0
  6
CONTINUOUS
 62
     7
  5
1E3
 10
326.070284
 20
348.554932
 30
0.0
 11
303.920284
 21
348.554932
 31
0.0
  0
LINE
  8
0
  6
CONTINUOUS
 62
     7
  5
1E4
 10
303.920284
 20
345.554932
 30
0.0
 11
303.920284
 21
348.554932
 31
0.0
  0
LINE
  8
0
  6
CONTINUOUS
 62
     7
  5
1E5
 10
326.070284
 20
389.554932
 30
0.0
 11
334.420284
 21
389.554932
 31
0.0
  0
LINE
  8
0
  6
CONTINUOUS
 62
     7
  5
1E6
 10
303.920284
 20
386.554932
 30
0.0
 11
303.920284
 21
389.554932
 31
0.0
  0
LINE
  8
0
  6
CONTINUOUS
 62
     7
  5
1E7
 10
326.070284
 20
386.554932
 30
0.0
 11
326.070284
 21
389.554932
 31
0.0
  0
LINE
  8
0
  6
CONTINUOUS
 62
     7
  5
1E8
 10
312.270284
 20
389.554932
 30
0.0
 11
303.920284
 21
389.554932
 31
0.0
  0
LINE
  8
0
  6
CONTINUOUS
 62
     7
  5
1E9
 10
303.920284
 20
386.554932
 30
0.0
 11
326.070284
 21
386.554932
 31
0.0
  0
LINE
  8
0
  6
CONTINUOUS
 62
     7
  5
1EA
 10
334.420284
 20
389.554932
 30
0.0
 11
334.420284
 21
392.154932
 31
0.0
  0
LINE
  8
0
  6
CONTINUOUS
 62
     7
  5
1EB
 10
312.270284
 20
392.154932
 30
0.0
 11
312.270284
 21
389.554932
 31
0.0
  0
LINE
  8
0
  6
CONTINUOUS
 62
     7
  5
1EC
 10
334.420284
 20
392.154932
 30
0.0
 11
312.270284
 21
392.154932
 31
0.0
  0
LINE
  8
0
  6
CONTINUOUS
 62
     7
  5
1ED
 10
303.920284
 20
348.554932
 30
0.0
 11
295.570284
 21
348.554932
 31
0.0
  0
LINE
  8
0
  6
CONTINUOUS
 62
     7
  5
1EE
 10
316.170284
 20
367.554932
 30
0.0
 11
322.170284
 21
367.554932
 31
0.0
  0
LINE
  8
0
  6
CONTINUOUS
 62
     7
  5
1EF
 10
316.170284
 20
371.554932
 30
0.0
 11
316.170284
 21
367.554932
 31
0.0
  0
LINE
  8
0
  6
CONTINUOUS
 62
     7
  5
1F0
 10
316.170284
 20
371.554932
 30
0.0
 11
322.170284
 21
371.554932
 31
0.0
  0
LINE
  8
0
  6
CONTINUOUS
 62
     7
  5
1F1
 10
322.170284
 20
367.554932
 30
0.0
 11
322.170284
 21
371.554932
 31
0.0
  0
LINE
  8
0
  6
CONTINUOUS
 62
     7
  5
1F2
 10
337.970284
 20
345.554932
 30
0.0
 11
334.420284
 21
345.554932
 31
0.0
  0
LINE
  8
0
  6
CONTINUOUS
 62
     7
  5
1F3
 10
334.420284
 20
342.954932
 30
0.0
 11
340.420284
 21
342.954932
 31
0.0
  0
LINE
  8
0
  6
CONTINUOUS
 62
     7
  5
1F4
 10
334.420284
 20
389.554932
 30
0.0
 11
337.970284
 21
389.554932
 31
0.0
  0
LINE
  8
0
  6
CONTINUOUS
 62
     7
  5
1F5
 10
340.420284
 20
392.154932
 30
0.0
 11
334.420284
 21
392.154932
 31
0.0
  0
LINE
  8
0
  6
CONTINUOUS
 62
     7
  5
1F6
 10
322.170284
 20
366.554932
 30
0.0
 11
322.170284
 21
348.554932
 31
0.0
  0
LINE
  8
0
  6
CONTINUOUS
 62
     7
  5
1F7
 10
316.170284
 20
348.554932
 30
0.0
 11
316.170284
 21
366.554932
 31
0.0
  0
LINE
  8
0
  6
CONTINUOUS
 62
     7
  5
1F8
 10
322.170284
 20
366.554932
 30
0.0
 11
316.170284
 21
366.554932
 31
0.0
  0
LINE
  8
0
  6
CONTINUOUS
 62
     7
  5
1F9
 10
295.570284
 20
386.554932
 30
0.0
 11
303.920284
 21
386.554932
 31
0.0
  0
LINE
  8
0
  6
CONTINUOUS
 62
     7
  5
1FA
 10
316.170284
 20
386.554932
 30
0.0
 11
316.170284
 21
371.554932
 31
0.0
  0
LINE
  8
0
  6
CONTINUOUS
 62
     7
  5
1FB
 10
322.170284
 20
371.554932
 30
0.0
 11
322.170284
 21
386.554932
 31
0.0
  0
LINE
  8
0
  6
CONTINUOUS
 62
     7
  5
1FC
 10
316.170284
 20
367.554932
 30
0.0
 11
316.170284
 21
366.554932
 31
0.0
  0
LINE
  8
0
  6
CONTINUOUS
 62
     7
  5
1FD
 10
322.170284
 20
366.554932
 30
0.0
 11
322.170284
 21
367.554932
 31
0.0
  0
LINE
  8
0
  6
CONTINUOUS
 62
     7
  5
1FE
 10
308.920284
 20
342.954932
 30
0.0
 11
308.920284
 21
342.554932
 31
0.0
  0
LINE
  8
0
  6
CONTINUOUS
 62
     7
  5
1FF
 10
308.920284
 20
342.554932
 30
0.0
 11
298.920284
 21
342.554932
 31
0.0
  0
LINE
  8
0
  6
CONTINUOUS
 62
     7
  5
200
 10
298.920284
 20
342.554932
 30
0.0
 11
298.920284
 21
342.954932
 31
0.0
  0
LINE
  8
0
  6
CONTINUOUS
 62
     7
  5
201
 10
308.920284
 20
392.554932
 30
0.0
 11
308.920284
 21
392.154932
 31
0.0
  0
LINE
  8
0
  6
CONTINUOUS
 62
     7
  5
202
 10
298.920284
 20
392.154932
 30
0.0
 11
298.920284
 21
392.554932
 31
0.0
  0
LINE
  8
0
  6
CONTINUOUS
 62
     7
  5
203
 10
298.920284
 20
392.554932
 30
0.0
 11
308.920284
 21
392.554932
 31
0.0
  0
LINE
  8
0
  6
CONTINUOUS
 62
     7
  5
204
 10
325.670284
 20
386.554932
 30
0.0
 11
325.670284
 21
348.554932
 31
0.0
  0
LINE
  8
0
  6
CONTINUOUS
 62
     7
  5
205
 10
325.418618
 20
348.554932
 30
0.0
 11
325.418618
 21
386.554932
 31
0.0
  0
LINE
  8
0
  6
CONTINUOUS
 62
     7
  5
206
 10
312.670284
 20
386.554932
 30
0.0
 11
312.670284
 21
348.554932
 31
0.0
  0
LINE
  8
0
  6
CONTINUOUS
 62
     7
  5
207
 10
303.920284
 20
389.554932
 30
0.0
 11
303.920284
 21
392.154932
 31
0.0
  0
LINE
  8
0
  6
CONTINUOUS
 62
     7
  5
208
 10
295.570284
 20
389.554932
 30
0.0
 11
303.920284
 21
389.554932
 31
0.0
  0
LINE
  8
0
  6
CONTINUOUS
 62
     7
  5
209
 10
295.570284
 20
386.554932
 30
0.0
 11
295.570284
 21
389.554932
 31
0.0
  0
LINE
  8
0
  6
CONTINUOUS
 62
     7
  5
20A
 10
288.420284
 20
386.554932
 30
0.0
 11
295.570284
 21
386.554932
 31
0.0
  0
LINE
  8
0
  6
CONTINUOUS
 62
     7
  5
20B
 10
303.920284
 20
392.154932
 30
0.0
 11
288.420284
 21
392.154932
 31
0.0
  0
LINE
  8
0
  6
CONTINUOUS
 62
     7
  5
20C
 10
295.570284
 20
348.554932
 30
0.0
 11
290.420284
 21
348.554932
 31
0.0
  0
LINE
  8
0
  6
CONTINUOUS
 62
     7
  5
20D
 10
295.570284
 20
345.554932
 30
0.0
 11
295.570284
 21
348.554932
 31
0.0
  0
LINE
  8
0
  6
CONTINUOUS
 62
     7
  5
20E
 10
303.920284
 20
345.554932
 30
0.0
 11
295.570284
 21
345.554932
 31
0.0
  0
LINE
  8
0
  6
CONTINUOUS
 62
     7
  5
20F
 10
303.920284
 20
342.954932
 30
0.0
 11
303.920284
 21
345.554932
 31
0.0
  0
LINE
  8
0
  6
CONTINUOUS
 62
     7
  5
210
 10
290.420284
 20
342.954932
 30
0.0
 11
303.920284
 21
342.954932
 31
0.0
  0
LINE
  8
0
  6
CONTINUOUS
 62
     7
  5
211
 10
291.670284
 20
382.554932
 30
0.0
 11
291.670284
 21
386.554932
 31
0.0
  0
LINE
  8
0
  6
CONTINUOUS
 62
     7
  5
212
 10
316.420284
 20
392.554932
 30
0.0
 11
309.920284
 21
392.554932
 31
0.0
  0
LINE
  8
0
  6
CONTINUOUS
 62
     7
  5
213
 10
309.920284
 20
392.554932
 30
0.0
 11
309.920284
 21
392.154932
 31
0.0
  0
LINE
  8
0
  6
CONTINUOUS
 62
     7
  5
214
 10
309.920284
 20
392.154932
 30
0.0
 11
303.920284
 21
392.154932
 31
0.0
  0
LINE
  8
0
  6
CONTINUOUS
 62
     7
  5
215
 10
316.420284
 20
342.554932
 30
0.0
 11
309.920284
 21
342.554932
 31
0.0
  0
LINE
  8
0
  6
CONTINUOUS
 62
     7
  5
216
 10
309.920284
 20
342.954932
 30
0.0
 11
309.920284
 21
342.554932
 31
0.0
  0
LINE
  8
0
  6
CONTINUOUS
 62
     7
  5
217
 10
303.920284
 20
342.954932
 30
0.0
 11
309.920284
 21
342.954932
 31
0.0
  0
LINE
  8
0
  6
CONTINUOUS
 62
     7
  5
218
 10
291.670284
 20
352.554932
 30
0.0
 11
291.670284
 21
348.554932
 31
0.0
  0
LINE
  8
0
  6
CONTINUOUS
 62
     7
  5
219
 10
295.170284
 20
386.554932
 30
0.0
 11
295.170284
 21
382.554932
 31
0.0
  0
LINE
  8
0
  6
CONTINUOUS
 62
     7
  5
21A
 10
295.170284
 20
376.554932
 30
0.0
 11
295.170284
 21
374.554932
 31
0.0
  0
LINE
  8
0
  6
CONTINUOUS
 62
     7
  5
21B
 10
295.170284
 20
368.554932
 30
0.0
 11
295.170284
 21
366.554932
 31
0.0
  0
LINE
  8
0
  6
CONTINUOUS
 62
     7
  5
21C
 10
295.170284
 20
360.554932
 30
0.0
 11
295.170284
 21
358.554932
 31
0.0
  0
LINE
  8
0
  6
CONTINUOUS
 62
     7
  5
21D
 10
295.170284
 20
352.554932
 30
0.0
 11
295.170284
 21
348.554932
 31
0.0
  0
LINE
  8
0
  6
CONTINUOUS
 62
     7
  5
21E
 10
294.918618
 20
348.554932
 30
0.0
 11
294.918618
 21
352.554932
 31
0.0
  0
LINE
  8
0
  6
CONTINUOUS
 62
     7
  5
21F
 10
294.918618
 20
358.554932
 30
0.0
 11
294.918618
 21
360.554932
 31
0.0
  0
LINE
  8
0
  6
CONTINUOUS
 62
     7
  5
220
 10
294.918618
 20
366.554932
 30
0.0
 11
294.918618
 21
368.554932
 31
0.0
  0
LINE
  8
0
  6
CONTINUOUS
 62
     7
  5
221
 10
294.918618
 20
374.554932
 30
0.0
 11
294.918618
 21
376.554932
 31
0.0
  0
LINE
  8
0
  6
CONTINUOUS
 62
     7
  5
222
 10
294.918618
 20
382.554932
 30
0.0
 11
294.918618
 21
386.554932
 31
0.0
  0
LINE
  8
0
  6
CONTINUOUS
 62
     7
  5
223
 10
255.170284
 20
386.554932
 30
0.0
 11
255.170284
 21
382.554932
 31
0.0
  0
LINE
  8
0
  6
CONTINUOUS
 62
     7
  5
224
 10
251.670284
 20
386.554932
 30
0.0
 11
251.670284
 21
382.554932
 31
0.0
  0
LINE
  8
0
  6
CONTINUOUS
 62
     7
  5
225
 10
224.670284
 20
386.554932
 30
0.0
 11
224.670284
 21
382.554932
 31
0.0
  0
LINE
  8
0
  6
CONTINUOUS
 62
     7
  5
226
 10
213.920284
 20
392.554932
 30
0.0
 11
214.920284
 21
392.554932
 31
0.0
  0
LINE
  8
0
  6
CONTINUOUS
 62
     7
  5
227
 10
221.170284
 20
386.554932
 30
0.0
 11
221.170284
 21
382.554932
 31
0.0
  0
LINE
  8
0
  6
CONTINUOUS
 62
     7
  5
228
 10
194.170284
 20
386.554932
 30
0.0
 11
194.170284
 21
382.554932
 31
0.0
  0
LINE
  8
0
  6
CONTINUOUS
 62
     7
  5
229
 10
183.420284
 20
392.554932
 30
0.0
 11
184.420284
 21
392.554932
 31
0.0
  0
LINE
  8
0
  6
CONTINUOUS
 62
     7
  5
22A
 10
190.670284
 20
386.554932
 30
0.0
 11
190.670284
 21
382.554932
 31
0.0
  0
LINE
  8
0
  6
CONTINUOUS
 62
     7
  5
22B
 10
163.670284
 20
386.554932
 30
0.0
 11
163.670284
 21
382.554932
 31
0.0
  0
LINE
  8
0
  6
CONTINUOUS
 62
     7
  5
22C
 10
153.920284
 20
342.554932
 30
0.0
 11
152.920284
 21
342.554932
 31
0.0
  0
LINE
  8
0
  6
CONTINUOUS
 62
     7
  5
22D
 10
152.920284
 20
392.554932
 30
0.0
 11
153.920284
 21
392.554932
 31
0.0
  0
LINE
  8
0
  6
CONTINUOUS
 62
     7
  5
22E
 10
160.170284
 20
386.554932
 30
0.0
 11
160.170284
 21
348.554932
 31
0.0
  0
LINE
  8
0
  6
CONTINUOUS
 62
     7
  5
22F
 10
133.170284
 20
367.554932
 30
0.0
 11
137.170284
 21
367.554932
 31
0.0
  0
LINE
  8
0
  6
CONTINUOUS
 62
     7
  5
230
 10
133.170284
 20
371.554932
 30
0.0
 11
137.170284
 21
371.554932
 31
0.0
  0
LINE
  8
0
  6
CONTINUOUS
 62
     7
  5
231
 10
133.170284
 20
371.554932
 30
0.0
 11
133.170284
 21
367.554932
 31
0.0
  0
LINE
  8
0
  6
CONTINUOUS
 62
     7
  5
232
 10
133.170284
 20
386.554932
 30
0.0
 11
133.170284
 21
371.554932
 31
0.0
  0
LINE
  8
0
  6
CONTINUOUS
 62
     7
  5
233
 10
133.170284
 20
348.554932
 30
0.0
 11
133.170284
 21
366.554932
 31
0.0
  0
LINE
  8
0
  6
CONTINUOUS
 62
     7
  5
234
 10
137.170284
 20
366.554932
 30
0.0
 11
133.170284
 21
366.554932
 31
0.0
  0
LINE
  8
0
  6
CONTINUOUS
 62
     7
  5
235
 10
133.170284
 20
367.554932
 30
0.0
 11
133.170284
 21
366.554932
 31
0.0
  0
LINE
  8
0
  6
CONTINUOUS
 62
     7
  5
236
 10
122.420284
 20
392.554932
 30
0.0
 11
123.420284
 21
392.554932
 31
0.0
  0
LINE
  8
0
  6
CONTINUOUS
 62
     7
  5
237
 10
123.420284
 20
342.554932
 30
0.0
 11
122.420284
 21
342.554932
 31
0.0
  0
LINE
  8
0
  6
CONTINUOUS
 62
     7
  5
238
 10
129.670284
 20
386.554932
 30
0.0
 11
129.670284
 21
348.554932
 31
0.0
  0
LINE
  8
0
  6
CONTINUOUS
 62
     7
  5
239
 10
103.878533
 20
348.554932
 30
0.0
 11
103.878533
 21
366.554932
 31
0.0
  0
LINE
  8
0
  6
CONTINUOUS
 62
     7
  5
23A
 10
106.670284
 20
366.554932
 30
0.0
 11
103.878533
 21
366.554932
 31
0.0
  0
LINE
  8
0
  6
CONTINUOUS
 62
     7
  5
23B
 10
103.806014
 20
366.554932
 30
0.0
 11
103.806014
 21
348.554932
 31
0.0
  0
LINE
  8
0
  6
CONTINUOUS
 62
     7
  5
23C
 10
103.878533
 20
366.554932
 30
0.0
 11
103.806014
 21
366.554932
 31
0.0
  0
LINE
  8
0
  6
CONTINUOUS
 62
     7
  5
23D
 10
103.878533
 20
371.554932
 30
0.0
 11
103.669189
 21
367.554932
 31
0.0
  0
LINE
  8
0
  6
CONTINUOUS
 62
     7
  5
23E
 10
103.669189
 20
367.554932
 30
0.0
 11
103.669189
 21
364.554932
 31
0.0
  0
LINE
  8
0
  6
CONTINUOUS
 62
     7
  5
23F
 10
103.669189
 20
364.554932
 30
0.0
 11
103.596669
 21
364.554932
 31
0.0
  0
LINE
  8
0
  6
CONTINUOUS
 62
     7
  5
240
 10
103.596669
 20
364.554932
 30
0.0
 11
103.596669
 21
367.769291
 31
0.0
  0
LINE
  8
0
  6
CONTINUOUS
 62
     7
  5
241
 10
103.596669
 20
367.769291
 30
0.0
 11
103.806014
 21
371.769291
 31
0.0
  0
LINE
  8
0
  6
CONTINUOUS
 62
     7
  5
242
 10
103.806014
 20
371.769291
 30
0.0
 11
103.806014
 21
386.554932
 31
0.0
  0
LINE
  8
0
  6
CONTINUOUS
 62
     7
  5
243
 10
103.878533
 20
386.554932
 30
0.0
 11
103.878533
 21
371.554932
 31
0.0
  0
LINE
  8
0
  6
CONTINUOUS
 62
     7
  5
244
 10
103.878533
 20
371.554932
 30
0.0
 11
106.670284
 21
371.554932
 31
0.0
  0
LINE
  8
0
  6
CONTINUOUS
 62
     7
  5
245
 10
103.669189
 20
367.554932
 30
0.0
 11
106.670284
 21
367.554932
 31
0.0
  0
LINE
  8
0
  6
CONTINUOUS
 62
     7
  5
246
 10
103.669189
 20
364.554932
 30
0.0
 11
103.806014
 21
364.554932
 31
0.0
  0
LINE
  8
0
  6
CONTINUOUS
 62
     7
  5
247
 10
92.920284
 20
342.554932
 30
0.0
 11
91.920284
 21
342.554932
 31
0.0
  0
LINE
  8
0
  6
CONTINUOUS
 62
     7
  5
248
 10
91.920284
 20
392.554932
 30
0.0
 11
92.920284
 21
392.554932
 31
0.0
  0
LINE
  8
0
  6
CONTINUOUS
 62
     7
  5
249
 10
98.434925
 20
386.554932
 30
0.0
 11
98.434925
 21
348.554932
 31
0.0
  0
LINE
  8
0
  6
CONTINUOUS
 62
     7
  5
24A
 10
98.126719
 20
386.554932
 30
0.0
 11
98.126719
 21
348.554932
 31
0.0
  0
LINE
  8
0
  6
CONTINUOUS
 62
     7
  5
24B
 10
65.2856
 20
389.554932
 30
0.0
 11
62.713372
 21
389.554932
 31
0.0
  0
LINE
  8
0
  6
CONTINUOUS
 62
     7
  5
24C
 10
62.713372
 20
389.554932
 30
0.0
 11
60.639781
 21
389.554932
 31
0.0
  0
LINE
  8
0
  6
CONTINUOUS
 62
     7
  5
24D
 10
60.639781
 20
386.554932
 30
0.0
 11
72.355405
 21
386.554932
 31
0.0
  0
LINE
  8
0
  6
CONTINUOUS
 62
     7
  5
24E
 10
60.639781
 20
386.554932
 30
0.0
 11
60.639781
 21
389.549932
 31
0.0
  0
LINE
  8
0
  6
CONTINUOUS
 62
     7
  5
24F
 10
60.639781
 20
389.549932
 30
0.0
 11
60.639781
 21
389.554932
 31
0.0
  0
LINE
  8
0
  6
CONTINUOUS
 62
     7
  5
250
 10
72.355405
 20
348.554932
 30
0.0
 11
60.639781
 21
348.554932
 31
0.0
  0
LINE
  8
0
  6
CONTINUOUS
 62
     7
  5
251
 10
60.639781
 20
345.554932
 30
0.0
 11
60.639781
 21
345.559932
 31
0.0
  0
LINE
  8
0
  6
CONTINUOUS
 62
     7
  5
252
 10
60.639781
 20
345.559932
 30
0.0
 11
60.639781
 21
348.554932
 31
0.0
  0
LINE
  8
0
  6
CONTINUOUS
 62
     7
  5
253
 10
60.639781
 20
345.554932
 30
0.0
 11
62.713372
 21
345.554932
 31
0.0
  0
LINE
  8
0
  6
CONTINUOUS
 62
     7
  5
254
 10
62.713372
 20
345.554932
 30
0.0
 11
65.2856
 21
345.554932
 31
0.0
  0
LINE
  8
0
  6
CONTINUOUS
 62
     7
  5
255
 10
57.025162
 20
389.554932
 30
0.0
 11
57.025162
 21
392.154932
 31
0.0
  0
LINE
  8
0
  6
CONTINUOUS
 62
     7
  5
256
 10
60.364821
 20
386.554932
 30
0.0
 11
60.364821
 21
389.554932
 31
0.0
  0
LINE
  8
0
  6
CONTINUOUS
 62
     7
  5
257
 10
51.505726
 20
389.554932
 30
0.0
 11
51.505726
 21
386.554932
 31
0.0
  0
LINE
  8
0
  6
CONTINUOUS
 62
     7
  5
258
 10
48.166067
 20
389.554932
 30
0.0
 11
51.505726
 21
389.554932
 31
0.0
  0
LINE
  8
0
  6
CONTINUOUS
 62
     7
  5
259
 10
48.166067
 20
389.554932
 30
0.0
 11
48.166067
 21
392.154932
 31
0.0
  0
LINE
  8
0
  6
CONTINUOUS
 62
     7
  5
25A
 10
57.025162
 20
392.154932
 30
0.0
 11
48.166067
 21
392.154932
 31
0.0
  0
LINE
  8
0
  6
CONTINUOUS
 62
     7
  5
25B
 10
51.505726
 20
386.554932
 30
0.0
 11
60.364821
 21
386.554932
 31
0.0
  0
LINE
  8
0
  6
CONTINUOUS
 62
     7
  5
25C
 10
60.364821
 20
389.554932
 30
0.0
 11
57.025162
 21
389.554932
 31
0.0
  0
LINE
  8
0
  6
CONTINUOUS
 62
     7
  5
25D
 10
60.364821
 20
386.554932
 30
0.0
 11
60.639781
 21
386.554932
 31
0.0
  0
LINE
  8
0
  6
CONTINUOUS
 62
     7
  5
25E
 10
60.639781
 20
389.554932
 30
0.0
 11
60.364821
 21
389.554932
 31
0.0
  0
LINE
  8
0
  6
CONTINUOUS
 62
     7
  5
25F
 10
48.166067
 20
342.954932
 30
0.0
 11
48.166067
 21
345.554932
 31
0.0
  0
LINE
  8
0
  6
CONTINUOUS
 62
     7
  5
260
 10
51.505726
 20
345.554932
 30
0.0
 11
48.166067
 21
345.554932
 31
0.0
  0
LINE
  8
0
  6
CONTINUOUS
 62
     7
  5
261
 10
51.505726
 20
348.554932
 30
0.0
 11
51.505726
 21
345.554932
 31
0.0
  0
LINE
  8
0
  6
CONTINUOUS
 62
     7
  5
262
 10
60.364821
 20
345.554932
 30
0.0
 11
60.364821
 21
348.554932
 31
0.0
  0
LINE
  8
0
  6
CONTINUOUS
 62
     7
  5
263
 10
57.025162
 20
342.954932
 30
0.0
 11
57.025162
 21
345.554932
 31
0.0
  0
LINE
  8
0
  6
CONTINUOUS
 62
     7
  5
264
 10
48.166067
 20
342.954932
 30
0.0
 11
57.025162
 21
342.954932
 31
0.0
  0
LINE
  8
0
  6
CONTINUOUS
 62
     7
  5
265
 10
57.025162
 20
345.554932
 30
0.0
 11
60.364821
 21
345.554932
 31
0.0
  0
LINE
  8
0
  6
CONTINUOUS
 62
     7
  5
266
 10
60.364821
 20
348.554932
 30
0.0
 11
51.505726
 21
348.554932
 31
0.0
  0
LINE
  8
0
  6
CONTINUOUS
 62
     7
  5
267
 10
60.364821
 20
345.554932
 30
0.0
 11
60.639781
 21
345.554932
 31
0.0
  0
LINE
  8
0
  6
CONTINUOUS
 62
     7
  5
268
 10
60.639781
 20
348.554932
 30
0.0
 11
60.364821
 21
348.554932
 31
0.0
  0
LINE
  8
0
  6
CONTINUOUS
 62
     7
  5
269
 10
67.096443
 20
392.554932
 30
0.0
 11
74.096239
 21
392.554932
 31
0.0
  0
LINE
  8
0
  6
CONTINUOUS
 62
     9
  5
26A
 10
74.096239
 20
392.154932
 30
0.0
 11
74.096239
 21
392.554932
 31
0.0
  0
LINE
  8
0
  6
CONTINUOUS
 62
     9
  5
26B
 10
74.096239
 20
342.554932
 30
0.0
 11
74.096239
 21
342.954932
 31
0.0
  0
LINE
  8
0
  6
CONTINUOUS
 62
     7
  5
26C
 10
74.096239
 20
342.554932
 30
0.0
 11
67.096443
 21
342.554932
 31
0.0
  0
LINE
  8
0
  6
CONTINUOUS
 62
     7
  5
26D
 10
74.096239
 20
392.554932
 30
0.0
 11
77.096443
 21
392.554932
 31
0.0
  0
LINE
  8
0
  6
CONTINUOUS
 62
     7
  5
26E
 10
77.096443
 20
342.554932
 30
0.0
 11
74.096239
 21
342.554932
 31
0.0
  0
LINE
  8
0
  6
CONTINUOUS
 62
     7
  5
26F
 10
59.596443
 20
392.154932
 30
0.0
 11
57.025162
 21
392.154932
 31
0.0
  0
LINE
  8
0
  6
CONTINUOUS
 62
     7
  5
270
 10
57.025162
 20
342.954932
 30
0.0
 11
59.596443
 21
342.954932
 31
0.0
  0
LINE
  8
0
  6
CONTINUOUS
 62
     7
  5
271
 10
57.140139
 20
386.554932
 30
0.0
 11
57.140139
 21
348.554932
 31
0.0
  0
LINE
  8
0
  6
CONTINUOUS
 62
     7
  5
272
 10
51.94067
 20
386.554932
 30
0.0
 11
51.94067
 21
348.554932
 31
0.0
  0
LINE
  8
0
  6
CONTINUOUS
 62
     7
  5
273
 10
60.256351
 20
386.554932
 30
0.0
 11
60.256351
 21
348.554932
 31
0.0
  0
LINE
  8
0
  6
CONTINUOUS
 62
     7
  5
274
 10
47.397689
 20
389.549932
 30
0.0
 11
47.492909
 21
389.549932
 31
0.0
  0
LINE
  8
0
  6
CONTINUOUS
 62
     7
  5
275
 10
47.447366
 20
392.154932
 30
0.0
 11
47.447366
 21
392.554932
 31
0.0
  0
LINE
  8
0
  6
CONTINUOUS
 62
     7
  5
276
 10
47.492909
 20
389.549932
 30
0.0
 11
47.492909
 21
389.554932
 31
0.0
  0
LINE
  8
0
  6
CONTINUOUS
 62
     7
  5
277
 10
47.492909
 20
389.554932
 30
0.0
 11
48.166067
 21
389.554932
 31
0.0
  0
LINE
  8
0
  6
CONTINUOUS
 62
     7
  5
278
 10
48.166067
 20
392.154932
 30
0.0
 11
47.397689
 21
392.154932
 31
0.0
  0
LINE
  8
0
  6
CONTINUOUS
 62
     7
  5
279
 10
47.397689
 20
342.954932
 30
0.0
 11
48.166067
 21
342.954932
 31
0.0
  0
LINE
  8
0
  6
CONTINUOUS
 62
     7
  5
27A
 10
47.492909
 20
345.559932
 30
0.0
 11
47.397689
 21
345.559932
 31
0.0
  0
LINE
  8
0
  6
CONTINUOUS
 62
     7
  5
27B
 10
47.492909
 20
345.554932
 30
0.0
 11
47.492909
 21
345.559932
 31
0.0
  0
LINE
  8
0
  6
CONTINUOUS
 62
     7
  5
27C
 10
47.447366
 20
342.554932
 30
0.0
 11
47.447366
 21
342.954932
 31
0.0
  0
LINE
  8
0
  6
CONTINUOUS
 62
     7
  5
27D
 10
48.166067
 20
345.554932
 30
0.0
 11
47.492909
 21
345.554932
 31
0.0
  0
LINE
  8
0
  6
CONTINUOUS
 62
     7
  5
27E
 10
47.447366
 20
392.554932
 30
0.0
 11
54.897689
 21
392.554932
 31
0.0
  0
LINE
  8
0
  6
CONTINUOUS
 62
     7
  5
27F
 10
54.897689
 20
342.554932
 30
0.0
 11
47.447366
 21
342.554932
 31
0.0
  0
LINE
  8
0
  6
CONTINUOUS
 62
     7
  5
280
 10
47.397689
 20
386.554932
 30
0.0
 11
51.505726
 21
386.554932
 31
0.0
  0
LINE
  8
0
  6
CONTINUOUS
 62
     7
  5
281
 10
48.166067
 20
389.554932
 30
0.0
 11
47.492909
 21
389.554932
 31
0.0
  0
LINE
  8
0
  6
CONTINUOUS
 62
     7
  5
282
 10
47.492909
 20
389.554932
 30
0.0
 11
47.397689
 21
389.554932
 31
0.0
  0
LINE
  8
0
  6
CONTINUOUS
 62
     7
  5
283
 10
47.397689
 20
345.554932
 30
0.0
 11
47.492909
 21
345.554932
 31
0.0
  0
LINE
  8
0
  6
CONTINUOUS
 62
     7
  5
284
 10
47.492909
 20
345.554932
 30
0.0
 11
48.166067
 21
345.554932
 31
0.0
  0
LINE
  8
0
  6
CONTINUOUS
 62
     7
  5
285
 10
51.505726
 20
348.554932
 30
0.0
 11
47.397689
 21
348.554932
 31
0.0
  0
LINE
  8
0
  6
CONTINUOUS
 62
     7
  5
286
 10
58.73274
 20
392.554932
 30
0.0
 11
59.596443
 21
392.554932
 31
0.0
  0
LINE
  8
0
  6
CONTINUOUS
 62
     9
  5
287
 10
58.73274
 20
392.154932
 30
0.0
 11
58.73274
 21
392.554932
 31
0.0
  0
LINE
  8
0
  6
CONTINUOUS
 62
     7
  5
288
 10
59.596443
 20
342.554932
 30
0.0
 11
58.73274
 21
342.554932
 31
0.0
  0
LINE
  8
0
  6
CONTINUOUS
 62
     9
  5
289
 10
58.73274
 20
342.554932
 30
0.0
 11
58.73274
 21
342.954932
 31
0.0
  0
LINE
  8
0
  6
CONTINUOUS
 62
     7
  5
28A
 10
54.897689
 20
392.554932
 30
0.0
 11
58.73274
 21
392.554932
 31
0.0
  0
LINE
  8
0
  6
CONTINUOUS
 62
     7
  5
28B
 10
58.73274
 20
342.554932
 30
0.0
 11
54.897689
 21
342.554932
 31
0.0
  0
LINE
  8
0
  6
CONTINUOUS
 62
     7
  5
28C
 10
72.853708
 20
367.896448
 30
0.0
 11
72.66196
 21
367.554932
 31
0.0
  0
LINE
  8
0
  6
CONTINUOUS
 62
     7
  5
28D
 10
72.66196
 20
367.554932
 30
0.0
 11
72.66196
 21
364.554932
 31
0.0
  0
LINE
  8
0
  6
CONTINUOUS
 62
     7
  5
28E
 10
72.66196
 20
364.554932
 30
0.0
 11
71.883976
 21
364.554932
 31
0.0
  0
LINE
  8
0
  6
CONTINUOUS
 62
     7
  5
28F
 10
71.883976
 20
364.554932
 30
0.0
 11
71.883976
 21
367.769291
 31
0.0
  0
LINE
  8
0
  6
CONTINUOUS
 62
     7
  5
290
 10
71.883976
 20
367.769291
 30
0.0
 11
72.853708
 21
369.496448
 31
0.0
  0
LINE
  8
0
  6
CONTINUOUS
 62
     7
  5
291
 10
72.66196
 20
367.554932
 30
0.0
 11
72.853708
 21
367.554932
 31
0.0
  0
LINE
  8
0
  6
CONTINUOUS
 62
     7
  5
292
 10
72.66196
 20
364.554932
 30
0.0
 11
72.853708
 21
364.554932
 31
0.0
  0
LINE
  8
0
  6
CONTINUOUS
 62
     7
  5
293
 10
49.78036
 20
386.554932
 30
0.0
 11
49.78036
 21
348.554932
 31
0.0
  0
LINE
  8
0
  6
CONTINUOUS
 62
     7
  5
294
 10
79.065884
 20
392.554932
 30
0.0
 11
79.065884
 21
392.154932
 31
0.0
  0
LINE
  8
0
  6
CONTINUOUS
 62
     7
  5
295
 10
79.065884
 20
342.954932
 30
0.0
 11
79.065884
 21
342.554932
 31
0.0
  0
LINE
  8
0
  6
CONTINUOUS
 62
     7
  5
296
 10
79.065884
 20
342.554932
 30
0.0
 11
77.096443
 21
342.554932
 31
0.0
  0
LINE
  8
0
  6
CONTINUOUS
 62
     7
  5
297
 10
77.096443
 20
392.554932
 30
0.0
 11
79.065884
 21
392.554932
 31
0.0
  0
LINE
  8
0
  6
CONTINUOUS
 62
     7
  5
298
 10
85.669721
 20
371.554932
 30
0.0
 11
88.627998
 21
371.554932
 31
0.0
  0
LINE
  8
0
  6
CONTINUOUS
 62
     7
  5
299
 10
87.465025
 20
366.554932
 30
0.0
 11
85.669721
 21
366.554932
 31
0.0
  0
LINE
  8
0
  6
CONTINUOUS
 62
     7
  5
29A
 10
85.669721
 20
367.554932
 30
0.0
 11
87.465025
 21
367.554932
 31
0.0
  0
LINE
  8
0
  6
CONTINUOUS
 62
     7
  5
29B
 10
103.045855
 20
392.554932
 30
0.0
 11
102.920284
 21
392.554932
 31
0.0
  0
LINE
  8
0
  6
CONTINUOUS
 62
     7
  5
29C
 10
103.045855
 20
342.554932
 30
0.0
 11
102.920284
 21
342.554932
 31
0.0
  0
LINE
  8
0
  6
CONTINUOUS
 62
     7
  5
29D
 10
67.972102
 20
386.554932
 30
0.0
 11
67.972102
 21
348.554932
 31
0.0
  0
LINE
  8
0
  6
CONTINUOUS
 62
     7
  5
29E
 10
65.810441
 20
386.554932
 30
0.0
 11
65.810441
 21
348.554932
 31
0.0
  0
LINE
  8
0
  6
CONTINUOUS
 62
     7
  5
29F
 10
97.920284
 20
389.554932
 30
0.0
 11
94.370284
 21
389.554932
 31
0.0
  0
LINE
  8
0
  6
CONTINUOUS
 62
     7
  5
2A0
 10
94.370284
 20
389.554932
 30
0.0
 11
91.26907
 21
389.554932
 31
0.0
  0
LINE
  8
0
  6
CONTINUOUS
 62
     7
  5
2A1
 10
91.26907
 20
386.554932
 30
0.0
 11
91.26907
 21
389.549932
 31
0.0
  0
LINE
  8
0
  6
CONTINUOUS
 62
     7
  5
2A2
 10
91.26907
 20
389.549932
 30
0.0
 11
91.26907
 21
389.554932
 31
0.0
  0
LINE
  8
0
  6
CONTINUOUS
 62
     7
  5
2A3
 10
91.26907
 20
386.554932
 30
0.0
 11
106.270284
 21
386.554932
 31
0.0
  0
LINE
  8
0
  6
CONTINUOUS
 62
     7
  5
2A4
 10
106.270284
 20
348.554932
 30
0.0
 11
91.26907
 21
348.554932
 31
0.0
  0
LINE
  8
0
  6
CONTINUOUS
 62
     7
  5
2A5
 10
91.26907
 20
345.554932
 30
0.0
 11
91.26907
 21
345.559932
 31
0.0
  0
LINE
  8
0
  6
CONTINUOUS
 62
     7
  5
2A6
 10
91.26907
 20
345.559932
 30
0.0
 11
91.26907
 21
348.554932
 31
0.0
  0
LINE
  8
0
  6
CONTINUOUS
 62
     7
  5
2A7
 10
91.26907
 20
345.554932
 30
0.0
 11
94.370284
 21
345.554932
 31
0.0
  0
LINE
  8
0
  6
CONTINUOUS
 62
     7
  5
2A8
 10
94.370284
 20
345.554932
 30
0.0
 11
97.920284
 21
345.554932
 31
0.0
  0
LINE
  8
0
  6
CONTINUOUS
 62
     7
  5
2A9
 10
91.109441
 20
386.554932
 30
0.0
 11
91.109441
 21
389.554932
 31
0.0
  0
LINE
  8
0
  6
CONTINUOUS
 62
     7
  5
2AA
 10
91.26907
 20
389.554932
 30
0.0
 11
91.109441
 21
389.554932
 31
0.0
  0
LINE
  8
0
  6
CONTINUOUS
 62
     7
  5
2AB
 10
91.109441
 20
386.554932
 30
0.0
 11
91.26907
 21
386.554932
 31
0.0
  0
LINE
  8
0
  6
CONTINUOUS
 62
     7
  5
2AC
 10
84.039635
 20
389.554932
 30
0.0
 11
84.039635
 21
392.154932
 31
0.0
  0
LINE
  8
0
  6
CONTINUOUS
 62
     7
  5
2AD
 10
72.355405
 20
389.554932
 30
0.0
 11
72.355405
 21
386.554932
 31
0.0
  0
LINE
  8
0
  6
CONTINUOUS
 62
     7
  5
2AE
 10
65.2856
 20
389.554932
 30
0.0
 11
72.355405
 21
389.554932
 31
0.0
  0
LINE
  8
0
  6
CONTINUOUS
 62
     7
  5
2AF
 10
65.2856
 20
389.554932
 30
0.0
 11
65.2856
 21
392.154932
 31
0.0
  0
LINE
  8
0
  6
CONTINUOUS
 62
     7
  5
2B0
 10
84.039635
 20
392.154932
 30
0.0
 11
65.2856
 21
392.154932
 31
0.0
  0
LINE
  8
0
  6
CONTINUOUS
 62
     7
  5
2B1
 10
91.109441
 20
389.554932
 30
0.0
 11
84.039635
 21
389.554932
 31
0.0
  0
LINE
  8
0
  6
CONTINUOUS
 62
     7
  5
2B2
 10
72.355405
 20
386.554932
 30
0.0
 11
91.109441
 21
386.554932
 31
0.0
  0
LINE
  8
0
  6
CONTINUOUS
 62
     7
  5
2B3
 10
65.2856
 20
342.954932
 30
0.0
 11
65.2856
 21
345.554932
 31
0.0
  0
LINE
  8
0
  6
CONTINUOUS
 62
     7
  5
2B4
 10
72.355405
 20
345.554932
 30
0.0
 11
65.2856
 21
345.554932
 31
0.0
  0
LINE
  8
0
  6
CONTINUOUS
 62
     7
  5
2B5
 10
72.355405
 20
348.554932
 30
0.0
 11
72.355405
 21
345.554932
 31
0.0
  0
LINE
  8
0
  6
CONTINUOUS
 62
     7
  5
2B6
 10
91.109441
 20
345.554932
 30
0.0
 11
91.109441
 21
348.554932
 31
0.0
  0
LINE
  8
0
  6
CONTINUOUS
 62
     7
  5
2B7
 10
84.039635
 20
342.954932
 30
0.0
 11
84.039635
 21
345.554932
 31
0.0
  0
LINE
  8
0
  6
CONTINUOUS
 62
     7
  5
2B8
 10
65.2856
 20
342.954932
 30
0.0
 11
84.039635
 21
342.954932
 31
0.0
  0
LINE
  8
0
  6
CONTINUOUS
 62
     7
  5
2B9
 10
84.039635
 20
345.554932
 30
0.0
 11
91.109441
 21
345.554932
 31
0.0
  0
LINE
  8
0
  6
CONTINUOUS
 62
     7
  5
2BA
 10
91.109441
 20
348.554932
 30
0.0
 11
72.355405
 21
348.554932
 31
0.0
  0
LINE
  8
0
  6
CONTINUOUS
 62
     7
  5
2BB
 10
91.109441
 20
345.554932
 30
0.0
 11
91.26907
 21
345.554932
 31
0.0
  0
LINE
  8
0
  6
CONTINUOUS
 62
     7
  5
2BC
 10
91.26907
 20
348.554932
 30
0.0
 11
91.109441
 21
348.554932
 31
0.0
  0
LINE
  8
0
  6
CONTINUOUS
 62
     7
  5
2BD
 10
85.688382
 20
392.154932
 30
0.0
 11
85.688382
 21
389.554932
 31
0.0
  0
LINE
  8
0
  6
CONTINUOUS
 62
     7
  5
2BE
 10
85.688382
 20
392.154932
 30
0.0
 11
84.039635
 21
392.154932
 31
0.0
  0
LINE
  8
0
  6
CONTINUOUS
 62
     7
  5
2BF
 10
85.688382
 20
342.954932
 30
0.0
 11
85.688382
 21
345.554932
 31
0.0
  0
LINE
  8
0
  6
CONTINUOUS
 62
     7
  5
2C0
 10
84.039635
 20
342.954932
 30
0.0
 11
85.688382
 21
342.954932
 31
0.0
  0
LINE
  8
0
  6
CONTINUOUS
 62
     7
  5
2C1
 10
85.669721
 20
386.554932
 30
0.0
 11
85.669721
 21
348.554932
 31
0.0
  0
LINE
  8
0
  6
CONTINUOUS
 62
     7
  5
2C2
 10
83.860591
 20
386.554932
 30
0.0
 11
83.860591
 21
348.554932
 31
0.0
  0
LINE
  8
0
  6
CONTINUOUS
 62
     7
  5
2C3
 10
72.853708
 20
386.554932
 30
0.0
 11
72.853708
 21
348.554932
 31
0.0
  0
LINE
  8
0
  6
CONTINUOUS
 62
     7
  5
2C4
 10
92.920284
 20
392.554932
 30
0.0
 11
102.153701
 21
392.554932
 31
0.0
  0
LINE
  8
0
  6
CONTINUOUS
 62
     9
  5
2C5
 10
102.153701
 20
392.154932
 30
0.0
 11
102.153701
 21
392.554932
 31
0.0
  0
LINE
  8
0
  6
CONTINUOUS
 62
     9
  5
2C6
 10
102.153701
 20
342.554932
 30
0.0
 11
102.153701
 21
342.954932
 31
0.0
  0
LINE
  8
0
  6
CONTINUOUS
 62
     7
  5
2C7
 10
102.153701
 20
342.554932
 30
0.0
 11
92.920284
 21
342.554932
 31
0.0
  0
LINE
  8
0
  6
CONTINUOUS
 62
     7
  5
2C8
 10
102.153701
 20
392.554932
 30
0.0
 11
102.920284
 21
392.554932
 31
0.0
  0
LINE
  8
0
  6
CONTINUOUS
 62
     7
  5
2C9
 10
102.920284
 20
342.554932
 30
0.0
 11
102.153701
 21
342.554932
 31
0.0
  0
LINE
  8
0
  6
CONTINUOUS
 62
     7
  5
2CA
 10
61.181443
 20
392.554932
 30
0.0
 11
59.596443
 21
392.554932
 31
0.0
  0
LINE
  8
0
  6
CONTINUOUS
 62
     7
  5
2CB
 10
61.181443
 20
392.154932
 30
0.0
 11
61.181443
 21
392.554932
 31
0.0
  0
LINE
  8
0
  6
CONTINUOUS
 62
     7
  5
2CC
 10
62.713372
 20
389.549932
 30
0.0
 11
62.713372
 21
389.554932
 31
0.0
  0
LINE
  8
0
  6
CONTINUOUS
 62
     7
  5
2CD
 10
62.713372
 20
389.554932
 30
0.0
 11
65.2856
 21
389.554932
 31
0.0
  0
LINE
  8
0
  6
CONTINUOUS
 62
     7
  5
2CE
 10
65.2856
 20
392.154932
 30
0.0
 11
61.181443
 21
392.154932
 31
0.0
  0
LINE
  8
0
  6
CONTINUOUS
 62
     7
  5
2CF
 10
61.181443
 20
342.554932
 30
0.0
 11
59.596443
 21
342.554932
 31
0.0
  0
LINE
  8
0
  6
CONTINUOUS
 62
     7
  5
2D0
 10
62.713372
 20
345.554932
 30
0.0
 11
62.713372
 21
345.559932
 31
0.0
  0
LINE
  8
0
  6
CONTINUOUS
 62
     7
  5
2D1
 10
61.181443
 20
342.554932
 30
0.0
 11
61.181443
 21
342.954932
 31
0.0
  0
LINE
  8
0
  6
CONTINUOUS
 62
     7
  5
2D2
 10
65.2856
 20
345.554932
 30
0.0
 11
62.713372
 21
345.554932
 31
0.0
  0
LINE
  8
0
  6
CONTINUOUS
 62
     7
  5
2D3
 10
61.181443
 20
342.954932
 30
0.0
 11
65.2856
 21
342.954932
 31
0.0
  0
LINE
  8
0
  6
CONTINUOUS
 62
     7
  5
2D4
 10
61.181443
 20
392.554932
 30
0.0
 11
67.096443
 21
392.554932
 31
0.0
  0
LINE
  8
0
  6
CONTINUOUS
 62
     7
  5
2D5
 10
67.096443
 20
342.554932
 30
0.0
 11
61.181443
 21
342.554932
 31
0.0
  0
LINE
  8
0
  6
CONTINUOUS
 62
     7
  5
2D6
 10
94.199628
 20
371.554932
 30
0.0
 11
92.970802
 21
367.554932
 31
0.0
  0
LINE
  8
0
  6
CONTINUOUS
 62
     7
  5
2D7
 10
92.970802
 20
367.554932
 30
0.0
 11
92.970802
 21
364.554932
 31
0.0
  0
LINE
  8
0
  6
CONTINUOUS
 62
     7
  5
2D8
 10
92.970802
 20
364.554932
 30
0.0
 11
92.545124
 21
364.554932
 31
0.0
  0
LINE
  8
0
  6
CONTINUOUS
 62
     7
  5
2D9
 10
92.545124
 20
364.554932
 30
0.0
 11
92.545124
 21
367.769291
 31
0.0
  0
LINE
  8
0
  6
CONTINUOUS
 62
     7
  5
2DA
 10
92.545124
 20
367.769291
 30
0.0
 11
93.77395
 21
371.769291
 31
0.0
  0
LINE
  8
0
  6
CONTINUOUS
 62
     7
  5
2DB
 10
93.77395
 20
371.769291
 30
0.0
 11
93.77395
 21
386.554932
 31
0.0
  0
LINE
  8
0
  6
CONTINUOUS
 62
     7
  5
2DC
 10
94.199628
 20
386.554932
 30
0.0
 11
94.199628
 21
371.554932
 31
0.0
  0
LINE
  8
0
  6
CONTINUOUS
 62
     7
  5
2DD
 10
92.545124
 20
367.769291
 30
0.0
 11
87.465025
 21
367.769291
 31
0.0
  0
LINE
  8
0
  6
CONTINUOUS
 62
     7
  5
2DE
 10
92.545124
 20
364.554932
 30
0.0
 11
87.465025
 21
364.554932
 31
0.0
  0
LINE
  8
0
  6
CONTINUOUS
 62
     7
  5
2DF
 10
87.465025
 20
367.769291
 30
0.0
 11
87.465025
 21
364.554932
 31
0.0
  0
LINE
  8
0
  6
CONTINUOUS
 62
     7
  5
2E0
 10
93.77395
 20
371.769291
 30
0.0
 11
88.69385
 21
371.769291
 31
0.0
  0
LINE
  8
0
  6
CONTINUOUS
 62
     7
  5
2E1
 10
88.69385
 20
371.769291
 30
0.0
 11
87.465025
 21
367.769291
 31
0.0
  0
LINE
  8
0
  6
CONTINUOUS
 62
     7
  5
2E2
 10
88.69385
 20
386.554932
 30
0.0
 11
88.69385
 21
371.769291
 31
0.0
  0
LINE
  8
0
  6
CONTINUOUS
 62
     7
  5
2E3
 10
94.199628
 20
348.554932
 30
0.0
 11
94.199628
 21
366.554932
 31
0.0
  0
LINE
  8
0
  6
CONTINUOUS
 62
     7
  5
2E4
 10
93.77395
 20
366.554932
 30
0.0
 11
93.77395
 21
348.554932
 31
0.0
  0
LINE
  8
0
  6
CONTINUOUS
 62
     7
  5
2E5
 10
94.199628
 20
366.554932
 30
0.0
 11
93.77395
 21
366.554932
 31
0.0
  0
LINE
  8
0
  6
CONTINUOUS
 62
     7
  5
2E6
 10
88.69385
 20
348.554932
 30
0.0
 11
88.69385
 21
364.554932
 31
0.0
  0
LINE
  8
0
  6
CONTINUOUS
 62
     7
  5
2E7
 10
92.970802
 20
366.554932
 30
0.0
 11
93.77395
 21
366.554932
 31
0.0
  0
LINE
  8
0
  6
CONTINUOUS
 62
     7
  5
2E8
 10
120.070284
 20
389.554932
 30
0.0
 11
120.070284
 21
392.154932
 31
0.0
  0
LINE
  8
0
  6
CONTINUOUS
 62
     7
  5
2E9
 10
128.420284
 20
389.554932
 30
0.0
 11
120.070284
 21
389.554932
 31
0.0
  0
LINE
  8
0
  6
CONTINUOUS
 62
     7
  5
2EA
 10
128.420284
 20
386.554932
 30
0.0
 11
128.420284
 21
389.554932
 31
0.0
  0
LINE
  8
0
  6
CONTINUOUS
 62
     7
  5
2EB
 10
106.270284
 20
386.554932
 30
0.0
 11
128.420284
 21
386.554932
 31
0.0
  0
LINE
  8
0
  6
CONTINUOUS
 62
     7
  5
2EC
 10
106.270284
 20
389.554932
 30
0.0
 11
106.270284
 21
386.554932
 31
0.0
  0
LINE
  8
0
  6
CONTINUOUS
 62
     7
  5
2ED
 10
97.920284
 20
389.554932
 30
0.0
 11
106.270284
 21
389.554932
 31
0.0
  0
LINE
  8
0
  6
CONTINUOUS
 62
     7
  5
2EE
 10
120.070284
 20
392.154932
 30
0.0
 11
97.920284
 21
392.154932
 31
0.0
  0
LINE
  8
0
  6
CONTINUOUS
 62
     7
  5
2EF
 10
97.920284
 20
389.554932
 30
0.0
 11
97.920284
 21
392.154932
 31
0.0
  0
LINE
  8
0
  6
CONTINUOUS
 62
     7
  5
2F0
 10
97.920284
 20
342.954932
 30
0.0
 11
97.920284
 21
345.554932
 31
0.0
  0
LINE
  8
0
  6
CONTINUOUS
 62
     7
  5
2F1
 10
106.270284
 20
345.554932
 30
0.0
 11
97.920284
 21
345.554932
 31
0.0
  0
LINE
  8
0
  6
CONTINUOUS
 62
     7
  5
2F2
 10
128.420284
 20
345.554932
 30
0.0
 11
128.420284
 21
348.554932
 31
0.0
  0
LINE
  8
0
  6
CONTINUOUS
 62
     7
  5
2F3
 10
120.070284
 20
345.554932
 30
0.0
 11
128.420284
 21
345.554932
 31
0.0
  0
LINE
  8
0
  6
CONTINUOUS
 62
     7
  5
2F4
 10
97.920284
 20
342.954932
 30
0.0
 11
120.070284
 21
342.954932
 31
0.0
  0
LINE
  8
0
  6
CONTINUOUS
 62
     7
  5
2F5
 10
120.070284
 20
342.954932
 30
0.0
 11
120.070284
 21
345.554932
 31
0.0
  0
LINE
  8
0
  6
CONTINUOUS
 62
     7
  5
2F6
 10
128.420284
 20
348.554932
 30
0.0
 11
106.270284
 21
348.554932
 31
0.0
  0
LINE
  8
0
  6
CONTINUOUS
 62
     7
  5
2F7
 10
106.270284
 20
348.554932
 30
0.0
 11
106.270284
 21
345.554932
 31
0.0
  0
LINE
  8
0
  6
CONTINUOUS
 62
     7
  5
2F8
 10
128.420284
 20
386.554932
 30
0.0
 11
136.770284
 21
386.554932
 31
0.0
  0
LINE
  8
0
  6
CONTINUOUS
 62
     7
  5
2F9
 10
119.670284
 20
386.554932
 30
0.0
 11
119.670284
 21
348.554932
 31
0.0
  0
LINE
  8
0
  6
CONTINUOUS
 62
     7
  5
2FA
 10
106.670284
 20
386.554932
 30
0.0
 11
106.670284
 21
348.554932
 31
0.0
  0
LINE
  8
0
  6
CONTINUOUS
 62
     7
  5
2FB
 10
136.770284
 20
348.554932
 30
0.0
 11
128.420284
 21
348.554932
 31
0.0
  0
LINE
  8
0
  6
CONTINUOUS
 62
     7
  5
2FC
 10
91.920284
 20
392.554932
 30
0.0
 11
85.420284
 21
392.554932
 31
0.0
  0
LINE
  8
0
  6
CONTINUOUS
 62
     7
  5
2FD
 10
91.920284
 20
392.154932
 30
0.0
 11
91.920284
 21
392.554932
 31
0.0
  0
LINE
  8
0
  6
CONTINUOUS
 62
     7
  5
2FE
 10
94.370284
 20
389.549932
 30
0.0
 11
94.370284
 21
389.554932
 31
0.0
  0
LINE
  8
0
  6
CONTINUOUS
 62
     7
  5
2FF
 10
94.370284
 20
389.554932
 30
0.0
 11
97.920284
 21
389.554932
 31
0.0
  0
LINE
  8
0
  6
CONTINUOUS
 62
     7
  5
300
 10
97.920284
 20
392.154932
 30
0.0
 11
91.920284
 21
392.154932
 31
0.0
  0
LINE
  8
0
  6
CONTINUOUS
 62
     7
  5
301
 10
91.920284
 20
342.554932
 30
0.0
 11
85.420284
 21
342.554932
 31
0.0
  0
LINE
  8
0
  6
CONTINUOUS
 62
     7
  5
302
 10
94.370284
 20
345.554932
 30
0.0
 11
94.370284
 21
345.559932
 31
0.0
  0
LINE
  8
0
  6
CONTINUOUS
 62
     7
  5
303
 10
91.920284
 20
342.554932
 30
0.0
 11
91.920284
 21
342.954932
 31
0.0
  0
LINE
  8
0
  6
CONTINUOUS
 62
     7
  5
304
 10
91.920284
 20
342.954932
 30
0.0
 11
97.920284
 21
342.954932
 31
0.0
  0
LINE
  8
0
  6
CONTINUOUS
 62
     7
  5
305
 10
97.920284
 20
345.554932
 30
0.0
 11
94.370284
 21
345.554932
 31
0.0
  0
LINE
  8
0
  6
CONTINUOUS
 62
     7
  5
306
 10
123.420284
 20
392.554932
 30
0.0
 11
123.420284
 21
392.154932
 31
0.0
  0
LINE
  8
0
  6
CONTINUOUS
 62
     7
  5
307
 10
123.420284
 20
392.554932
 30
0.0
 11
133.420284
 21
392.554932
 31
0.0
  0
LINE
  8
0
  6
CONTINUOUS
 62
     7
  5
308
 10
133.420284
 20
392.154932
 30
0.0
 11
133.420284
 21
392.554932
 31
0.0
  0
LINE
  8
0
  6
CONTINUOUS
 62
     7
  5
309
 10
123.420284
 20
342.954932
 30
0.0
 11
123.420284
 21
342.554932
 31
0.0
  0
LINE
  8
0
  6
CONTINUOUS
 62
     7
  5
30A
 10
133.420284
 20
342.554932
 30
0.0
 11
133.420284
 21
342.954932
 31
0.0
  0
LINE
  8
0
  6
CONTINUOUS
 62
     7
  5
30B
 10
133.420284
 20
342.554932
 30
0.0
 11
123.420284
 21
342.554932
 31
0.0
  0
LINE
  8
0
  6
CONTINUOUS
 62
     7
  5
30C
 10
158.920284
 20
386.554932
 30
0.0
 11
158.920284
 21
389.554932
 31
0.0
  0
LINE
  8
0
  6
CONTINUOUS
 62
     7
  5
30D
 10
150.570284
 20
392.154932
 30
0.0
 11
128.420284
 21
392.154932
 31
0.0
  0
LINE
  8
0
  6
CONTINUOUS
 62
     7
  5
30E
 10
150.570284
 20
389.554932
 30
0.0
 11
150.570284
 21
392.154932
 31
0.0
  0
LINE
  8
0
  6
CONTINUOUS
 62
     7
  5
30F
 10
136.770284
 20
386.554932
 30
0.0
 11
158.920284
 21
386.554932
 31
0.0
  0
LINE
  8
0
  6
CONTINUOUS
 62
     7
  5
310
 10
158.920284
 20
389.554932
 30
0.0
 11
150.570284
 21
389.554932
 31
0.0
  0
LINE
  8
0
  6
CONTINUOUS
 62
     7
  5
311
 10
128.420284
 20
389.554932
 30
0.0
 11
136.770284
 21
389.554932
 31
0.0
  0
LINE
  8
0
  6
CONTINUOUS
 62
     7
  5
312
 10
128.420284
 20
389.554932
 30
0.0
 11
128.420284
 21
392.154932
 31
0.0
  0
LINE
  8
0
  6
CONTINUOUS
 62
     7
  5
313
 10
136.770284
 20
389.554932
 30
0.0
 11
136.770284
 21
386.554932
 31
0.0
  0
LINE
  8
0
  6
CONTINUOUS
 62
     7
  5
314
 10
136.770284
 20
348.554932
 30
0.0
 11
136.770284
 21
345.554932
 31
0.0
  0
LINE
  8
0
  6
CONTINUOUS
 62
     7
  5
315
 10
128.420284
 20
342.954932
 30
0.0
 11
150.570284
 21
342.954932
 31
0.0
  0
LINE
  8
0
  6
CONTINUOUS
 62
     7
  5
316
 10
150.570284
 20
345.554932
 30
0.0
 11
158.920284
 21
345.554932
 31
0.0
  0
LINE
  8
0
  6
CONTINUOUS
 62
     7
  5
317
 10
158.920284
 20
348.554932
 30
0.0
 11
136.770284
 21
348.554932
 31
0.0
  0
LINE
  8
0
  6
CONTINUOUS
 62
     7
  5
318
 10
150.570284
 20
342.954932
 30
0.0
 11
150.570284
 21
345.554932
 31
0.0
  0
LINE
  8
0
  6
CONTINUOUS
 62
     7
  5
319
 10
136.770284
 20
345.554932
 30
0.0
 11
128.420284
 21
345.554932
 31
0.0
  0
LINE
  8
0
  6
CONTINUOUS
 62
     7
  5
31A
 10
158.920284
 20
345.554932
 30
0.0
 11
158.920284
 21
348.554932
 31
0.0
  0
LINE
  8
0
  6
CONTINUOUS
 62
     7
  5
31B
 10
128.420284
 20
342.954932
 30
0.0
 11
128.420284
 21
345.554932
 31
0.0
  0
LINE
  8
0
  6
CONTINUOUS
 62
     7
  5
31C
 10
158.920284
 20
386.554932
 30
0.0
 11
167.270284
 21
386.554932
 31
0.0
  0
LINE
  8
0
  6
CONTINUOUS
 62
     7
  5
31D
 10
122.420284
 20
392.554932
 30
0.0
 11
115.920284
 21
392.554932
 31
0.0
  0
LINE
  8
0
  6
CONTINUOUS
 62
     7
  5
31E
 10
122.420284
 20
392.154932
 30
0.0
 11
122.420284
 21
392.554932
 31
0.0
  0
LINE
  8
0
  6
CONTINUOUS
 62
     7
  5
31F
 10
128.420284
 20
392.154932
 30
0.0
 11
122.420284
 21
392.154932
 31
0.0
  0
LINE
  8
0
  6
CONTINUOUS
 62
     7
  5
320
 10
163.420284
 20
348.554932
 30
0.0
 11
158.920284
 21
348.554932
 31
0.0
  0
LINE
  8
0
  6
CONTINUOUS
 62
     7
  5
321
 10
150.170284
 20
386.554932
 30
0.0
 11
150.170284
 21
348.554932
 31
0.0
  0
LINE
  8
0
  6
CONTINUOUS
 62
     7
  5
322
 10
137.170284
 20
386.554932
 30
0.0
 11
137.170284
 21
348.554932
 31
0.0
  0
LINE
  8
0
  6
CONTINUOUS
 62
     7
  5
323
 10
122.420284
 20
342.554932
 30
0.0
 11
115.920284
 21
342.554932
 31
0.0
  0
LINE
  8
0
  6
CONTINUOUS
 62
     7
  5
324
 10
122.420284
 20
342.554932
 30
0.0
 11
122.420284
 21
342.954932
 31
0.0
  0
LINE
  8
0
  6
CONTINUOUS
 62
     7
  5
325
 10
122.420284
 20
342.954932
 30
0.0
 11
128.420284
 21
342.954932
 31
0.0
  0
LINE
  8
0
  6
CONTINUOUS
 62
     7
  5
326
 10
153.920284
 20
392.554932
 30
0.0
 11
153.920284
 21
392.154932
 31
0.0
  0
LINE
  8
0
  6
CONTINUOUS
 62
     7
  5
327
 10
153.920284
 20
392.554932
 30
0.0
 11
163.920284
 21
392.554932
 31
0.0
  0
LINE
  8
0
  6
CONTINUOUS
 62
     7
  5
328
 10
163.920284
 20
392.154932
 30
0.0
 11
163.920284
 21
392.554932
 31
0.0
  0
LINE
  8
0
  6
CONTINUOUS
 62
     7
  5
329
 10
163.420284
 20
342.554932
 30
0.0
 11
153.920284
 21
342.554932
 31
0.0
  0
LINE
  8
0
  6
CONTINUOUS
 62
     7
  5
32A
 10
153.920284
 20
342.954932
 30
0.0
 11
153.920284
 21
342.554932
 31
0.0
  0
LINE
  8
0
  6
CONTINUOUS
 62
     7
  5
32B
 10
181.070284
 20
389.554932
 30
0.0
 11
181.070284
 21
392.154932
 31
0.0
  0
LINE
  8
0
  6
CONTINUOUS
 62
     7
  5
32C
 10
189.420284
 20
389.554932
 30
0.0
 11
181.070284
 21
389.554932
 31
0.0
  0
LINE
  8
0
  6
CONTINUOUS
 62
     7
  5
32D
 10
167.270284
 20
389.554932
 30
0.0
 11
167.270284
 21
386.554932
 31
0.0
  0
LINE
  8
0
  6
CONTINUOUS
 62
     7
  5
32E
 10
181.070284
 20
392.154932
 30
0.0
 11
158.920284
 21
392.154932
 31
0.0
  0
LINE
  8
0
  6
CONTINUOUS
 62
     7
  5
32F
 10
158.920284
 20
389.554932
 30
0.0
 11
158.920284
 21
392.154932
 31
0.0
  0
LINE
  8
0
  6
CONTINUOUS
 62
     7
  5
330
 10
158.920284
 20
389.554932
 30
0.0
 11
167.270284
 21
389.554932
 31
0.0
  0
LINE
  8
0
  6
CONTINUOUS
 62
     7
  5
331
 10
189.420284
 20
386.554932
 30
0.0
 11
189.420284
 21
389.554932
 31
0.0
  0
LINE
  8
0
  6
CONTINUOUS
 62
     7
  5
332
 10
167.270284
 20
386.554932
 30
0.0
 11
189.420284
 21
386.554932
 31
0.0
  0
LINE
  8
0
  6
CONTINUOUS
 62
     7
  5
333
 10
158.920284
 20
342.954932
 30
0.0
 11
158.920284
 21
345.554932
 31
0.0
  0
LINE
  8
0
  6
CONTINUOUS
 62
     7
  5
334
 10
158.920284
 20
342.954932
 30
0.0
 11
163.420284
 21
342.954932
 31
0.0
  0
LINE
  8
0
  6
CONTINUOUS
 62
     7
  5
335
 10
163.420284
 20
345.554932
 30
0.0
 11
158.920284
 21
345.554932
 31
0.0
  0
LINE
  8
0
  6
CONTINUOUS
 62
     7
  5
336
 10
189.420284
 20
386.554932
 30
0.0
 11
197.770284
 21
386.554932
 31
0.0
  0
LINE
  8
0
  6
CONTINUOUS
 62
     7
  5
337
 10
152.920284
 20
392.554932
 30
0.0
 11
146.420284
 21
392.554932
 31
0.0
  0
LINE
  8
0
  6
CONTINUOUS
 62
     7
  5
338
 10
152.920284
 20
392.154932
 30
0.0
 11
152.920284
 21
392.554932
 31
0.0
  0
LINE
  8
0
  6
CONTINUOUS
 62
     7
  5
339
 10
158.920284
 20
392.154932
 30
0.0
 11
152.920284
 21
392.154932
 31
0.0
  0
LINE
  8
0
  6
CONTINUOUS
 62
     7
  5
33A
 10
167.670284
 20
386.554932
 30
0.0
 11
167.670284
 21
382.554932
 31
0.0
  0
LINE
  8
0
  6
CONTINUOUS
 62
     7
  5
33B
 10
180.670284
 20
386.554932
 30
0.0
 11
180.670284
 21
382.554932
 31
0.0
  0
LINE
  8
0
  6
CONTINUOUS
 62
     7
  5
33C
 10
152.920284
 20
342.554932
 30
0.0
 11
146.420284
 21
342.554932
 31
0.0
  0
LINE
  8
0
  6
CONTINUOUS
 62
     7
  5
33D
 10
152.920284
 20
342.554932
 30
0.0
 11
152.920284
 21
342.954932
 31
0.0
  0
LINE
  8
0
  6
CONTINUOUS
 62
     7
  5
33E
 10
152.920284
 20
342.954932
 30
0.0
 11
158.920284
 21
342.954932
 31
0.0
  0
LINE
  8
0
  6
CONTINUOUS
 62
     7
  5
33F
 10
184.420284
 20
392.554932
 30
0.0
 11
184.420284
 21
392.154932
 31
0.0
  0
LINE
  8
0
  6
CONTINUOUS
 62
     7
  5
340
 10
184.420284
 20
392.554932
 30
0.0
 11
194.420284
 21
392.554932
 31
0.0
  0
LINE
  8
0
  6
CONTINUOUS
 62
     7
  5
341
 10
194.420284
 20
392.154932
 30
0.0
 11
194.420284
 21
392.554932
 31
0.0
  0
LINE
  8
0
  6
CONTINUOUS
 62
     7
  5
342
 10
189.420284
 20
389.554932
 30
0.0
 11
189.420284
 21
392.154932
 31
0.0
  0
LINE
  8
0
  6
CONTINUOUS
 62
     7
  5
343
 10
189.420284
 20
389.554932
 30
0.0
 11
197.770284
 21
389.554932
 31
0.0
  0
LINE
  8
0
  6
CONTINUOUS
 62
     7
  5
344
 10
197.770284
 20
389.554932
 30
0.0
 11
197.770284
 21
386.554932
 31
0.0
  0
LINE
  8
0
  6
CONTINUOUS
 62
     7
  5
345
 10
211.570284
 20
389.554932
 30
0.0
 11
211.570284
 21
392.154932
 31
0.0
  0
LINE
  8
0
  6
CONTINUOUS
 62
     7
  5
346
 10
219.920284
 20
389.554932
 30
0.0
 11
211.570284
 21
389.554932
 31
0.0
  0
LINE
  8
0
  6
CONTINUOUS
 62
     7
  5
347
 10
219.920284
 20
386.554932
 30
0.0
 11
219.920284
 21
389.554932
 31
0.0
  0
LINE
  8
0
  6
CONTINUOUS
 62
     7
  5
348
 10
211.570284
 20
392.154932
 30
0.0
 11
189.420284
 21
392.154932
 31
0.0
  0
LINE
  8
0
  6
CONTINUOUS
 62
     7
  5
349
 10
197.770284
 20
386.554932
 30
0.0
 11
219.920284
 21
386.554932
 31
0.0
  0
LINE
  8
0
  6
CONTINUOUS
 62
     7
  5
34A
 10
219.920284
 20
386.554932
 30
0.0
 11
228.270284
 21
386.554932
 31
0.0
  0
LINE
  8
0
  6
CONTINUOUS
 62
     7
  5
34B
 10
211.170284
 20
386.554932
 30
0.0
 11
211.170284
 21
382.554932
 31
0.0
  0
LINE
  8
0
  6
CONTINUOUS
 62
     7
  5
34C
 10
198.170284
 20
386.554932
 30
0.0
 11
198.170284
 21
382.554932
 31
0.0
  0
LINE
  8
0
  6
CONTINUOUS
 62
     7
  5
34D
 10
183.420284
 20
392.554932
 30
0.0
 11
176.920284
 21
392.554932
 31
0.0
  0
LINE
  8
0
  6
CONTINUOUS
 62
     7
  5
34E
 10
183.420284
 20
392.154932
 30
0.0
 11
183.420284
 21
392.554932
 31
0.0
  0
LINE
  8
0
  6
CONTINUOUS
 62
     7
  5
34F
 10
189.420284
 20
392.154932
 30
0.0
 11
183.420284
 21
392.154932
 31
0.0
  0
LINE
  8
0
  6
CONTINUOUS
 62
     7
  5
350
 10
214.920284
 20
392.554932
 30
0.0
 11
214.920284
 21
392.154932
 31
0.0
  0
LINE
  8
0
  6
CONTINUOUS
 62
     7
  5
351
 10
214.920284
 20
392.554932
 30
0.0
 11
224.920284
 21
392.554932
 31
0.0
  0
LINE
  8
0
  6
CONTINUOUS
 62
     7
  5
352
 10
224.920284
 20
392.154932
 30
0.0
 11
224.920284
 21
392.554932
 31
0.0
  0
LINE
  8
0
  6
CONTINUOUS
 62
     7
  5
353
 10
250.420284
 20
386.554932
 30
0.0
 11
250.420284
 21
389.554932
 31
0.0
  0
LINE
  8
0
  6
CONTINUOUS
 62
     7
  5
354
 10
228.270284
 20
386.554932
 30
0.0
 11
250.420284
 21
386.554932
 31
0.0
  0
LINE
  8
0
  6
CONTINUOUS
 62
     7
  5
355
 10
242.070284
 20
392.154932
 30
0.0
 11
219.920284
 21
392.154932
 31
0.0
  0
LINE
  8
0
  6
CONTINUOUS
 62
     7
  5
356
 10
228.270284
 20
389.554932
 30
0.0
 11
228.270284
 21
386.554932
 31
0.0
  0
LINE
  8
0
  6
CONTINUOUS
 62
     7
  5
357
 10
250.420284
 20
389.554932
 30
0.0
 11
242.070284
 21
389.554932
 31
0.0
  0
LINE
  8
0
  6
CONTINUOUS
 62
     7
  5
358
 10
242.070284
 20
389.554932
 30
0.0
 11
242.070284
 21
392.154932
 31
0.0
  0
LINE
  8
0
  6
CONTINUOUS
 62
     7
  5
359
 10
219.920284
 20
389.554932
 30
0.0
 11
219.920284
 21
392.154932
 31
0.0
  0
LINE
  8
0
  6
CONTINUOUS
 62
     7
  5
35A
 10
219.920284
 20
389.554932
 30
0.0
 11
228.270284
 21
389.554932
 31
0.0
  0
LINE
  8
0
  6
CONTINUOUS
 62
     7
  5
35B
 10
252.665279
 20
389.554932
 30
0.0
 11
250.420284
 21
389.554932
 31
0.0
  0
LINE
  8
0
  6
CONTINUOUS
 62
     7
  5
35C
 10
250.420284
 20
386.554932
 30
0.0
 11
252.665279
 21
386.554932
 31
0.0
  0
LINE
  8
0
  6
CONTINUOUS
 62
     7
  5
35D
 10
213.920284
 20
392.554932
 30
0.0
 11
207.420284
 21
392.554932
 31
0.0
  0
LINE
  8
0
  6
CONTINUOUS
 62
     7
  5
35E
 10
213.920284
 20
392.154932
 30
0.0
 11
213.920284
 21
392.554932
 31
0.0
  0
LINE
  8
0
  6
CONTINUOUS
 62
     7
  5
35F
 10
219.920284
 20
392.154932
 30
0.0
 11
213.920284
 21
392.154932
 31
0.0
  0
LINE
  8
0
  6
CONTINUOUS
 62
     7
  5
360
 10
241.670284
 20
386.554932
 30
0.0
 11
241.670284
 21
382.554932
 31
0.0
  0
LINE
  8
0
  6
CONTINUOUS
 62
     7
  5
361
 10
228.670284
 20
386.554932
 30
0.0
 11
228.670284
 21
382.554932
 31
0.0
  0
LINE
  8
0
  6
CONTINUOUS
 62
     7
  5
362
 10
237.920284
 20
392.554932
 30
0.0
 11
237.920284
 21
392.154932
 31
0.0
  0
LINE
  8
0
  6
CONTINUOUS
 62
     7
  5
363
 10
175.920284
 20
332.554932
 30
0.0
 11
175.920284
 21
322.954932
 31
0.0
  0
LINE
  8
0
  6
CONTINUOUS
 62
     7
  5
364
 10
180.920284
 20
322.954932
 30
0.0
 11
180.920284
 21
332.554932
 31
0.0
  0
LINE
  8
0
  6
CONTINUOUS
 62
     7
  5
365
 10
175.920284
 20
322.954932
 30
0.0
 11
176.320284
 21
322.554932
 31
0.0
  0
LINE
  8
0
  6
CONTINUOUS
 62
     7
  5
366
 10
180.520284
 20
322.554932
 30
0.0
 11
180.920284
 21
322.954932
 31
0.0
  0
LINE
  8
0
  6
CONTINUOUS
 62
     7
  5
367
 10
272.920284
 20
332.554932
 30
0.0
 11
272.920284
 21
322.954932
 31
0.0
  0
LINE
  8
0
  6
CONTINUOUS
 62
     7
  5
368
 10
277.920284
 20
322.954932
 30
0.0
 11
277.920284
 21
332.554932
 31
0.0
  0
LINE
  8
0
  6
CONTINUOUS
 62
     7
  5
369
 10
272.920284
 20
322.954932
 30
0.0
 11
273.320284
 21
322.554932
 31
0.0
  0
LINE
  8
0
  6
CONTINUOUS
 62
     7
  5
36A
 10
277.520284
 20
322.554932
 30
0.0
 11
277.920284
 21
322.954932
 31
0.0
  0
LINE
  8
0
  6
CONTINUOUS
 62
     7
  5
36B
 10
366.070284
 20
321.054932
 30
0.0
 11
366.420284
 21
321.404932
 31
0.0
  0
LINE
  8
0
  6
CONTINUOUS
 62
     7
  5
36C
 10
366.420284
 20
324.704932
 30
0.0
 11
366.070284
 21
325.054932
 31
0.0
  0
LINE
  8
0
  6
CONTINUOUS
 62
     7
  5
36D
 10
359.420284
 20
321.054932
 30
0.0
 11
366.070284
 21
321.054932
 31
0.0
  0
LINE
  8
0
  6
CONTINUOUS
 62
     7
  5
36E
 10
366.070284
 20
325.054932
 30
0.0
 11
359.420284
 21
325.054932
 31
0.0
  0
LINE
  8
0
  6
CONTINUOUS
 62
     7
  5
36F
 10
359.420284
 20
303.554932
 30
0.0
 11
366.070284
 21
303.554932
 31
0.0
  0
LINE
  8
0
  6
CONTINUOUS
 62
     7
  5
370
 10
366.070284
 20
307.554932
 30
0.0
 11
359.420284
 21
307.554932
 31
0.0
  0
LINE
  8
0
  6
CONTINUOUS
 62
     7
  5
371
 10
366.070284
 20
303.554932
 30
0.0
 11
366.420284
 21
303.904932
 31
0.0
  0
LINE
  8
0
  6
CONTINUOUS
 62
     7
  5
372
 10
366.420284
 20
307.204932
 30
0.0
 11
366.070284
 21
307.554932
 31
0.0
  0
LINE
  8
0
  6
CONTINUOUS
 62
     7
  5
373
 10
339.420284
 20
392.154932
 30
0.0
 11
339.420284
 21
392.554932
 31
0.0
  0
LINE
  8
0
  6
CONTINUOUS
 62
     7
  5
374
 10
329.420284
 20
392.554932
 30
0.0
 11
329.420284
 21
392.154932
 31
0.0
  0
LINE
  8
0
  6
CONTINUOUS
 62
     7
  5
375
 10
339.420284
 20
342.554932
 30
0.0
 11
339.420284
 21
342.954932
 31
0.0
  0
LINE
  8
0
  6
CONTINUOUS
 62
     7
  5
376
 10
329.420284
 20
342.954932
 30
0.0
 11
329.420284
 21
342.554932
 31
0.0
  0
LINE
  8
0
  6
CONTINUOUS
 62
     7
  5
377
 10
316.420284
 20
392.154932
 30
0.0
 11
316.420284
 21
392.554932
 31
0.0
  0
LINE
  8
0
  6
CONTINUOUS
 62
     7
  5
378
 10
316.420284
 20
342.554932
 30
0.0
 11
316.420284
 21
342.954932
 31
0.0
  0
LINE
  8
0
  6
CONTINUOUS
 62
     7
  5
379
 10
67.096443
 20
392.554932
 30
0.0
 11
67.096443
 21
392.154932
 31
0.0
  0
LINE
  8
0
  6
CONTINUOUS
 62
     7
  5
37A
 10
67.096443
 20
342.954932
 30
0.0
 11
67.096443
 21
342.554932
 31
0.0
  0
LINE
  8
0
  6
CONTINUOUS
 62
     7
  5
37B
 10
77.096443
 20
392.154932
 30
0.0
 11
77.096443
 21
392.554932
 31
0.0
  0
LINE
  8
0
  6
CONTINUOUS
 62
     7
  5
37C
 10
77.096443
 20
342.554932
 30
0.0
 11
77.096443
 21
342.954932
 31
0.0
  0
LINE
  8
0
  6
CONTINUOUS
 62
     7
  5
37D
 10
47.397689
 20
392.154932
 30
0.0
 11
47.397689
 21
389.554932
 31
0.0
  0
LINE
  8
0
  6
CONTINUOUS
 62
     7
  5
37E
 10
47.397689
 20
389.554932
 30
0.0
 11
47.397689
 21
389.549932
 31
0.0
  0
LINE
  8
0
  6
CONTINUOUS
 62
     7
  5
37F
 10
47.397689
 20
345.559932
 30
0.0
 11
47.397689
 21
345.554932
 31
0.0
  0
LINE
  8
0
  6
CONTINUOUS
 62
     7
  5
380
 10
47.397689
 20
345.554932
 30
0.0
 11
47.397689
 21
342.954932
 31
0.0
  0
LINE
  8
0
  6
CONTINUOUS
 62
     7
  5
381
 10
47.397689
 20
389.554932
 30
0.0
 11
47.397689
 21
389.549932
 31
0.0
  0
LINE
  8
0
  6
CONTINUOUS
 62
     7
  5
382
 10
47.397689
 20
389.549932
 30
0.0
 11
47.397689
 21
386.554932
 31
0.0
  0
LINE
  8
0
  6
CONTINUOUS
 62
     7
  5
383
 10
47.397689
 20
348.554932
 30
0.0
 11
47.397689
 21
345.559932
 31
0.0
  0
LINE
  8
0
  6
CONTINUOUS
 62
     7
  5
384
 10
47.397689
 20
345.559932
 30
0.0
 11
47.397689
 21
345.554932
 31
0.0
  0
LINE
  8
0
  6
CONTINUOUS
 62
     7
  5
385
 10
54.897689
 20
392.554932
 30
0.0
 11
54.897689
 21
392.154932
 31
0.0
  0
LINE
  8
0
  6
CONTINUOUS
 62
     7
  5
386
 10
54.897689
 20
342.954932
 30
0.0
 11
54.897689
 21
342.554932
 31
0.0
  0
LINE
  8
0
  6
CONTINUOUS
 62
     7
  5
387
 10
103.045855
 20
392.154932
 30
0.0
 11
103.045855
 21
392.554932
 31
0.0
  0
LINE
  8
0
  6
CONTINUOUS
 62
     7
  5
388
 10
103.045855
 20
342.554932
 30
0.0
 11
103.045855
 21
342.954932
 31
0.0
  0
LINE
  8
0
  6
CONTINUOUS
 62
     7
  5
389
 10
92.920284
 20
392.554932
 30
0.0
 11
92.920284
 21
392.154932
 31
0.0
  0
LINE
  8
0
  6
CONTINUOUS
 62
     7
  5
38A
 10
92.920284
 20
342.954932
 30
0.0
 11
92.920284
 21
342.554932
 31
0.0
  0
LINE
  8
0
  6
CONTINUOUS
 62
     7
  5
38B
 10
102.920284
 20
392.154932
 30
0.0
 11
102.920284
 21
392.554932
 31
0.0
  0
LINE
  8
0
  6
CONTINUOUS
 62
     7
  5
38C
 10
102.920284
 20
342.554932
 30
0.0
 11
102.920284
 21
342.954932
 31
0.0
  0
LINE
  8
0
  6
CONTINUOUS
 62
     7
  5
38D
 10
59.596443
 20
392.554932
 30
0.0
 11
59.596443
 21
389.554932
 31
0.0
  0
LINE
  8
0
  6
CONTINUOUS
 62
     7
  5
38E
 10
59.596443
 20
345.554932
 30
0.0
 11
59.596443
 21
342.554932
 31
0.0
  0
LINE
  8
0
  6
CONTINUOUS
 62
     7
  5
38F
 10
85.420284
 20
392.554932
 30
0.0
 11
85.420284
 21
392.154932
 31
0.0
  0
LINE
  8
0
  6
CONTINUOUS
 62
     7
  5
390
 10
85.420284
 20
342.954932
 30
0.0
 11
85.420284
 21
342.554932
 31
0.0
  0
LINE
  8
0
  6
CONTINUOUS
 62
     7
  5
391
 10
115.920284
 20
392.554932
 30
0.0
 11
115.920284
 21
392.154932
 31
0.0
  0
LINE
  8
0
  6
CONTINUOUS
 62
     7
  5
392
 10
115.920284
 20
342.954932
 30
0.0
 11
115.920284
 21
342.554932
 31
0.0
  0
LINE
  8
0
  6
CONTINUOUS
 62
     7
  5
393
 10
146.420284
 20
392.554932
 30
0.0
 11
146.420284
 21
392.154932
 31
0.0
  0
LINE
  8
0
  6
CONTINUOUS
 62
     7
  5
394
 10
146.420284
 20
342.954932
 30
0.0
 11
146.420284
 21
342.554932
 31
0.0
  0
LINE
  8
0
  6
CONTINUOUS
 62
     7
  5
395
 10
176.920284
 20
392.554932
 30
0.0
 11
176.920284
 21
392.154932
 31
0.0
  0
LINE
  8
0
  6
CONTINUOUS
 62
     7
  5
396
 10
207.420284
 20
392.554932
 30
0.0
 11
207.420284
 21
392.154932
 31
0.0
  0
ENDBLK
  8
0
  5
397
  0
BLOCK
  8
0
  5
39A
  2
AID1765
 70
     0
 10
0.0
 20
0.0
 30
0.0
  3
#auxiliary draft view
  0
LINE
  8
0
  6
CONTINUOUS
 62
     7
  5
39B
 10
-118.27917
 20
104.205455
 30
0.0
 11
-112.27917
 21
104.205455
 31
0.0
  0
LINE
  8
0
  6
CONTINUOUS
 62
     7
  5
39C
 10
-118.27917
 20
108.205455
 30
0.0
 11
-112.27917
 21
108.205455
 31
0.0
  0
LINE
  8
0
  6
CONTINUOUS
 62
     7
  5
39D
 10
-112.27917
 20
104.205455
 30
0.0
 11
-112.27917
 21
108.205455
 31
0.0
  0
LINE
  8
0
  6
CONTINUOUS
 62
     7
  5
39E
 10
-118.27917
 20
108.205455
 30
0.0
 11
-118.27917
 21
104.205455
 31
0.0
  0
LINE
  8
0
  6
CONTINUOUS
 62
     7
  5
39F
 10
-102.27917
 20
104.205455
 30
0.0
 11
-96.27917
 21
104.205455
 31
0.0
  0
LINE
  8
0
  6
CONTINUOUS
 62
     7
  5
3A0
 10
-102.27917
 20
108.205455
 30
0.0
 11
-96.27917
 21
108.205455
 31
0.0
  0
LINE
  8
0
  6
CONTINUOUS
 62
     7
  5
3A1
 10
-96.27917
 20
104.205455
 30
0.0
 11
-96.27917
 21
108.205455
 31
0.0
  0
LINE
  8
0
  6
CONTINUOUS
 62
     7
  5
3A2
 10
-102.27917
 20
108.205455
 30
0.0
 11
-102.27917
 21
104.205455
 31
0.0
  0
LINE
  8
0
  6
CONTINUOUS
 62
     7
  5
3A3
 10
-126.27917
 20
104.205455
 30
0.0
 11
-120.27917
 21
104.205455
 31
0.0
  0
LINE
  8
0
  6
CONTINUOUS
 62
     7
  5
3A4
 10
-126.27917
 20
108.205455
 30
0.0
 11
-126.27917
 21
104.205455
 31
0.0
  0
LINE
  8
0
  6
CONTINUOUS
 62
     7
  5
3A5
 10
-126.27917
 20
108.205455
 30
0.0
 11
-120.27917
 21
108.205455
 31
0.0
  0
LINE
  8
0
  6
CONTINUOUS
 62
     7
  5
3A6
 10
-120.27917
 20
104.205455
 30
0.0
 11
-120.27917
 21
108.205455
 31
0.0
  0
LINE
  8
0
  6
CONTINUOUS
 62
     7
  5
3A7
 10
-110.27917
 20
104.205455
 30
0.0
 11
-104.27917
 21
104.205455
 31
0.0
  0
LINE
  8
0
  6
CONTINUOUS
 62
     7
  5
3A8
 10
-110.27917
 20
108.205455
 30
0.0
 11
-104.27917
 21
108.205455
 31
0.0
  0
LINE
  8
0
  6
CONTINUOUS
 62
     7
  5
3A9
 10
-104.27917
 20
104.205455
 30
0.0
 11
-104.27917
 21
108.205455
 31
0.0
  0
LINE
  8
0
  6
CONTINUOUS
 62
     7
  5
3AA
 10
-110.27917
 20
108.205455
 30
0.0
 11
-110.27917
 21
104.205455
 31
0.0
  0
LINE
  8
0
  6
CONTINUOUS
 62
     7
  5
3AB
 10
-118.27917
 20
104.205455
 30
0.0
 11
-120.27917
 21
104.205455
 31
0.0
  0
LINE
  8
0
  6
CONTINUOUS
 62
     7
  5
3AC
 10
-120.27917
 20
108.205455
 30
0.0
 11
-118.27917
 21
108.205455
 31
0.0
  0
LINE
  8
0
  6
CONTINUOUS
 62
     7
  5
3AD
 10
-102.27917
 20
104.205455
 30
0.0
 11
-104.27917
 21
104.205455
 31
0.0
  0
LINE
  8
0
  6
CONTINUOUS
 62
     7
  5
3AE
 10
-104.27917
 20
108.205455
 30
0.0
 11
-102.27917
 21
108.205455
 31
0.0
  0
LINE
  8
0
  6
CONTINUOUS
 62
     7
  5
3AF
 10
-110.27917
 20
104.205455
 30
0.0
 11
-112.27917
 21
104.205455
 31
0.0
  0
LINE
  8
0
  6
CONTINUOUS
 62
     7
  5
3B0
 10
-112.27917
 20
108.205455
 30
0.0
 11
-110.27917
 21
108.205455
 31
0.0
  0
LINE
  8
0
  6
CONTINUOUS
 62
     7
  5
3B1
 10
-78.27917
 20
102.205455
 30
0.0
 11
-78.27917
 21
120.205455
 31
0.0
  0
LINE
  8
0
  6
CONTINUOUS
 62
     7
  5
3B2
 10
-78.27917
 20
120.205455
 30
0.0
 11
-76.27917
 21
120.205455
 31
0.0
  0
LINE
  8
0
  6
CONTINUOUS
 62
     7
  5
3B3
 10
-76.27917
 20
120.205455
 30
0.0
 11
-76.27917
 21
100.205455
 31
0.0
  0
LINE
  8
0
  6
CONTINUOUS
 62
     7
  5
3B4
 10
-76.27917
 20
100.205455
 30
0.0
 11
-126.27917
 21
100.205455
 31
0.0
  0
LINE
  8
0
  6
CONTINUOUS
 62
     7
  5
3B5
 10
-96.27917
 20
102.205455
 30
0.0
 11
-78.27917
 21
102.205455
 31
0.0
  0
LINE
  8
0
  6
CONTINUOUS
 62
     7
  5
3B6
 10
-96.27917
 20
102.205455
 30
0.0
 11
-96.27917
 21
104.205455
 31
0.0
  0
LINE
  8
0
  6
CONTINUOUS
 62
     7
  5
3B7
 10
-126.27917
 20
100.205455
 30
0.0
 11
-126.27917
 21
104.205455
 31
0.0
  0
LINE
  8
0
  6
CONTINUOUS
 62
     7
  5
3B8
 10
-130.27917
 20
105.205455
 30
0.0
 11
-126.27917
 21
105.205455
 31
0.0
  0
LINE
  8
0
  6
CONTINUOUS
 62
     7
  5
3B9
 10
-136.27917
 20
102.205455
 30
0.0
 11
-136.27917
 21
112.205455
 31
0.0
  0
LINE
  8
0
  6
CONTINUOUS
 62
     7
  5
3BA
 10
-136.27917
 20
112.205455
 30
0.0
 11
-130.27917
 21
112.205455
 31
0.0
  0
LINE
  8
0
  6
CONTINUOUS
 62
     7
  5
3BB
 10
-130.27917
 20
105.205455
 30
0.0
 11
-130.27917
 21
112.205455
 31
0.0
  0
LINE
  8
0
  6
CONTINUOUS
 62
     7
  5
3BC
 10
-136.27917
 20
102.205455
 30
0.0
 11
-126.27917
 21
102.205455
 31
0.0
  0
LINE
  8
0
  6
CONTINUOUS
 62
     7
  5
3BD
 10
-130.27917
 20
112.205455
 30
0.0
 11
-130.27917
 21
116.694154
 31
0.0
  0
LINE
  8
0
  6
CONTINUOUS
 62
     7
  5
3BE
 10
-136.27917
 20
112.205455
 30
0.0
 11
-136.27917
 21
116.730921
 31
0.0
  0
LINE
  8
0
  6
CONTINUOUS
 62
     7
  5
3BF
 10
-133.27917
 20
116.730921
 30
0.0
 11
-136.27917
 21
116.730921
 31
0.0
  0
LINE
  8
0
  6
CONTINUOUS
 62
     7
  5
3C0
 10
-133.27917
 20
116.694154
 30
0.0
 11
-133.27917
 21
116.730921
 31
0.0
  0
LINE
  8
0
  6
CONTINUOUS
 62
     7
  5
3C1
 10
-130.27917
 20
116.694154
 30
0.0
 11
-133.27917
 21
116.694154
 31
0.0
  0
LINE
  8
0
  6
CONTINUOUS
 62
     7
  5
3C2
 10
-92.27917
 20
112.205455
 30
0.0
 11
-86.27917
 21
112.205455
 31
0.0
  0
LINE
  8
0
  6
CONTINUOUS
 62
     7
  5
3C3
 10
-86.27917
 20
102.205455
 30
0.0
 11
-86.27917
 21
112.205455
 31
0.0
  0
LINE
  8
0
  6
CONTINUOUS
 62
     7
  5
3C4
 10
-92.27917
 20
112.205455
 30
0.0
 11
-92.27917
 21
105.205455
 31
0.0
  0
LINE
  8
0
  6
CONTINUOUS
 62
     7
  5
3C5
 10
-96.27917
 20
105.205455
 30
0.0
 11
-92.27917
 21
105.205455
 31
0.0
  0
LINE
  8
0
  6
CONTINUOUS
 62
     7
  5
3C6
 10
-86.27917
 20
116.730921
 30
0.0
 11
-89.27917
 21
116.730921
 31
0.0
  0
LINE
  8
0
  6
CONTINUOUS
 62
     7
  5
3C7
 10
-92.27917
 20
116.694154
 30
0.0
 11
-92.27917
 21
112.205455
 31
0.0
  0
LINE
  8
0
  6
CONTINUOUS
 62
     7
  5
3C8
 10
-89.27917
 20
116.694154
 30
0.0
 11
-92.27917
 21
116.694154
 31
0.0
  0
LINE
  8
0
  6
CONTINUOUS
 62
     7
  5
3C9
 10
-89.27917
 20
116.730921
 30
0.0
 11
-89.27917
 21
116.694154
 31
0.0
  0
LINE
  8
0
  6
CONTINUOUS
 62
     7
  5
3CA
 10
-86.27917
 20
112.205455
 30
0.0
 11
-86.27917
 21
116.730921
 31
0.0
  0
LINE
  8
0
  6
CONTINUOUS
 62
     7
  5
3CB
 10
-81.77917
 20
108.396054
 30
0.0
 11
-78.27917
 21
108.396054
 31
0.0
  0
LINE
  8
0
  6
CONTINUOUS
 62
     7
  5
3CC
 10
-81.77917
 20
108.396054
 30
0.0
 11
-81.77917
 21
113.014857
 31
0.0
  0
LINE
  8
0
  6
CONTINUOUS
 62
     7
  5
3CD
 10
-81.77917
 20
113.014857
 30
0.0
 11
-78.27917
 21
113.014857
 31
0.0
  0
LINE
  8
0
  6
CONTINUOUS
 62
     7
  5
3CE
 10
-81.77917
 20
115.324258
 30
0.0
 11
-78.27917
 21
115.324258
 31
0.0
  0
LINE
  8
0
  6
CONTINUOUS
 62
     7
  5
3CF
 10
-81.77917
 20
113.014857
 30
0.0
 11
-81.77917
 21
115.324258
 31
0.0
  0
LINE
  8
0
  6
CONTINUOUS
 62
     7
  5
3D0
 10
-81.77917
 20
106.086653
 30
0.0
 11
-78.27917
 21
106.086653
 31
0.0
  0
LINE
  8
0
  6
CONTINUOUS
 62
     7
  5
3D1
 10
-81.77917
 20
106.086653
 30
0.0
 11
-81.77917
 21
108.396054
 31
0.0
  0
LINE
  8
0
  6
CONTINUOUS
 62
     7
  5
3D2
 10
-66.67917
 20
108.205455
 30
0.0
 11
-66.67917
 21
113.205455
 31
0.0
  0
LINE
  8
0
  6
CONTINUOUS
 62
     7
  5
3D3
 10
-66.27917
 20
112.805455
 30
0.0
 11
-66.27917
 21
108.605455
 31
0.0
  0
LINE
  8
0
  6
CONTINUOUS
 62
     7
  5
3D4
 10
-133.27917
 20
116.730921
 30
0.0
 11
-133.27917
 21
127.205455
 31
0.0
  0
LINE
  8
0
  6
CONTINUOUS
 62
     7
  5
3D5
 10
-136.27917
 20
116.730921
 30
0.0
 11
-136.27917
 21
127.205455
 31
0.0
  0
LINE
  8
0
  6
CONTINUOUS
 62
     7
  5
3D6
 10
-86.27917
 20
127.205455
 30
0.0
 11
-86.27917
 21
116.730921
 31
0.0
  0
LINE
  8
0
  6
CONTINUOUS
 62
     7
  5
3D7
 10
-89.27917
 20
127.205455
 30
0.0
 11
-89.27917
 21
116.730921
 31
0.0
  0
LINE
  8
0
  6
CONTINUOUS
 62
     7
  5
3D8
 10
-102.27917
 20
200.205455
 30
0.0
 11
-96.27917
 21
200.205455
 31
0.0
  0
LINE
  8
0
  6
CONTINUOUS
 62
     7
  5
3D9
 10
-102.27917
 20
204.205455
 30
0.0
 11
-102.27917
 21
200.205455
 31
0.0
  0
LINE
  8
0
  6
CONTINUOUS
 62
     7
  5
3DA
 10
-96.27917
 20
200.205455
 30
0.0
 11
-96.27917
 21
204.205455
 31
0.0
  0
LINE
  8
0
  6
CONTINUOUS
 62
     7
  5
3DB
 10
-102.27917
 20
204.205455
 30
0.0
 11
-96.27917
 21
204.205455
 31
0.0
  0
LINE
  8
0
  6
CONTINUOUS
 62
     7
  5
3DC
 10
-126.27917
 20
200.205455
 30
0.0
 11
-120.27917
 21
200.205455
 31
0.0
  0
LINE
  8
0
  6
CONTINUOUS
 62
     7
  5
3DD
 10
-120.27917
 20
200.205455
 30
0.0
 11
-120.27917
 21
204.205455
 31
0.0
  0
LINE
  8
0
  6
CONTINUOUS
 62
     7
  5
3DE
 10
-126.27917
 20
204.205455
 30
0.0
 11
-126.27917
 21
200.205455
 31
0.0
  0
LINE
  8
0
  6
CONTINUOUS
 62
     7
  5
3DF
 10
-126.27917
 20
204.205455
 30
0.0
 11
-120.27917
 21
204.205455
 31
0.0
  0
LINE
  8
0
  6
CONTINUOUS
 62
     7
  5
3E0
 10
-118.27917
 20
204.205455
 30
0.0
 11
-118.27917
 21
200.205455
 31
0.0
  0
LINE
  8
0
  6
CONTINUOUS
 62
     7
  5
3E1
 10
-112.27917
 20
200.205455
 30
0.0
 11
-112.27917
 21
204.205455
 31
0.0
  0
LINE
  8
0
  6
CONTINUOUS
 62
     7
  5
3E2
 10
-118.27917
 20
200.205455
 30
0.0
 11
-112.27917
 21
200.205455
 31
0.0
  0
LINE
  8
0
  6
CONTINUOUS
 62
     7
  5
3E3
 10
-118.27917
 20
204.205455
 30
0.0
 11
-112.27917
 21
204.205455
 31
0.0
  0
LINE
  8
0
  6
CONTINUOUS
 62
     7
  5
3E4
 10
-110.27917
 20
200.205455
 30
0.0
 11
-104.27917
 21
200.205455
 31
0.0
  0
LINE
  8
0
  6
CONTINUOUS
 62
     7
  5
3E5
 10
-104.27917
 20
200.205455
 30
0.0
 11
-104.27917
 21
204.205455
 31
0.0
  0
LINE
  8
0
  6
CONTINUOUS
 62
     7
  5
3E6
 10
-110.27917
 20
204.205455
 30
0.0
 11
-110.27917
 21
200.205455
 31
0.0
  0
LINE
  8
0
  6
CONTINUOUS
 62
     7
  5
3E7
 10
-110.27917
 20
204.205455
 30
0.0
 11
-104.27917
 21
204.205455
 31
0.0
  0
LINE
  8
0
  6
CONTINUOUS
 62
     7
  5
3E8
 10
-118.27917
 20
200.205455
 30
0.0
 11
-120.27917
 21
200.205455
 31
0.0
  0
LINE
  8
0
  6
CONTINUOUS
 62
     7
  5
3E9
 10
-120.27917
 20
204.205455
 30
0.0
 11
-118.27917
 21
204.205455
 31
0.0
  0
LINE
  8
0
  6
CONTINUOUS
 62
     7
  5
3EA
 10
-110.27917
 20
200.205455
 30
0.0
 11
-112.27917
 21
200.205455
 31
0.0
  0
LINE
  8
0
  6
CONTINUOUS
 62
     7
  5
3EB
 10
-112.27917
 20
204.205455
 30
0.0
 11
-110.27917
 21
204.205455
 31
0.0
  0
LINE
  8
0
  6
CONTINUOUS
 62
     7
  5
3EC
 10
-102.27917
 20
200.205455
 30
0.0
 11
-104.27917
 21
200.205455
 31
0.0
  0
LINE
  8
0
  6
CONTINUOUS
 62
     7
  5
3ED
 10
-104.27917
 20
204.205455
 30
0.0
 11
-102.27917
 21
204.205455
 31
0.0
  0
LINE
  8
0
  6
CONTINUOUS
 62
     7
  5
3EE
 10
-126.27917
 20
198.205455
 30
0.0
 11
-136.27917
 21
198.205455
 31
0.0
  0
LINE
  8
0
  6
CONTINUOUS
 62
     7
  5
3EF
 10
-44.77917
 20
198.205455
 30
0.0
 11
-96.27917
 21
198.205455
 31
0.0
  0
LINE
  8
0
  6
CONTINUOUS
 62
     7
  5
3F0
 10
-44.77917
 20
198.205455
 30
0.0
 11
-44.77917
 21
195.205455
 31
0.0
  0
LINE
  8
0
  6
CONTINUOUS
 62
     7
  5
3F1
 10
-44.77917
 20
195.205455
 30
0.0
 11
-136.27917
 21
195.205455
 31
0.0
  0
LINE
  8
0
  6
CONTINUOUS
 62
     7
  5
3F2
 10
-136.27917
 20
198.205455
 30
0.0
 11
-136.27917
 21
195.205455
 31
0.0
  0
LINE
  8
0
  6
CONTINUOUS
 62
     7
  5
3F3
 10
-96.27917
 20
198.205455
 30
0.0
 11
-96.27917
 21
200.205455
 31
0.0
  0
LINE
  8
0
  6
CONTINUOUS
 62
     7
  5
3F4
 10
-126.27917
 20
200.205455
 30
0.0
 11
-126.27917
 21
198.205455
 31
0.0
  0
LINE
  8
0
  6
CONTINUOUS
 62
     7
  5
3F5
 10
-130.27917
 20
201.205455
 30
0.0
 11
-126.27917
 21
201.205455
 31
0.0
  0
LINE
  8
0
  6
CONTINUOUS
 62
     7
  5
3F6
 10
-136.27917
 20
208.205455
 30
0.0
 11
-130.27917
 21
208.205455
 31
0.0
  0
LINE
  8
0
  6
CONTINUOUS
 62
     7
  5
3F7
 10
-130.27917
 20
201.205455
 30
0.0
 11
-130.27917
 21
208.205455
 31
0.0
  0
LINE
  8
0
  6
CONTINUOUS
 62
     7
  5
3F8
 10
-136.27917
 20
198.205455
 30
0.0
 11
-136.27917
 21
208.205455
 31
0.0
  0
LINE
  8
0
  6
CONTINUOUS
 62
     7
  5
3F9
 10
-130.27917
 20
212.730921
 30
0.0
 11
-133.27417
 21
212.730921
 31
0.0
  0
LINE
  8
0
  6
CONTINUOUS
 62
     7
  5
3FA
 10
-133.27417
 20
212.730921
 30
0.0
 11
-133.27917
 21
212.730921
 31
0.0
  0
LINE
  8
0
  6
CONTINUOUS
 62
     7
  5
3FB
 10
-133.27917
 20
212.694154
 30
0.0
 11
-136.27917
 21
212.694154
 31
0.0
  0
LINE
  8
0
  6
CONTINUOUS
 62
     7
  5
3FC
 10
-133.27917
 20
212.730921
 30
0.0
 11
-133.27917
 21
212.694154
 31
0.0
  0
LINE
  8
0
  6
CONTINUOUS
 62
     7
  5
3FD
 10
-130.27917
 20
208.205455
 30
0.0
 11
-130.27917
 21
212.730921
 31
0.0
  0
LINE
  8
0
  6
CONTINUOUS
 62
     7
  5
3FE
 10
-136.27917
 20
208.205455
 30
0.0
 11
-136.27917
 21
212.694154
 31
0.0
  0
LINE
  8
0
  6
CONTINUOUS
 62
     7
  5
3FF
 10
-92.27917
 20
208.205455
 30
0.0
 11
-86.27917
 21
208.205455
 31
0.0
  0
LINE
  8
0
  6
CONTINUOUS
 62
     7
  5
400
 10
-86.27917
 20
198.205455
 30
0.0
 11
-86.27917
 21
208.205455
 31
0.0
  0
LINE
  8
0
  6
CONTINUOUS
 62
     7
  5
401
 10
-96.27917
 20
201.205455
 30
0.0
 11
-92.27917
 21
201.205455
 31
0.0
  0
LINE
  8
0
  6
CONTINUOUS
 62
     7
  5
402
 10
-92.27917
 20
208.205455
 30
0.0
 11
-92.27917
 21
201.205455
 31
0.0
  0
LINE
  8
0
  6
CONTINUOUS
 62
     7
  5
403
 10
-86.27917
 20
212.694154
 30
0.0
 11
-89.27917
 21
212.694154
 31
0.0
  0
LINE
  8
0
  6
CONTINUOUS
 62
     7
  5
404
 10
-86.27917
 20
208.205455
 30
0.0
 11
-86.27917
 21
212.694154
 31
0.0
  0
LINE
  8
0
  6
CONTINUOUS
 62
     7
  5
405
 10
-89.27917
 20
212.730921
 30
0.0
 11
-89.28417
 21
212.730921
 31
0.0
  0
LINE
  8
0
  6
CONTINUOUS
 62
     7
  5
406
 10
-89.28417
 20
212.730921
 30
0.0
 11
-92.27917
 21
212.730921
 31
0.0
  0
LINE
  8
0
  6
CONTINUOUS
 62
     7
  5
407
 10
-89.27917
 20
212.694154
 30
0.0
 11
-89.27917
 21
212.730921
 31
0.0
  0
LINE
  8
0
  6
CONTINUOUS
 62
     7
  5
408
 10
-92.27917
 20
212.730921
 30
0.0
 11
-92.27917
 21
208.205455
 31
0.0
  0
CIRCLE
  8
0
  6
CONTINUOUS
 62
     7
  5
409
 10
-49.27917
 20
190.705455
 30
0.0
 40
1.65
210
0.0
220
0.0
230
1.0
  0
CIRCLE
  8
0
  6
CONTINUOUS
 62
     7
  5
40A
 10
-49.27917
 20
190.705455
 30
0.0
 40
2.0
210
0.0
220
0.0
230
1.0
  0
CIRCLE
  8
0
  6
CONTINUOUS
 62
     7
  5
40B
 10
-66.77917
 20
186.705455
 30
0.0
 40
1.65
210
0.0
220
0.0
230
1.0
  0
CIRCLE
  8
0
  6
CONTINUOUS
 62
     7
  5
40C
 10
-66.77917
 20
186.705455
 30
0.0
 40
2.0
210
0.0
220
0.0
230
1.0
  0
CIRCLE
  8
0
  6
CONTINUOUS
 62
     7
  5
40D
 10
-66.77917
 20
186.705455
 30
0.0
 40
2.1
210
0.0
220
0.0
230
1.0
  0
LINE
  8
0
  6
CONTINUOUS
 62
     7
  5
40E
 10
-44.77917
 20
183.205455
 30
0.0
 11
-131.27917
 21
183.205455
 31
0.0
  0
LINE
  8
0
  6
CONTINUOUS
 62
     7
  5
40F
 10
-136.27917
 20
188.205455
 30
0.0
 11
-131.27917
 21
183.205455
 31
0.0
  0
CIRCLE
  8
0
  6
CONTINUOUS
 62
     7
  5
410
 10
-49.27917
 20
190.705455
 30
0.0
 40
2.1
210
0.0
220
0.0
230
1.0
  0
LINE
  8
0
  6
CONTINUOUS
 62
     7
  5
411
 10
-136.27917
 20
195.205455
 30
0.0
 11
-136.27917
 21
188.205455
 31
0.0
  0
LINE
  8
0
  6
CONTINUOUS
 62
     7
  5
412
 10
-44.77917
 20
195.205455
 30
0.0
 11
-44.77917
 21
183.205455
 31
0.0
  0
LINE
  8
0
  6
CONTINUOUS
 62
     7
  5
413
 10
-65.841348
 20
183.205455
 30
0.0
 11
-66.77917
 21
182.664004
 31
0.0
  0
LINE
  8
0
  6
CONTINUOUS
 62
     7
  5
414
 10
-66.77917
 20
182.664004
 30
0.0
 11
-67.716992
 21
183.205455
 31
0.0
  0
LINE
  8
0
  6
CONTINUOUS
 62
     7
  5
415
 10
-92.27917
 20
223.205455
 30
0.0
 11
-92.27917
 21
212.730921
 31
0.0
  0
LINE
  8
0
  6
CONTINUOUS
 62
     7
  5
416
 10
-89.27917
 20
212.730921
 30
0.0
 11
-89.27917
 21
222.695838
 31
0.0
  0
LINE
  8
0
  6
CONTINUOUS
 62
     7
  5
417
 10
-89.27917
 20
222.695838
 30
0.0
 11
-89.27917
 21
223.205455
 31
0.0
  0
LINE
  8
0
  6
CONTINUOUS
 62
     7
  5
418
 10
-133.27917
 20
223.205455
 30
0.0
 11
-133.27917
 21
222.695838
 31
0.0
  0
LINE
  8
0
  6
CONTINUOUS
 62
     7
  5
419
 10
-133.27917
 20
222.695838
 30
0.0
 11
-133.27917
 21
212.730921
 31
0.0
  0
LINE
  8
0
  6
CONTINUOUS
 62
     7
  5
41A
 10
-130.27917
 20
212.730921
 30
0.0
 11
-130.27917
 21
223.205455
 31
0.0
  0
LINE
  8
0
  6
CONTINUOUS
 62
     7
  5
41B
 10
-86.27917
 20
221.671312
 30
0.0
 11
-86.27917
 21
212.694154
 31
0.0
  0
LINE
  8
0
  6
CONTINUOUS
 62
     7
  5
41C
 10
-89.27917
 20
222.690759
 30
0.0
 11
-89.28417
 21
222.690759
 31
0.0
  0
LINE
  8
0
  6
CONTINUOUS
 62
     7
  5
41D
 10
-89.27917
 20
223.205455
 30
0.0
 11
-89.27917
 21
222.690759
 31
0.0
  0
LINE
  8
0
  6
CONTINUOUS
 62
     7
  5
41E
 10
-86.67917
 20
223.205455
 30
0.0
 11
-89.27917
 21
223.205455
 31
0.0
  0
LINE
  8
0
  6
CONTINUOUS
 62
     7
  5
41F
 10
-86.67917
 20
221.671312
 30
0.0
 11
-86.67917
 21
223.205455
 31
0.0
  0
LINE
  8
0
  6
CONTINUOUS
 62
     7
  5
420
 10
-86.27917
 20
221.671312
 30
0.0
 11
-86.67917
 21
221.671312
 31
0.0
  0
LINE
  8
0
  6
CONTINUOUS
 62
     7
  5
421
 10
-136.27917
 20
221.671312
 30
0.0
 11
-136.27917
 21
212.694154
 31
0.0
  0
LINE
  8
0
  6
CONTINUOUS
 62
     7
  5
422
 10
-135.87917
 20
221.671312
 30
0.0
 11
-136.27917
 21
221.671312
 31
0.0
  0
LINE
  8
0
  6
CONTINUOUS
 62
     7
  5
423
 10
-135.87917
 20
223.205455
 30
0.0
 11
-135.87917
 21
221.671312
 31
0.0
  0
LINE
  8
0
  6
CONTINUOUS
 62
     7
  5
424
 10
-133.27917
 20
223.205455
 30
0.0
 11
-135.87917
 21
223.205455
 31
0.0
  0
LINE
  8
0
  6
CONTINUOUS
 62
     7
  5
425
 10
-133.27917
 20
222.690759
 30
0.0
 11
-133.27917
 21
223.205455
 31
0.0
  0
LINE
  8
0
  6
CONTINUOUS
 62
     7
  5
426
 10
-133.27417
 20
222.690759
 30
0.0
 11
-133.27917
 21
222.690759
 31
0.0
  0
LINE
  8
0
  6
CONTINUOUS
 62
     7
  5
427
 10
-133.27917
 20
223.505455
 30
0.0
 11
-135.87917
 21
223.505455
 31
0.0
  0
LINE
  8
0
  6
CONTINUOUS
 62
     7
  5
428
 10
-133.27917
 20
223.205455
 30
0.0
 11
-133.27917
 21
223.505455
 31
0.0
  0
LINE
  8
0
  6
CONTINUOUS
 62
     7
  5
429
 10
-135.87917
 20
223.505455
 30
0.0
 11
-135.87917
 21
223.205455
 31
0.0
  0
LINE
  8
0
  6
CONTINUOUS
 62
     7
  5
42A
 10
-86.67917
 20
223.505455
 30
0.0
 11
-89.27917
 21
223.505455
 31
0.0
  0
LINE
  8
0
  6
CONTINUOUS
 62
     7
  5
42B
 10
-89.27917
 20
223.505455
 30
0.0
 11
-89.27917
 21
223.205455
 31
0.0
  0
LINE
  8
0
  6
CONTINUOUS
 62
     7
  5
42C
 10
-86.67917
 20
223.205455
 30
0.0
 11
-86.67917
 21
223.505455
 31
0.0
  0
LINE
  8
0
  6
CONTINUOUS
 62
     7
  5
42D
 10
-92.27917
 20
223.205455
 30
0.0
 11
-92.27917
 21
223.505455
 31
0.0
  0
LINE
  8
0
  6
CONTINUOUS
 62
     7
  5
42E
 10
-92.27917
 20
223.505455
 30
0.0
 11
-89.27917
 21
223.505455
 31
0.0
  0
LINE
  8
0
  6
CONTINUOUS
 62
     7
  5
42F
 10
-130.27917
 20
220.047698
 30
0.0
 11
-92.27917
 21
220.047698
 31
0.0
  0
LINE
  8
0
  6
CONTINUOUS
 62
     7
  5
430
 10
-92.27917
 20
219.805455
 30
0.0
 11
-130.27917
 21
219.805455
 31
0.0
  0
LINE
  8
0
  6
CONTINUOUS
 62
     7
  5
431
 10
-130.27917
 20
223.505455
 30
0.0
 11
-130.27917
 21
223.205455
 31
0.0
  0
LINE
  8
0
  6
CONTINUOUS
 62
     7
  5
432
 10
-133.27917
 20
223.505455
 30
0.0
 11
-130.27917
 21
223.505455
 31
0.0
  0
LINE
  8
0
  6
CONTINUOUS
 62
     7
  5
433
 10
-130.27917
 20
223.205455
 30
0.0
 11
-92.27917
 21
223.205455
 31
0.0
  0
LINE
  8
0
  6
CONTINUOUS
 62
     7
  5
434
 10
-86.27917
 20
222.170058
 30
0.0
 11
-86.27917
 21
221.671312
 31
0.0
  0
LINE
  8
0
  6
CONTINUOUS
 62
     7
  5
435
 10
-86.27917
 20
222.170058
 30
0.0
 11
-86.67917
 21
222.170058
 31
0.0
  0
LINE
  8
0
  6
CONTINUOUS
 62
     7
  5
436
 10
-135.87917
 20
222.170058
 30
0.0
 11
-136.27917
 21
222.170058
 31
0.0
  0
LINE
  8
0
  6
CONTINUOUS
 62
     7
  5
437
 10
-136.27917
 20
222.170058
 30
0.0
 11
-136.27917
 21
221.671312
 31
0.0
  0
LINE
  8
0
  6
CONTINUOUS
 62
     7
  5
438
 10
-130.27917
 20
219.216057
 30
0.0
 11
-92.27917
 21
219.216057
 31
0.0
  0
LINE
  8
0
  6
CONTINUOUS
 62
     7
  5
439
 10
-92.27917
 20
218.951998
 30
0.0
 11
-130.27917
 21
218.951998
 31
0.0
  0
LINE
  8
0
  6
CONTINUOUS
 62
     7
  5
43A
 10
-130.27917
 20
217.796374
 30
0.0
 11
-92.27917
 21
217.796374
 31
0.0
  0
LINE
  8
0
  6
CONTINUOUS
 62
     7
  5
43B
 10
-133.27917
 20
164.008151
 30
0.0
 11
-135.87917
 21
164.008151
 31
0.0
  0
LINE
  8
0
  6
CONTINUOUS
 62
     7
  5
43C
 10
-133.27917
 20
156.355101
 30
0.0
 11
-133.27917
 21
160.077251
 31
0.0
  0
LINE
  8
0
  6
CONTINUOUS
 62
     7
  5
43D
 10
-130.27917
 20
156.355101
 30
0.0
 11
-133.27917
 21
156.355101
 31
0.0
  0
LINE
  8
0
  6
CONTINUOUS
 62
     7
  5
43E
 10
-135.87917
 20
143.706946
 30
0.0
 11
-133.27917
 21
143.706946
 31
0.0
  0
LINE
  8
0
  6
CONTINUOUS
 62
     7
  5
43F
 10
-135.87917
 20
164.008151
 30
0.0
 11
-135.87917
 21
143.706946
 31
0.0
  0
LINE
  8
0
  6
CONTINUOUS
 62
     7
  5
440
 10
-133.27917
 20
143.706946
 30
0.0
 11
-133.27917
 21
139.671657
 31
0.0
  0
LINE
  8
0
  6
CONTINUOUS
 62
     7
  5
441
 10
-130.27917
 20
137.328954
 30
0.0
 11
-130.27917
 21
156.355101
 31
0.0
  0
LINE
  8
0
  6
CONTINUOUS
 62
     7
  5
442
 10
-89.27917
 20
143.706946
 30
0.0
 11
-86.67917
 21
143.706946
 31
0.0
  0
LINE
  8
0
  6
CONTINUOUS
 62
     7
  5
443
 10
-89.27917
 20
156.355101
 30
0.0
 11
-92.27917
 21
156.355101
 31
0.0
  0
LINE
  8
0
  6
CONTINUOUS
 62
     7
  5
444
 10
-89.27917
 20
160.077251
 30
0.0
 11
-89.27917
 21
156.355101
 31
0.0
  0
LINE
  8
0
  6
CONTINUOUS
 62
     7
  5
445
 10
-86.67917
 20
164.008151
 30
0.0
 11
-89.27917
 21
164.008151
 31
0.0
  0
LINE
  8
0
  6
CONTINUOUS
 62
     7
  5
446
 10
-86.67917
 20
143.706946
 30
0.0
 11
-86.67917
 21
164.008151
 31
0.0
  0
LINE
  8
0
  6
CONTINUOUS
 62
     7
  5
447
 10
-89.27917
 20
139.671657
 30
0.0
 11
-89.27917
 21
143.706946
 31
0.0
  0
LINE
  8
0
  6
CONTINUOUS
 62
     7
  5
448
 10
-92.27917
 20
156.355101
 30
0.0
 11
-92.27917
 21
137.328954
 31
0.0
  0
LINE
  8
0
  6
CONTINUOUS
 62
     7
  5
449
 10
-89.27917
 20
142.467639
 30
0.0
 11
-86.67917
 21
142.467639
 31
0.0
  0
LINE
  8
0
  6
CONTINUOUS
 62
     7
  5
44A
 10
-86.67917
 20
142.467639
 30
0.0
 11
-86.67917
 21
143.706946
 31
0.0
  0
LINE
  8
0
  6
CONTINUOUS
 62
     7
  5
44B
 10
-133.27917
 20
142.467639
 30
0.0
 11
-135.87917
 21
142.467639
 31
0.0
  0
LINE
  8
0
  6
CONTINUOUS
 62
     7
  5
44C
 10
-135.87917
 20
143.706946
 30
0.0
 11
-135.87917
 21
142.467639
 31
0.0
  0
LINE
  8
0
  6
CONTINUOUS
 62
     7
  5
44D
 10
-111.27917
 20
146.23777
 30
0.0
 11
-111.27917
 21
151.736968
 31
0.0
  0
LINE
  8
0
  6
CONTINUOUS
 62
     7
  5
44E
 10
-115.27917
 20
147.161437
 30
0.0
 11
-111.27917
 21
146.23777
 31
0.0
  0
LINE
  8
0
  6
CONTINUOUS
 62
     7
  5
44F
 10
-115.27917
 20
147.161437
 30
0.0
 11
-115.27917
 21
152.660634
 31
0.0
  0
LINE
  8
0
  6
CONTINUOUS
 62
     7
  5
450
 10
-111.27917
 20
151.736968
 30
0.0
 11
-115.27917
 21
152.660634
 31
0.0
  0
LINE
  8
0
  6
CONTINUOUS
 62
     7
  5
451
 10
-110.27917
 20
152.660634
 30
0.0
 11
-92.27917
 21
152.660634
 31
0.0
  0
LINE
  8
0
  6
CONTINUOUS
 62
     7
  5
452
 10
-92.27917
 20
147.161437
 30
0.0
 11
-110.27917
 21
147.161437
 31
0.0
  0
LINE
  8
0
  6
CONTINUOUS
 62
     7
  5
453
 10
-110.27917
 20
152.660634
 30
0.0
 11
-110.27917
 21
147.161437
 31
0.0
  0
LINE
  8
0
  6
CONTINUOUS
 62
     7
  5
454
 10
-130.27917
 20
147.161437
 30
0.0
 11
-115.27917
 21
147.161437
 31
0.0
  0
LINE
  8
0
  6
CONTINUOUS
 62
     7
  5
455
 10
-115.27917
 20
152.660634
 30
0.0
 11
-130.27917
 21
152.660634
 31
0.0
  0
LINE
  8
0
  6
CONTINUOUS
 62
     7
  5
456
 10
-110.27917
 20
146.841469
 30
0.0
 11
-92.27917
 21
146.841469
 31
0.0
  0
LINE
  8
0
  6
CONTINUOUS
 62
     7
  5
457
 10
-110.27917
 20
147.161437
 30
0.0
 11
-110.27917
 21
146.841469
 31
0.0
  0
LINE
  8
0
  6
CONTINUOUS
 62
     7
  5
458
 10
-111.27917
 20
146.23777
 30
0.0
 11
-108.27917
 21
146.23777
 31
0.0
  0
LINE
  8
0
  6
CONTINUOUS
 62
     7
  5
459
 10
-108.27917
 20
146.23777
 30
0.0
 11
-108.27917
 21
145.917803
 31
0.0
  0
LINE
  8
0
  6
CONTINUOUS
 62
     7
  5
45A
 10
-108.27917
 20
145.917803
 30
0.0
 11
-111.493529
 21
145.917803
 31
0.0
  0
LINE
  8
0
  6
CONTINUOUS
 62
     7
  5
45B
 10
-111.493529
 20
145.917803
 30
0.0
 11
-115.493529
 21
146.841469
 31
0.0
  0
LINE
  8
0
  6
CONTINUOUS
 62
     7
  5
45C
 10
-115.493529
 20
146.841469
 30
0.0
 11
-130.27917
 21
146.841469
 31
0.0
  0
LINE
  8
0
  6
CONTINUOUS
 62
     7
  5
45D
 10
-136.27917
 20
127.205455
 30
0.0
 11
-136.27917
 21
135.934418
 31
0.0
  0
LINE
  8
0
  6
CONTINUOUS
 62
     7
  5
45E
 10
-86.27917
 20
135.934418
 30
0.0
 11
-86.27917
 21
127.205455
 31
0.0
  0
LINE
  8
0
  6
CONTINUOUS
 62
     7
  5
45F
 10
-108.27917
 20
146.23777
 30
0.0
 11
-108.27917
 21
146.841469
 31
0.0
  0
LINE
  8
0
  6
CONTINUOUS
 62
     7
  5
460
 10
-110.27917
 20
151.736968
 30
0.0
 11
-111.27917
 21
151.736968
 31
0.0
  0
LINE
  8
0
  6
CONTINUOUS
 62
     7
  5
461
 10
-136.27917
 20
171.388674
 30
0.0
 11
-136.27917
 21
168.773766
 31
0.0
  0
LINE
  8
0
  6
CONTINUOUS
 62
     7
  5
462
 10
-136.27917
 20
168.773766
 30
0.0
 11
-135.87917
 21
168.773766
 31
0.0
  0
LINE
  8
0
  6
CONTINUOUS
 62
     7
  5
463
 10
-86.27917
 20
171.388674
 30
0.0
 11
-86.27917
 21
168.773766
 31
0.0
  0
LINE
  8
0
  6
CONTINUOUS
 62
     7
  5
464
 10
-86.67917
 20
168.773766
 30
0.0
 11
-86.27917
 21
168.773766
 31
0.0
  0
LINE
  8
0
  6
CONTINUOUS
 62
     7
  5
465
 10
-136.27917
 20
163.888674
 30
0.0
 11
-136.27917
 21
168.773766
 31
0.0
  0
LINE
  8
0
  6
CONTINUOUS
 62
     7
  5
466
 10
-86.27917
 20
168.773766
 30
0.0
 11
-86.27917
 21
163.888674
 31
0.0
  0
LINE
  8
0
  6
CONTINUOUS
 62
     7
  5
467
 10
-130.27917
 20
135.314454
 30
0.0
 11
-92.27917
 21
135.314454
 31
0.0
  0
LINE
  8
0
  6
CONTINUOUS
 62
     7
  5
468
 10
-113.141063
 20
133.954593
 30
0.0
 11
-110.27917
 21
133.954593
 31
0.0
  0
LINE
  8
0
  6
CONTINUOUS
 62
     7
  5
469
 10
-130.27917
 20
177.446818
 30
0.0
 11
-133.27917
 21
177.446818
 31
0.0
  0
LINE
  8
0
  6
CONTINUOUS
 62
     7
  5
46A
 10
-130.27917
 20
156.355101
 30
0.0
 11
-130.27917
 21
177.446818
 31
0.0
  0
LINE
  8
0
  6
CONTINUOUS
 62
     7
  5
46B
 10
-133.27917
 20
164.026606
 30
0.0
 11
-133.27917
 21
160.077251
 31
0.0
  0
LINE
  8
0
  6
CONTINUOUS
 62
     7
  5
46C
 10
-135.87917
 20
164.026606
 30
0.0
 11
-133.27917
 21
164.026606
 31
0.0
  0
LINE
  8
0
  6
CONTINUOUS
 62
     7
  5
46D
 10
-133.27917
 20
177.446818
 30
0.0
 11
-133.27917
 21
181.396173
 31
0.0
  0
LINE
  8
0
  6
CONTINUOUS
 62
     7
  5
46E
 10
-135.87917
 20
183.978163
 30
0.0
 11
-135.87917
 21
164.026606
 31
0.0
  0
LINE
  8
0
  6
CONTINUOUS
 62
     7
  5
46F
 10
-89.27917
 20
164.026606
 30
0.0
 11
-86.67917
 21
164.026606
 31
0.0
  0
LINE
  8
0
  6
CONTINUOUS
 62
     7
  5
470
 10
-89.27917
 20
160.077251
 30
0.0
 11
-89.27917
 21
164.026606
 31
0.0
  0
LINE
  8
0
  6
CONTINUOUS
 62
     7
  5
471
 10
-92.27917
 20
177.446818
 30
0.0
 11
-92.27917
 21
156.355101
 31
0.0
  0
LINE
  8
0
  6
CONTINUOUS
 62
     7
  5
472
 10
-89.27917
 20
177.446818
 30
0.0
 11
-92.27917
 21
177.446818
 31
0.0
  0
LINE
  8
0
  6
CONTINUOUS
 62
     7
  5
473
 10
-89.27917
 20
181.396173
 30
0.0
 11
-89.27917
 21
177.446818
 31
0.0
  0
LINE
  8
0
  6
CONTINUOUS
 62
     7
  5
474
 10
-86.67917
 20
164.026606
 30
0.0
 11
-86.67917
 21
183.205455
 31
0.0
  0
LINE
  8
0
  6
CONTINUOUS
 62
     7
  5
475
 10
-92.27917
 20
177.446818
 30
0.0
 11
-92.27917
 21
178.168757
 31
0.0
  0
LINE
  8
0
  6
CONTINUOUS
 62
     7
  5
476
 10
-92.27917
 20
178.168757
 30
0.0
 11
-89.28417
 21
178.168757
 31
0.0
  0
LINE
  8
0
  6
CONTINUOUS
 62
     7
  5
477
 10
-89.28417
 20
178.168757
 30
0.0
 11
-89.28417
 21
178.669377
 31
0.0
  0
LINE
  8
0
  6
CONTINUOUS
 62
     7
  5
478
 10
-133.27417
 20
178.669377
 30
0.0
 11
-133.27417
 21
178.168757
 31
0.0
  0
LINE
  8
0
  6
CONTINUOUS
 62
     7
  5
479
 10
-133.27417
 20
178.168757
 30
0.0
 11
-130.27917
 21
178.168757
 31
0.0
  0
LINE
  8
0
  6
CONTINUOUS
 62
     7
  5
47A
 10
-130.27917
 20
178.168757
 30
0.0
 11
-130.27917
 21
177.446818
 31
0.0
  0
LINE
  8
0
  6
CONTINUOUS
 62
     7
  5
47B
 10
-130.27917
 20
173.910438
 30
0.0
 11
-115.493529
 21
173.910438
 31
0.0
  0
LINE
  8
0
  6
CONTINUOUS
 62
     7
  5
47C
 10
-115.493529
 20
173.910438
 30
0.0
 11
-111.493529
 21
174.448505
 31
0.0
  0
LINE
  8
0
  6
CONTINUOUS
 62
     7
  5
47D
 10
-111.493529
 20
174.448505
 30
0.0
 11
-108.27917
 21
174.448505
 31
0.0
  0
LINE
  8
0
  6
CONTINUOUS
 62
     7
  5
47E
 10
-108.27917
 20
174.448505
 30
0.0
 11
-108.27917
 21
174.262113
 31
0.0
  0
LINE
  8
0
  6
CONTINUOUS
 62
     7
  5
47F
 10
-108.27917
 20
174.262113
 30
0.0
 11
-111.27917
 21
174.262113
 31
0.0
  0
LINE
  8
0
  6
CONTINUOUS
 62
     7
  5
480
 10
-111.27917
 20
174.262113
 30
0.0
 11
-115.27917
 21
173.724047
 31
0.0
  0
LINE
  8
0
  6
CONTINUOUS
 62
     7
  5
481
 10
-115.27917
 20
173.724047
 30
0.0
 11
-130.27917
 21
173.724047
 31
0.0
  0
LINE
  8
0
  6
CONTINUOUS
 62
     7
  5
482
 10
-110.27917
 20
173.724047
 30
0.0
 11
-92.27917
 21
173.724047
 31
0.0
  0
LINE
  8
0
  6
CONTINUOUS
 62
     7
  5
483
 10
-92.27917
 20
167.889171
 30
0.0
 11
-110.27917
 21
167.889171
 31
0.0
  0
LINE
  8
0
  6
CONTINUOUS
 62
     7
  5
484
 10
-110.27917
 20
173.724047
 30
0.0
 11
-110.27917
 21
167.889171
 31
0.0
  0
LINE
  8
0
  6
CONTINUOUS
 62
     7
  5
485
 10
-115.27917
 20
167.889171
 30
0.0
 11
-115.27917
 21
173.724047
 31
0.0
  0
LINE
  8
0
  6
CONTINUOUS
 62
     7
  5
486
 10
-130.27917
 20
167.889171
 30
0.0
 11
-115.27917
 21
167.889171
 31
0.0
  0
LINE
  8
0
  6
CONTINUOUS
 62
     7
  5
487
 10
-111.27917
 20
168.427238
 30
0.0
 11
-111.27917
 21
174.262113
 31
0.0
  0
LINE
  8
0
  6
CONTINUOUS
 62
     7
  5
488
 10
-115.27917
 20
167.889171
 30
0.0
 11
-111.27917
 21
168.427238
 31
0.0
  0
LINE
  8
0
  6
CONTINUOUS
 62
     7
  5
489
 10
-92.27917
 20
173.910438
 30
0.0
 11
-110.27917
 21
173.910438
 31
0.0
  0
LINE
  8
0
  6
CONTINUOUS
 62
     7
  5
48A
 10
-110.27917
 20
173.910438
 30
0.0
 11
-110.27917
 21
173.724047
 31
0.0
  0
LINE
  8
0
  6
CONTINUOUS
 62
     7
  5
48B
 10
-108.27917
 20
173.910438
 30
0.0
 11
-108.27917
 21
174.262113
 31
0.0
  0
LINE
  8
0
  6
CONTINUOUS
 62
     7
  5
48C
 10
-111.27917
 20
168.427238
 30
0.0
 11
-110.27917
 21
168.427238
 31
0.0
  0
LINE
  8
0
  6
CONTINUOUS
 62
     9
  5
48D
 10
-86.67917
 20
163.75107
 30
0.0
 11
-86.27917
 21
163.75107
 31
0.0
  0
LINE
  8
0
  6
CONTINUOUS
 62
     7
  5
48E
 10
-86.27917
 20
163.75107
 30
0.0
 11
-86.27917
 21
153.888674
 31
0.0
  0
LINE
  8
0
  6
CONTINUOUS
 62
     7
  5
48F
 10
-136.27917
 20
153.888674
 30
0.0
 11
-136.27917
 21
163.75107
 31
0.0
  0
LINE
  8
0
  6
CONTINUOUS
 62
     9
  5
490
 10
-136.27917
 20
163.75107
 30
0.0
 11
-135.87917
 21
163.75107
 31
0.0
  0
LINE
  8
0
  6
CONTINUOUS
 62
     7
  5
491
 10
-130.27917
 20
182.216743
 30
0.0
 11
-92.27917
 21
182.216743
 31
0.0
  0
LINE
  8
0
  6
CONTINUOUS
 62
     7
  5
492
 10
-92.27917
 20
181.915563
 30
0.0
 11
-130.27917
 21
181.915563
 31
0.0
  0
LINE
  8
0
  6
CONTINUOUS
 62
     7
  5
493
 10
-86.27917
 20
163.888674
 30
0.0
 11
-86.27917
 21
163.75107
 31
0.0
  0
LINE
  8
0
  6
CONTINUOUS
 62
     7
  5
494
 10
-136.27917
 20
163.75107
 30
0.0
 11
-136.27917
 21
163.888674
 31
0.0
  0
LINE
  8
0
  6
CONTINUOUS
 62
     7
  5
495
 10
-130.27917
 20
182.952469
 30
0.0
 11
-92.27917
 21
182.952469
 31
0.0
  0
LINE
  8
0
  6
CONTINUOUS
 62
     7
  5
496
 10
-89.27917
 20
181.396173
 30
0.0
 11
-89.27917
 21
183.205455
 31
0.0
  0
LINE
  8
0
  6
CONTINUOUS
 62
     7
  5
497
 10
-89.27917
 20
178.669377
 30
0.0
 11
-92.27917
 21
178.669377
 31
0.0
  0
LINE
  8
0
  6
CONTINUOUS
 62
     7
  5
498
 10
-92.27917
 20
183.205455
 30
0.0
 11
-92.27917
 21
178.669377
 31
0.0
  0
LINE
  8
0
  6
CONTINUOUS
 62
     7
  5
499
 10
-130.27917
 20
178.669377
 30
0.0
 11
-130.27917
 21
183.205455
 31
0.0
  0
LINE
  8
0
  6
CONTINUOUS
 62
     7
  5
49A
 10
-130.27917
 20
178.669377
 30
0.0
 11
-133.27917
 21
178.669377
 31
0.0
  0
LINE
  8
0
  6
CONTINUOUS
 62
     7
  5
49B
 10
-133.27917
 20
183.978163
 30
0.0
 11
-133.27917
 21
181.396173
 31
0.0
  0
LINE
  8
0
  6
CONTINUOUS
 62
     7
  5
49C
 10
-135.87917
 20
183.978163
 30
0.0
 11
-133.27917
 21
183.978163
 31
0.0
  0
LINE
  8
0
  6
CONTINUOUS
 62
     7
  5
49D
 10
-135.87917
 20
187.805455
 30
0.0
 11
-135.87917
 21
183.978163
 31
0.0
  0
LINE
  8
0
  6
CONTINUOUS
 62
     7
  5
49E
 10
-130.27917
 20
209.588542
 30
0.0
 11
-92.27917
 21
209.588542
 31
0.0
  0
LINE
  8
0
  6
CONTINUOUS
 62
     7
  5
49F
 10
-92.27917
 20
209.241557
 30
0.0
 11
-130.27917
 21
209.241557
 31
0.0
  0
LINE
  8
0
  6
CONTINUOUS
 62
     7
  5
4A0
 10
-130.27917
 20
212.025914
 30
0.0
 11
-92.27917
 21
212.025914
 31
0.0
  0
LINE
  8
0
  6
CONTINUOUS
 62
     7
  5
4A1
 10
-130.27917
 20
178.168757
 30
0.0
 11
-130.27917
 21
178.669377
 31
0.0
  0
LINE
  8
0
  6
CONTINUOUS
 62
     7
  5
4A2
 10
-92.27917
 20
178.669377
 30
0.0
 11
-92.27917
 21
178.168757
 31
0.0
  0
LINE
  8
0
  6
CONTINUOUS
 62
     7
  5
4A3
 10
-136.27917
 20
183.549289
 30
0.0
 11
-136.27917
 21
188.205455
 31
0.0
  0
LINE
  8
0
  6
CONTINUOUS
 62
     7
  5
4A4
 10
-133.27917
 20
141.771965
 30
0.0
 11
-135.87917
 21
141.771965
 31
0.0
  0
LINE
  8
0
  6
CONTINUOUS
 62
     7
  5
4A5
 10
-133.27917
 20
137.328954
 30
0.0
 11
-133.27917
 21
139.671657
 31
0.0
  0
LINE
  8
0
  6
CONTINUOUS
 62
     7
  5
4A6
 10
-130.27917
 20
137.328954
 30
0.0
 11
-133.27917
 21
137.328954
 31
0.0
  0
LINE
  8
0
  6
CONTINUOUS
 62
     7
  5
4A7
 10
-135.87917
 20
129.986013
 30
0.0
 11
-133.27917
 21
129.986013
 31
0.0
  0
LINE
  8
0
  6
CONTINUOUS
 62
     7
  5
4A8
 10
-135.87917
 20
141.771965
 30
0.0
 11
-135.87917
 21
129.986013
 31
0.0
  0
LINE
  8
0
  6
CONTINUOUS
 62
     7
  5
4A9
 10
-133.27917
 20
129.986013
 30
0.0
 11
-133.27917
 21
127.505455
 31
0.0
  0
LINE
  8
0
  6
CONTINUOUS
 62
     7
  5
4AA
 10
-130.27917
 20
127.505455
 30
0.0
 11
-130.27917
 21
137.328954
 31
0.0
  0
LINE
  8
0
  6
CONTINUOUS
 62
     7
  5
4AB
 10
-89.27917
 20
129.986013
 30
0.0
 11
-86.67917
 21
129.986013
 31
0.0
  0
LINE
  8
0
  6
CONTINUOUS
 62
     7
  5
4AC
 10
-89.27917
 20
137.328954
 30
0.0
 11
-92.27917
 21
137.328954
 31
0.0
  0
LINE
  8
0
  6
CONTINUOUS
 62
     7
  5
4AD
 10
-89.27917
 20
139.671657
 30
0.0
 11
-89.27917
 21
137.328954
 31
0.0
  0
LINE
  8
0
  6
CONTINUOUS
 62
     7
  5
4AE
 10
-86.67917
 20
141.771965
 30
0.0
 11
-89.27917
 21
141.771965
 31
0.0
  0
LINE
  8
0
  6
CONTINUOUS
 62
     7
  5
4AF
 10
-86.67917
 20
129.986013
 30
0.0
 11
-86.67917
 21
141.771965
 31
0.0
  0
LINE
  8
0
  6
CONTINUOUS
 62
     7
  5
4B0
 10
-92.27917
 20
137.328954
 30
0.0
 11
-92.27917
 21
127.505455
 31
0.0
  0
LINE
  8
0
  6
CONTINUOUS
 62
     7
  5
4B1
 10
-89.27917
 20
127.505455
 30
0.0
 11
-89.27917
 21
129.986013
 31
0.0
  0
LINE
  8
0
  6
CONTINUOUS
 62
     7
  5
4B2
 10
-86.67917
 20
127.505455
 30
0.0
 11
-86.67917
 21
129.986013
 31
0.0
  0
LINE
  8
0
  6
CONTINUOUS
 62
     7
  5
4B3
 10
-135.87917
 20
129.986013
 30
0.0
 11
-135.87917
 21
127.505455
 31
0.0
  0
LINE
  8
0
  6
CONTINUOUS
 62
     7
  5
4B4
 10
-111.27917
 20
129.851856
 30
0.0
 11
-111.27917
 21
133.044438
 31
0.0
  0
LINE
  8
0
  6
CONTINUOUS
 62
     7
  5
4B5
 10
-115.27917
 20
131.807187
 30
0.0
 11
-111.27917
 21
129.851856
 31
0.0
  0
LINE
  8
0
  6
CONTINUOUS
 62
     7
  5
4B6
 10
-115.27917
 20
131.807187
 30
0.0
 11
-115.27917
 21
134.99977
 31
0.0
  0
LINE
  8
0
  6
CONTINUOUS
 62
     7
  5
4B7
 10
-111.27917
 20
133.044438
 30
0.0
 11
-115.27917
 21
134.99977
 31
0.0
  0
LINE
  8
0
  6
CONTINUOUS
 62
     7
  5
4B8
 10
-130.27917
 20
131.807187
 30
0.0
 11
-115.27917
 21
131.807187
 31
0.0
  0
LINE
  8
0
  6
CONTINUOUS
 62
     7
  5
4B9
 10
-115.27917
 20
134.99977
 30
0.0
 11
-130.27917
 21
134.99977
 31
0.0
  0
LINE
  8
0
  6
CONTINUOUS
 62
     7
  5
4BA
 10
-110.27917
 20
134.99977
 30
0.0
 11
-92.27917
 21
134.99977
 31
0.0
  0
LINE
  8
0
  6
CONTINUOUS
 62
     7
  5
4BB
 10
-92.27917
 20
131.807187
 30
0.0
 11
-110.27917
 21
131.807187
 31
0.0
  0
LINE
  8
0
  6
CONTINUOUS
 62
     7
  5
4BC
 10
-110.27917
 20
134.99977
 30
0.0
 11
-110.27917
 21
131.807187
 31
0.0
  0
LINE
  8
0
  6
CONTINUOUS
 62
     7
  5
4BD
 10
-111.27917
 20
129.851856
 30
0.0
 11
-108.27917
 21
129.851856
 31
0.0
  0
LINE
  8
0
  6
CONTINUOUS
 62
     7
  5
4BE
 10
-108.27917
 20
129.851856
 30
0.0
 11
-108.27917
 21
129.174509
 31
0.0
  0
LINE
  8
0
  6
CONTINUOUS
 62
     7
  5
4BF
 10
-108.27917
 20
129.174509
 30
0.0
 11
-111.493529
 21
129.174509
 31
0.0
  0
LINE
  8
0
  6
CONTINUOUS
 62
     7
  5
4C0
 10
-111.493529
 20
129.174509
 30
0.0
 11
-115.493529
 21
131.12984
 31
0.0
  0
LINE
  8
0
  6
CONTINUOUS
 62
     7
  5
4C1
 10
-115.493529
 20
131.12984
 30
0.0
 11
-130.27917
 21
131.12984
 31
0.0
  0
LINE
  8
0
  6
CONTINUOUS
 62
     7
  5
4C2
 10
-110.27917
 20
131.12984
 30
0.0
 11
-92.27917
 21
131.12984
 31
0.0
  0
LINE
  8
0
  6
CONTINUOUS
 62
     7
  5
4C3
 10
-110.27917
 20
131.807187
 30
0.0
 11
-110.27917
 21
131.12984
 31
0.0
  0
LINE
  8
0
  6
CONTINUOUS
 62
     7
  5
4C4
 10
-108.27917
 20
129.851856
 30
0.0
 11
-108.27917
 21
131.12984
 31
0.0
  0
LINE
  8
0
  6
CONTINUOUS
 62
     7
  5
4C5
 10
-110.27917
 20
133.044438
 30
0.0
 11
-111.27917
 21
133.044438
 31
0.0
  0
LINE
  8
0
  6
CONTINUOUS
 62
     7
  5
4C6
 10
-130.27917
 20
111.656487
 30
0.0
 11
-92.27917
 21
111.656487
 31
0.0
  0
LINE
  8
0
  6
CONTINUOUS
 62
     7
  5
4C7
 10
-130.27917
 20
108.777764
 30
0.0
 11
-92.27917
 21
108.777764
 31
0.0
  0
LINE
  8
0
  6
CONTINUOUS
 62
     7
  5
4C8
 10
-92.27917
 20
118.439839
 30
0.0
 11
-130.27917
 21
118.439839
 31
0.0
  0
LINE
  8
0
  6
CONTINUOUS
 62
     7
  5
4C9
 10
-136.27917
 20
143.434418
 30
0.0
 11
-136.27917
 21
143.411609
 31
0.0
  0
LINE
  8
0
  6
CONTINUOUS
 62
     7
  5
4CA
 10
-136.27917
 20
143.411609
 30
0.0
 11
-135.87917
 21
143.411609
 31
0.0
  0
LINE
  8
0
  6
CONTINUOUS
 62
     7
  5
4CB
 10
-135.87917
 20
142.467639
 30
0.0
 11
-135.87917
 21
141.771965
 31
0.0
  0
LINE
  8
0
  6
CONTINUOUS
 62
     7
  5
4CC
 10
-86.27917
 20
143.434418
 30
0.0
 11
-86.27917
 21
143.411609
 31
0.0
  0
LINE
  8
0
  6
CONTINUOUS
 62
     7
  5
4CD
 10
-86.67917
 20
143.411609
 30
0.0
 11
-86.27917
 21
143.411609
 31
0.0
  0
LINE
  8
0
  6
CONTINUOUS
 62
     7
  5
4CE
 10
-86.67917
 20
141.771965
 30
0.0
 11
-86.67917
 21
142.467639
 31
0.0
  0
LINE
  8
0
  6
CONTINUOUS
 62
     7
  5
4CF
 10
-86.27917
 20
143.411609
 30
0.0
 11
-86.27917
 21
135.934418
 31
0.0
  0
LINE
  8
0
  6
CONTINUOUS
 62
     7
  5
4D0
 10
-136.27917
 20
135.934418
 30
0.0
 11
-136.27917
 21
143.411609
 31
0.0
  0
LINE
  8
0
  6
CONTINUOUS
 62
     7
  5
4D1
 10
-130.27917
 20
127.205455
 30
0.0
 11
-133.27917
 21
127.205455
 31
0.0
  0
LINE
  8
0
  6
CONTINUOUS
 62
     7
  5
4D2
 10
-130.27917
 20
116.694154
 30
0.0
 11
-130.27917
 21
127.205455
 31
0.0
  0
LINE
  8
0
  6
CONTINUOUS
 62
     7
  5
4D3
 10
-133.27917
 20
127.205455
 30
0.0
 11
-133.27917
 21
116.730921
 31
0.0
  0
LINE
  8
0
  6
CONTINUOUS
 62
     7
  5
4D4
 10
-89.27917
 20
127.205455
 30
0.0
 11
-92.27917
 21
127.205455
 31
0.0
  0
LINE
  8
0
  6
CONTINUOUS
 62
     7
  5
4D5
 10
-89.27917
 20
116.730921
 30
0.0
 11
-89.27917
 21
127.205455
 31
0.0
  0
LINE
  8
0
  6
CONTINUOUS
 62
     7
  5
4D6
 10
-92.27917
 20
127.205455
 30
0.0
 11
-92.27917
 21
116.694154
 31
0.0
  0
LINE
  8
0
  6
CONTINUOUS
 62
     7
  5
4D7
 10
-130.27917
 20
101.905455
 30
0.0
 11
-133.27917
 21
101.905455
 31
0.0
  0
LINE
  8
0
  6
CONTINUOUS
 62
     7
  5
4D8
 10
-130.27917
 20
101.905455
 30
0.0
 11
-130.27917
 21
102.205455
 31
0.0
  0
LINE
  8
0
  6
CONTINUOUS
 62
     7
  5
4D9
 10
-133.27917
 20
102.205455
 30
0.0
 11
-133.27917
 21
101.905455
 31
0.0
  0
LINE
  8
0
  6
CONTINUOUS
 62
     7
  5
4DA
 10
-130.27917
 20
127.505455
 30
0.0
 11
-133.27917
 21
127.505455
 31
0.0
  0
LINE
  8
0
  6
CONTINUOUS
 62
     7
  5
4DB
 10
-130.27917
 20
127.205455
 30
0.0
 11
-130.27917
 21
127.505455
 31
0.0
  0
LINE
  8
0
  6
CONTINUOUS
 62
     7
  5
4DC
 10
-133.27917
 20
127.505455
 30
0.0
 11
-133.27917
 21
127.205455
 31
0.0
  0
LINE
  8
0
  6
CONTINUOUS
 62
     7
  5
4DD
 10
-89.27917
 20
127.505455
 30
0.0
 11
-92.27917
 21
127.505455
 31
0.0
  0
LINE
  8
0
  6
CONTINUOUS
 62
     7
  5
4DE
 10
-89.27917
 20
127.205455
 30
0.0
 11
-89.27917
 21
127.505455
 31
0.0
  0
LINE
  8
0
  6
CONTINUOUS
 62
     7
  5
4DF
 10
-92.27917
 20
127.505455
 30
0.0
 11
-92.27917
 21
127.205455
 31
0.0
  0
LINE
  8
0
  6
CONTINUOUS
 62
     7
  5
4E0
 10
-135.87917
 20
127.505455
 30
0.0
 11
-135.87917
 21
127.205455
 31
0.0
  0
LINE
  8
0
  6
CONTINUOUS
 62
     7
  5
4E1
 10
-135.87917
 20
127.505455
 30
0.0
 11
-133.27917
 21
127.505455
 31
0.0
  0
LINE
  8
0
  6
CONTINUOUS
 62
     7
  5
4E2
 10
-135.87917
 20
102.205455
 30
0.0
 11
-135.87917
 21
101.905455
 31
0.0
  0
LINE
  8
0
  6
CONTINUOUS
 62
     7
  5
4E3
 10
-133.27917
 20
101.905455
 30
0.0
 11
-135.87917
 21
101.905455
 31
0.0
  0
LINE
  8
0
  6
CONTINUOUS
 62
     7
  5
4E4
 10
-86.67917
 20
127.205455
 30
0.0
 11
-86.67917
 21
127.505455
 31
0.0
  0
LINE
  8
0
  6
CONTINUOUS
 62
     7
  5
4E5
 10
-89.27917
 20
127.505455
 30
0.0
 11
-86.67917
 21
127.505455
 31
0.0
  0
LINE
  8
0
  6
CONTINUOUS
 62
     7
  5
4E6
 10
-130.27917
 20
105.605455
 30
0.0
 11
-126.27917
 21
105.605455
 31
0.0
  0
LINE
  8
0
  6
CONTINUOUS
 62
     7
  5
4E7
 10
-96.27917
 20
105.605455
 30
0.0
 11
-92.27917
 21
105.605455
 31
0.0
  0
LINE
  8
0
  6
CONTINUOUS
 62
     7
  5
4E8
 10
-92.27917
 20
127.205455
 30
0.0
 11
-110.27917
 21
127.205455
 31
0.0
  0
LINE
  8
0
  6
CONTINUOUS
 62
     7
  5
4E9
 10
-110.27917
 20
127.205455
 30
0.0
 11
-110.27917
 21
126.405455
 31
0.0
  0
LINE
  8
0
  6
CONTINUOUS
 62
     7
  5
4EA
 10
-110.27917
 20
126.405455
 30
0.0
 11
-92.27917
 21
126.405455
 31
0.0
  0
LINE
  8
0
  6
CONTINUOUS
 62
     7
  5
4EB
 10
-115.27917
 20
127.205455
 30
0.0
 11
-111.27917
 21
124.896054
 31
0.0
  0
LINE
  8
0
  6
CONTINUOUS
 62
     7
  5
4EC
 10
-111.27917
 20
124.896054
 30
0.0
 11
-108.27917
 21
124.896054
 31
0.0
  0
LINE
  8
0
  6
CONTINUOUS
 62
     7
  5
4ED
 10
-108.27917
 20
124.096054
 30
0.0
 11
-111.493529
 21
124.096054
 31
0.0
  0
LINE
  8
0
  6
CONTINUOUS
 62
     7
  5
4EE
 10
-130.27917
 20
127.205455
 30
0.0
 11
-115.27917
 21
127.205455
 31
0.0
  0
LINE
  8
0
  6
CONTINUOUS
 62
     7
  5
4EF
 10
-111.493529
 20
124.096054
 30
0.0
 11
-115.493529
 21
126.405455
 31
0.0
  0
LINE
  8
0
  6
CONTINUOUS
 62
     7
  5
4F0
 10
-115.493529
 20
126.405455
 30
0.0
 11
-130.27917
 21
126.405455
 31
0.0
  0
LINE
  8
0
  6
CONTINUOUS
 62
     7
  5
4F1
 10
-108.27917
 20
124.896054
 30
0.0
 11
-108.27917
 21
124.096054
 31
0.0
  0
LINE
  8
0
  6
CONTINUOUS
 62
     7
  5
4F2
 10
-76.27917
 20
108.205455
 30
0.0
 11
-66.67917
 21
108.205455
 31
0.0
  0
LINE
  8
0
  6
CONTINUOUS
 62
     7
  5
4F3
 10
-66.67917
 20
113.205455
 30
0.0
 11
-76.27917
 21
113.205455
 31
0.0
  0
LINE
  8
0
  6
CONTINUOUS
 62
     7
  5
4F4
 10
-66.67917
 20
108.205455
 30
0.0
 11
-66.27917
 21
108.605455
 31
0.0
  0
LINE
  8
0
  6
CONTINUOUS
 62
     7
  5
4F5
 10
-66.27917
 20
112.805455
 30
0.0
 11
-66.67917
 21
113.205455
 31
0.0
  0
LINE
  8
0
  6
CONTINUOUS
 62
     7
  5
4F6
 10
-133.27917
 20
127.205455
 30
0.0
 11
-136.27917
 21
127.205455
 31
0.0
  0
LINE
  8
0
  6
CONTINUOUS
 62
     7
  5
4F7
 10
-86.27917
 20
127.205455
 30
0.0
 11
-89.27917
 21
127.205455
 31
0.0
  0
LINE
  8
0
  6
CONTINUOUS
 62
     7
  5
4F8
 10
-89.27917
 20
223.205455
 30
0.0
 11
-92.27917
 21
223.205455
 31
0.0
  0
LINE
  8
0
  6
CONTINUOUS
 62
     7
  5
4F9
 10
-130.27917
 20
223.205455
 30
0.0
 11
-133.27917
 21
223.205455
 31
0.0
  0
LINE
  8
0
  6
CONTINUOUS
 62
     7
  5
4FA
 10
-135.87917
 20
135.934418
 30
0.0
 11
-136.27917
 21
135.934418
 31
0.0
  0
LINE
  8
0
  6
CONTINUOUS
 62
     7
  5
4FB
 10
-86.27917
 20
135.934418
 30
0.0
 11
-86.67917
 21
135.934418
 31
0.0
  0
LINE
  8
0
  6
CONTINUOUS
 62
     7
  5
4FC
 10
-135.87917
 20
171.388674
 30
0.0
 11
-136.27917
 21
171.388674
 31
0.0
  0
LINE
  8
0
  6
CONTINUOUS
 62
     7
  5
4FD
 10
-86.27917
 20
171.388674
 30
0.0
 11
-86.67917
 21
171.388674
 31
0.0
  0
LINE
  8
0
  6
CONTINUOUS
 62
     7
  5
4FE
 10
-86.67917
 20
153.888674
 30
0.0
 11
-86.27917
 21
153.888674
 31
0.0
  0
LINE
  8
0
  6
CONTINUOUS
 62
     7
  5
4FF
 10
-136.27917
 20
153.888674
 30
0.0
 11
-135.87917
 21
153.888674
 31
0.0
  0
LINE
  8
0
  6
CONTINUOUS
 62
     7
  5
500
 10
-86.27917
 20
163.888674
 30
0.0
 11
-86.67917
 21
163.888674
 31
0.0
  0
LINE
  8
0
  6
CONTINUOUS
 62
     7
  5
501
 10
-135.87917
 20
163.888674
 30
0.0
 11
-136.27917
 21
163.888674
 31
0.0
  0
LINE
  8
0
  6
CONTINUOUS
 62
     7
  5
502
 10
-136.27917
 20
183.549289
 30
0.0
 11
-135.87917
 21
183.549289
 31
0.0
  0
LINE
  8
0
  6
CONTINUOUS
 62
     7
  5
503
 10
-135.87917
 20
143.434418
 30
0.0
 11
-136.27917
 21
143.434418
 31
0.0
  0
LINE
  8
0
  6
CONTINUOUS
 62
     7
  5
504
 10
-86.27917
 20
143.434418
 30
0.0
 11
-86.67917
 21
143.434418
 31
0.0
  0
ENDBLK
  8
0
  5
505
  0
BLOCK
  8
0
  5
508
  2
AID2493
 70
     0
 10
0.0
 20
0.0
 30
0.0
  3
#auxiliary draft view
  0
LINE
  8
0
  6
CONTINUOUS
 62
     7
  5
509
 10
247.920284
 20
-49.359811
 30
0.0
 11
248.920284
 21
-49.359811
 31
0.0
  0
LINE
  8
0
  6
CONTINUOUS
 62
     7
  5
50A
 10
255.420284
 20
-49.359811
 30
0.0
 11
262.755092
 21
-49.359811
 31
0.0
  0
LINE
  8
0
  6
CONTINUOUS
 62
     7
  5
50B
 10
262.755092
 20
-49.359811
 30
0.0
 11
262.755092
 21
-49.759811
 31
0.0
  0
LINE
  8
0
  6
CONTINUOUS
 62
     7
  5
50C
 10
262.755092
 20
-98.959811
 30
0.0
 11
262.755092
 21
-99.359811
 31
0.0
  0
LINE
  8
0
  6
CONTINUOUS
 62
     7
  5
50D
 10
262.755092
 20
-99.359811
 30
0.0
 11
255.420284
 21
-99.359811
 31
0.0
  0
LINE
  8
0
  6
CONTINUOUS
 62
     7
  5
50E
 10
248.920284
 20
-99.359811
 30
0.0
 11
247.920284
 21
-99.359811
 31
0.0
  0
LINE
  8
0
  6
CONTINUOUS
 62
     7
  5
50F
 10
163.420284
 20
-41.359811
 30
0.0
 11
163.420284
 21
-39.359811
 31
0.0
  0
LINE
  8
0
  6
CONTINUOUS
 62
     7
  5
510
 10
163.420284
 20
-39.359811
 30
0.0
 11
290.420284
 21
-39.359811
 31
0.0
  0
LINE
  8
0
  6
CONTINUOUS
 62
     7
  5
511
 10
290.420284
 20
-41.359811
 30
0.0
 11
290.420284
 21
-39.359811
 31
0.0
  0
LINE
  8
0
  6
CONTINUOUS
 62
     7
  5
512
 10
163.420284
 20
-41.359811
 30
0.0
 11
290.420284
 21
-41.359811
 31
0.0
  0
LINE
  8
0
  6
CONTINUOUS
 62
     7
  5
513
 10
288.420284
 20
-49.759811
 30
0.0
 11
288.420284
 21
-49.359811
 31
0.0
  0
LINE
  8
0
  6
CONTINUOUS
 62
     7
  5
514
 10
288.420284
 20
-49.359811
 30
0.0
 11
285.920284
 21
-49.359811
 31
0.0
  0
LINE
  8
0
  6
CONTINUOUS
 62
     7
  5
515
 10
279.420284
 20
-49.359811
 30
0.0
 11
278.420284
 21
-49.359811
 31
0.0
  0
LINE
  8
0
  6
CONTINUOUS
 62
     7
  5
516
 10
268.420284
 20
-49.359811
 30
0.0
 11
262.755092
 21
-49.359811
 31
0.0
  0
LINE
  8
0
  6
CONTINUOUS
 62
     7
  5
517
 10
288.420284
 20
-99.359811
 30
0.0
 11
288.420284
 21
-98.959811
 31
0.0
  0
LINE
  8
0
  6
CONTINUOUS
 62
     7
  5
518
 10
288.420284
 20
-99.359811
 30
0.0
 11
285.920284
 21
-99.359811
 31
0.0
  0
LINE
  8
0
  6
CONTINUOUS
 62
     7
  5
519
 10
279.420284
 20
-99.359811
 30
0.0
 11
278.420284
 21
-99.359811
 31
0.0
  0
LINE
  8
0
  6
CONTINUOUS
 62
     7
  5
51A
 10
268.420284
 20
-99.359811
 30
0.0
 11
262.755092
 21
-99.359811
 31
0.0
  0
LINE
  8
0
  6
CONTINUOUS
 62
     7
  5
51B
 10
275.420284
 20
-44.859811
 30
0.0
 11
275.420284
 21
-41.359811
 31
0.0
  0
LINE
  8
0
  6
CONTINUOUS
 62
     7
  5
51C
 10
275.420284
 20
-44.859811
 30
0.0
 11
271.420284
 21
-44.859811
 31
0.0
  0
LINE
  8
0
  6
CONTINUOUS
 62
     7
  5
51D
 10
271.420284
 20
-44.859811
 30
0.0
 11
271.420284
 21
-41.359811
 31
0.0
  0
LINE
  8
0
  6
CONTINUOUS
 62
     7
  5
51E
 10
279.420284
 20
-44.859811
 30
0.0
 11
279.420284
 21
-41.359811
 31
0.0
  0
LINE
  8
0
  6
CONTINUOUS
 62
     7
  5
51F
 10
279.420284
 20
-44.859811
 30
0.0
 11
275.420284
 21
-44.859811
 31
0.0
  0
LINE
  8
0
  6
CONTINUOUS
 62
     7
  5
520
 10
182.420284
 20
-44.859811
 30
0.0
 11
182.420284
 21
-41.359811
 31
0.0
  0
LINE
  8
0
  6
CONTINUOUS
 62
     7
  5
521
 10
182.420284
 20
-44.859811
 30
0.0
 11
178.420284
 21
-44.859811
 31
0.0
  0
LINE
  8
0
  6
CONTINUOUS
 62
     7
  5
522
 10
178.420284
 20
-44.859811
 30
0.0
 11
178.420284
 21
-41.359811
 31
0.0
  0
LINE
  8
0
  6
CONTINUOUS
 62
     7
  5
523
 10
174.420284
 20
-44.859811
 30
0.0
 11
174.420284
 21
-41.359811
 31
0.0
  0
LINE
  8
0
  6
CONTINUOUS
 62
     7
  5
524
 10
178.420284
 20
-44.859811
 30
0.0
 11
174.420284
 21
-44.859811
 31
0.0
  0
LINE
  8
0
  6
CONTINUOUS
 62
     7
  5
525
 10
273.320284
 20
-29.359811
 30
0.0
 11
277.520284
 21
-29.359811
 31
0.0
  0
LINE
  8
0
  6
CONTINUOUS
 62
     7
  5
526
 10
277.920284
 20
-29.759811
 30
0.0
 11
272.920284
 21
-29.759811
 31
0.0
  0
LINE
  8
0
  6
CONTINUOUS
 62
     7
  5
527
 10
180.920284
 20
-29.759811
 30
0.0
 11
175.920284
 21
-29.759811
 31
0.0
  0
LINE
  8
0
  6
CONTINUOUS
 62
     7
  5
528
 10
176.320284
 20
-29.359811
 30
0.0
 11
180.520284
 21
-29.359811
 31
0.0
  0
LINE
  8
0
  6
CONTINUOUS
 62
     7
  5
529
 10
305.420284
 20
-65.359811
 30
0.0
 11
305.420284
 21
-59.359811
 31
0.0
  0
LINE
  8
0
  6
CONTINUOUS
 62
     7
  5
52A
 10
295.170284
 20
-65.359811
 30
0.0
 11
305.420284
 21
-65.359811
 31
0.0
  0
LINE
  8
0
  6
CONTINUOUS
 62
     7
  5
52B
 10
305.420284
 20
-67.359811
 30
0.0
 11
295.170284
 21
-67.359811
 31
0.0
  0
LINE
  8
0
  6
CONTINUOUS
 62
     7
  5
52C
 10
305.420284
 20
-73.359811
 30
0.0
 11
305.420284
 21
-67.359811
 31
0.0
  0
LINE
  8
0
  6
CONTINUOUS
 62
     7
  5
52D
 10
295.170284
 20
-73.359811
 30
0.0
 11
305.420284
 21
-73.359811
 31
0.0
  0
LINE
  8
0
  6
CONTINUOUS
 62
     7
  5
52E
 10
305.420284
 20
-75.359811
 30
0.0
 11
295.170284
 21
-75.359811
 31
0.0
  0
LINE
  8
0
  6
CONTINUOUS
 62
     7
  5
52F
 10
305.420284
 20
-81.359811
 30
0.0
 11
305.420284
 21
-75.359811
 31
0.0
  0
LINE
  8
0
  6
CONTINUOUS
 62
     7
  5
530
 10
295.170284
 20
-81.359811
 30
0.0
 11
305.420284
 21
-81.359811
 31
0.0
  0
LINE
  8
0
  6
CONTINUOUS
 62
     7
  5
531
 10
305.420284
 20
-83.359811
 30
0.0
 11
295.170284
 21
-83.359811
 31
0.0
  0
LINE
  8
0
  6
CONTINUOUS
 62
     7
  5
532
 10
305.420284
 20
-89.359811
 30
0.0
 11
305.420284
 21
-83.359811
 31
0.0
  0
LINE
  8
0
  6
CONTINUOUS
 62
     7
  5
533
 10
295.170284
 20
-89.359811
 30
0.0
 11
305.420284
 21
-89.359811
 31
0.0
  0
LINE
  8
0
  6
CONTINUOUS
 62
     7
  5
534
 10
305.420284
 20
-59.359811
 30
0.0
 11
295.170284
 21
-59.359811
 31
0.0
  0
LINE
  8
0
  6
CONTINUOUS
 62
     7
  5
535
 10
180.670284
 20
-89.359811
 30
0.0
 11
190.670284
 21
-89.359811
 31
0.0
  0
LINE
  8
0
  6
CONTINUOUS
 62
     7
  5
536
 10
211.170284
 20
-89.359811
 30
0.0
 11
221.170284
 21
-89.359811
 31
0.0
  0
LINE
  8
0
  6
CONTINUOUS
 62
     7
  5
537
 10
241.670284
 20
-89.359811
 30
0.0
 11
251.670284
 21
-89.359811
 31
0.0
  0
LINE
  8
0
  6
CONTINUOUS
 62
     7
  5
538
 10
163.420284
 20
-49.359811
 30
0.0
 11
163.420284
 21
-41.359811
 31
0.0
  0
LINE
  8
0
  6
CONTINUOUS
 62
     7
  5
539
 10
290.420284
 20
-49.759811
 30
0.0
 11
290.420284
 21
-41.359811
 31
0.0
  0
LINE
  8
0
  6
CONTINUOUS
 62
     7
  5
53A
 10
334.420284
 20
-96.359811
 30
0.0
 11
337.970284
 21
-96.359811
 31
0.0
  0
LINE
  8
0
  6
CONTINUOUS
 62
     7
  5
53B
 10
337.970284
 20
-96.359811
 30
0.0
 11
346.755092
 21
-96.359811
 31
0.0
  0
LINE
  8
0
  6
CONTINUOUS
 62
     7
  5
53C
 10
346.755092
 20
-93.359811
 30
0.0
 11
346.755092
 21
-96.354811
 31
0.0
  0
LINE
  8
0
  6
CONTINUOUS
 62
     7
  5
53D
 10
346.755092
 20
-96.354811
 30
0.0
 11
346.755092
 21
-96.359811
 31
0.0
  0
LINE
  8
0
  6
CONTINUOUS
 62
     7
  5
53E
 10
346.755092
 20
-93.359811
 30
0.0
 11
326.070284
 21
-93.359811
 31
0.0
  0
LINE
  8
0
  6
CONTINUOUS
 62
     7
  5
53F
 10
326.070284
 20
-55.359811
 30
0.0
 11
346.755092
 21
-55.359811
 31
0.0
  0
LINE
  8
0
  6
CONTINUOUS
 62
     7
  5
540
 10
346.755092
 20
-52.359811
 30
0.0
 11
337.970284
 21
-52.359811
 31
0.0
  0
LINE
  8
0
  6
CONTINUOUS
 62
     7
  5
541
 10
337.970284
 20
-52.359811
 30
0.0
 11
334.420284
 21
-52.359811
 31
0.0
  0
LINE
  8
0
  6
CONTINUOUS
 62
     7
  5
542
 10
346.755092
 20
-52.359811
 30
0.0
 11
346.755092
 21
-52.364811
 31
0.0
  0
LINE
  8
0
  6
CONTINUOUS
 62
     7
  5
543
 10
346.755092
 20
-52.364811
 30
0.0
 11
346.755092
 21
-55.359811
 31
0.0
  0
LINE
  8
0
  6
CONTINUOUS
 62
     7
  5
544
 10
329.420284
 20
-49.359811
 30
0.0
 11
334.420284
 21
-49.359811
 31
0.0
  0
LINE
  8
0
  6
CONTINUOUS
 62
     7
  5
545
 10
334.420284
 20
-49.359811
 30
0.0
 11
339.420284
 21
-49.359811
 31
0.0
  0
LINE
  8
0
  6
CONTINUOUS
 62
     7
  5
546
 10
339.420284
 20
-99.359811
 30
0.0
 11
329.420284
 21
-99.359811
 31
0.0
  0
LINE
  8
0
  6
CONTINUOUS
 62
     7
  5
547
 10
372.420284
 20
-99.359811
 30
0.0
 11
372.420284
 21
-93.359811
 31
0.0
  0
LINE
  8
0
  6
CONTINUOUS
 62
     7
  5
548
 10
372.420284
 20
-99.359811
 30
0.0
 11
346.963612
 21
-99.359811
 31
0.0
  0
LINE
  8
0
  6
CONTINUOUS
 62
     7
  5
549
 10
346.963612
 20
-96.359811
 30
0.0
 11
346.963612
 21
-99.359811
 31
0.0
  0
LINE
  8
0
  6
CONTINUOUS
 62
     7
  5
54A
 10
346.755092
 20
-96.359811
 30
0.0
 11
346.963612
 21
-96.359811
 31
0.0
  0
LINE
  8
0
  6
CONTINUOUS
 62
     7
  5
54B
 10
372.420284
 20
-93.359811
 30
0.0
 11
346.755092
 21
-93.359811
 31
0.0
  0
LINE
  8
0
  6
CONTINUOUS
 62
     7
  5
54C
 10
346.963612
 20
-49.359811
 30
0.0
 11
346.963612
 21
-52.359811
 31
0.0
  0
LINE
  8
0
  6
CONTINUOUS
 62
     7
  5
54D
 10
372.420284
 20
-49.359811
 30
0.0
 11
346.963612
 21
-49.359811
 31
0.0
  0
LINE
  8
0
  6
CONTINUOUS
 62
     7
  5
54E
 10
372.420284
 20
-55.359811
 30
0.0
 11
372.420284
 21
-49.359811
 31
0.0
  0
LINE
  8
0
  6
CONTINUOUS
 62
     7
  5
54F
 10
346.963612
 20
-52.359811
 30
0.0
 11
346.755092
 21
-52.359811
 31
0.0
  0
LINE
  8
0
  6
CONTINUOUS
 62
     7
  5
550
 10
346.755092
 20
-55.359811
 30
0.0
 11
372.420284
 21
-55.359811
 31
0.0
  0
LINE
  8
0
  6
CONTINUOUS
 62
     7
  5
551
 10
389.420284
 20
-65.359811
 30
0.0
 11
389.420284
 21
-59.359811
 31
0.0
  0
LINE
  8
0
  6
CONTINUOUS
 62
     7
  5
552
 10
375.920284
 20
-65.359811
 30
0.0
 11
389.420284
 21
-65.359811
 31
0.0
  0
LINE
  8
0
  6
CONTINUOUS
 62
     7
  5
553
 10
389.420284
 20
-67.359811
 30
0.0
 11
375.920284
 21
-67.359811
 31
0.0
  0
LINE
  8
0
  6
CONTINUOUS
 62
     7
  5
554
 10
389.420284
 20
-73.359811
 30
0.0
 11
389.420284
 21
-67.359811
 31
0.0
  0
LINE
  8
0
  6
CONTINUOUS
 62
     7
  5
555
 10
389.420284
 20
-81.359811
 30
0.0
 11
389.420284
 21
-75.359811
 31
0.0
  0
LINE
  8
0
  6
CONTINUOUS
 62
     7
  5
556
 10
389.420284
 20
-83.359811
 30
0.0
 11
375.920284
 21
-83.359811
 31
0.0
  0
LINE
  8
0
  6
CONTINUOUS
 62
     7
  5
557
 10
372.420284
 20
-89.359811
 30
0.0
 11
389.420284
 21
-89.359811
 31
0.0
  0
LINE
  8
0
  6
CONTINUOUS
 62
     7
  5
558
 10
372.420284
 20
-89.359811
 30
0.0
 11
372.420284
 21
-59.359811
 31
0.0
  0
LINE
  8
0
  6
CONTINUOUS
 62
     7
  5
559
 10
389.420284
 20
-75.359811
 30
0.0
 11
375.920284
 21
-75.359811
 31
0.0
  0
LINE
  8
0
  6
CONTINUOUS
 62
     7
  5
55A
 10
375.920284
 20
-75.359811
 30
0.0
 11
375.920284
 21
-73.359811
 31
0.0
  0
LINE
  8
0
  6
CONTINUOUS
 62
     7
  5
55B
 10
375.920284
 20
-67.359811
 30
0.0
 11
375.920284
 21
-65.359811
 31
0.0
  0
LINE
  8
0
  6
CONTINUOUS
 62
     7
  5
55C
 10
375.920284
 20
-73.359811
 30
0.0
 11
389.420284
 21
-73.359811
 31
0.0
  0
LINE
  8
0
  6
CONTINUOUS
 62
     7
  5
55D
 10
375.920284
 20
-81.359811
 30
0.0
 11
389.420284
 21
-81.359811
 31
0.0
  0
LINE
  8
0
  6
CONTINUOUS
 62
     7
  5
55E
 10
389.420284
 20
-89.359811
 30
0.0
 11
389.420284
 21
-83.359811
 31
0.0
  0
LINE
  8
0
  6
CONTINUOUS
 62
     7
  5
55F
 10
389.420284
 20
-59.359811
 30
0.0
 11
372.420284
 21
-59.359811
 31
0.0
  0
LINE
  8
0
  6
CONTINUOUS
 62
     7
  5
560
 10
375.920284
 20
-83.359811
 30
0.0
 11
375.920284
 21
-81.359811
 31
0.0
  0
LINE
  8
0
  6
CONTINUOUS
 62
     7
  5
561
 10
342.420284
 20
-93.359811
 30
0.0
 11
342.420284
 21
-55.359811
 31
0.0
  0
LINE
  8
0
  6
CONTINUOUS
 62
     7
  5
562
 10
372.420284
 20
-93.359811
 30
0.0
 11
372.420284
 21
-89.359811
 31
0.0
  0
LINE
  8
0
  6
CONTINUOUS
 62
     7
  5
563
 10
372.420284
 20
-59.359811
 30
0.0
 11
372.420284
 21
-55.359811
 31
0.0
  0
LINE
  8
0
  6
CONTINUOUS
 62
     7
  5
564
 10
356.420284
 20
-7.859811
 30
0.0
 11
374.420284
 21
-7.859811
 31
0.0
  0
LINE
  8
0
  6
CONTINUOUS
 62
     7
  5
565
 10
356.420284
 20
-7.859811
 30
0.0
 11
356.420284
 21
-49.359811
 31
0.0
  0
LINE
  8
0
  6
CONTINUOUS
 62
     7
  5
566
 10
374.420284
 20
-7.859811
 30
0.0
 11
374.420284
 21
-59.359811
 31
0.0
  0
LINE
  8
0
  6
CONTINUOUS
 62
     7
  5
567
 10
374.420284
 20
-89.359811
 30
0.0
 11
374.420284
 21
-99.359811
 31
0.0
  0
LINE
  8
0
  6
CONTINUOUS
 62
     7
  5
568
 10
372.420284
 20
-99.359811
 30
0.0
 11
374.420284
 21
-99.359811
 31
0.0
  0
LINE
  8
0
  6
CONTINUOUS
 62
     7
  5
569
 10
353.620284
 20
-15.859811
 30
0.0
 11
356.420284
 21
-15.859811
 31
0.0
  0
LINE
  8
0
  6
CONTINUOUS
 62
     7
  5
56A
 10
353.620284
 20
-15.859811
 30
0.0
 11
353.620284
 21
-12.359811
 31
0.0
  0
LINE
  8
0
  6
CONTINUOUS
 62
     7
  5
56B
 10
353.620284
 20
-12.359811
 30
0.0
 11
356.420284
 21
-12.359811
 31
0.0
  0
LINE
  8
0
  6
CONTINUOUS
 62
     7
  5
56C
 10
353.620284
 20
-8.859811
 30
0.0
 11
356.420284
 21
-8.859811
 31
0.0
  0
LINE
  8
0
  6
CONTINUOUS
 62
     7
  5
56D
 10
353.620284
 20
-12.359811
 30
0.0
 11
353.620284
 21
-8.859811
 31
0.0
  0
LINE
  8
0
  6
CONTINUOUS
 62
     7
  5
56E
 10
353.620284
 20
-29.859811
 30
0.0
 11
356.420284
 21
-29.859811
 31
0.0
  0
LINE
  8
0
  6
CONTINUOUS
 62
     7
  5
56F
 10
353.620284
 20
-29.859811
 30
0.0
 11
353.620284
 21
-26.359811
 31
0.0
  0
LINE
  8
0
  6
CONTINUOUS
 62
     7
  5
570
 10
353.620284
 20
-26.359811
 30
0.0
 11
356.420284
 21
-26.359811
 31
0.0
  0
LINE
  8
0
  6
CONTINUOUS
 62
     7
  5
571
 10
353.620284
 20
-33.359811
 30
0.0
 11
356.420284
 21
-33.359811
 31
0.0
  0
LINE
  8
0
  6
CONTINUOUS
 62
     7
  5
572
 10
353.620284
 20
-33.359811
 30
0.0
 11
353.620284
 21
-29.859811
 31
0.0
  0
LINE
  8
0
  6
CONTINUOUS
 62
     7
  5
573
 10
326.070284
 20
-52.359811
 30
0.0
 11
334.420284
 21
-52.359811
 31
0.0
  0
LINE
  8
0
  6
CONTINUOUS
 62
     7
  5
574
 10
326.070284
 20
-55.359811
 30
0.0
 11
326.070284
 21
-52.359811
 31
0.0
  0
LINE
  8
0
  6
CONTINUOUS
 62
     7
  5
575
 10
303.920284
 20
-55.359811
 30
0.0
 11
326.070284
 21
-55.359811
 31
0.0
  0
LINE
  8
0
  6
CONTINUOUS
 62
     7
  5
576
 10
303.920284
 20
-52.359811
 30
0.0
 11
303.920284
 21
-55.359811
 31
0.0
  0
LINE
  8
0
  6
CONTINUOUS
 62
     7
  5
577
 10
334.420284
 20
-49.759811
 30
0.0
 11
312.270284
 21
-49.759811
 31
0.0
  0
LINE
  8
0
  6
CONTINUOUS
 62
     7
  5
578
 10
312.270284
 20
-49.759811
 30
0.0
 11
312.270284
 21
-52.359811
 31
0.0
  0
LINE
  8
0
  6
CONTINUOUS
 62
     7
  5
579
 10
334.420284
 20
-49.759811
 30
0.0
 11
334.420284
 21
-52.359811
 31
0.0
  0
LINE
  8
0
  6
CONTINUOUS
 62
     7
  5
57A
 10
312.270284
 20
-52.359811
 30
0.0
 11
303.920284
 21
-52.359811
 31
0.0
  0
LINE
  8
0
  6
CONTINUOUS
 62
     7
  5
57B
 10
334.420284
 20
-96.359811
 30
0.0
 11
334.420284
 21
-98.959811
 31
0.0
  0
LINE
  8
0
  6
CONTINUOUS
 62
     7
  5
57C
 10
326.070284
 20
-93.359811
 30
0.0
 11
303.920284
 21
-93.359811
 31
0.0
  0
LINE
  8
0
  6
CONTINUOUS
 62
     7
  5
57D
 10
312.270284
 20
-96.359811
 30
0.0
 11
312.270284
 21
-98.959811
 31
0.0
  0
LINE
  8
0
  6
CONTINUOUS
 62
     7
  5
57E
 10
303.920284
 20
-93.359811
 30
0.0
 11
303.920284
 21
-96.359811
 31
0.0
  0
LINE
  8
0
  6
CONTINUOUS
 62
     7
  5
57F
 10
303.920284
 20
-96.359811
 30
0.0
 11
312.270284
 21
-96.359811
 31
0.0
  0
LINE
  8
0
  6
CONTINUOUS
 62
     7
  5
580
 10
326.070284
 20
-96.359811
 30
0.0
 11
326.070284
 21
-93.359811
 31
0.0
  0
LINE
  8
0
  6
CONTINUOUS
 62
     7
  5
581
 10
312.270284
 20
-98.959811
 30
0.0
 11
334.420284
 21
-98.959811
 31
0.0
  0
LINE
  8
0
  6
CONTINUOUS
 62
     7
  5
582
 10
334.420284
 20
-96.359811
 30
0.0
 11
326.070284
 21
-96.359811
 31
0.0
  0
LINE
  8
0
  6
CONTINUOUS
 62
     7
  5
583
 10
295.570284
 20
-55.359811
 30
0.0
 11
303.920284
 21
-55.359811
 31
0.0
  0
LINE
  8
0
  6
CONTINUOUS
 62
     7
  5
584
 10
346.920284
 20
-96.354811
 30
0.0
 11
337.970284
 21
-96.354811
 31
0.0
  0
LINE
  8
0
  6
CONTINUOUS
 62
     7
  5
585
 10
340.420284
 20
-99.359811
 30
0.0
 11
346.920284
 21
-99.359811
 31
0.0
  0
LINE
  8
0
  6
CONTINUOUS
 62
     7
  5
586
 10
340.420284
 20
-98.959811
 30
0.0
 11
340.420284
 21
-99.359811
 31
0.0
  0
LINE
  8
0
  6
CONTINUOUS
 62
     7
  5
587
 10
337.970284
 20
-96.354811
 30
0.0
 11
337.970284
 21
-96.359811
 31
0.0
  0
LINE
  8
0
  6
CONTINUOUS
 62
     7
  5
588
 10
334.420284
 20
-98.959811
 30
0.0
 11
340.420284
 21
-98.959811
 31
0.0
  0
LINE
  8
0
  6
CONTINUOUS
 62
     7
  5
589
 10
337.970284
 20
-96.359811
 30
0.0
 11
334.420284
 21
-96.359811
 31
0.0
  0
LINE
  8
0
  6
CONTINUOUS
 62
     7
  5
58A
 10
340.420284
 20
-49.359811
 30
0.0
 11
346.920284
 21
-49.359811
 31
0.0
  0
LINE
  8
0
  6
CONTINUOUS
 62
     7
  5
58B
 10
337.970284
 20
-52.364811
 30
0.0
 11
346.920284
 21
-52.364811
 31
0.0
  0
LINE
  8
0
  6
CONTINUOUS
 62
     7
  5
58C
 10
337.970284
 20
-52.359811
 30
0.0
 11
337.970284
 21
-52.364811
 31
0.0
  0
LINE
  8
0
  6
CONTINUOUS
 62
     7
  5
58D
 10
340.420284
 20
-49.359811
 30
0.0
 11
340.420284
 21
-49.759811
 31
0.0
  0
LINE
  8
0
  6
CONTINUOUS
 62
     7
  5
58E
 10
340.420284
 20
-49.759811
 30
0.0
 11
334.420284
 21
-49.759811
 31
0.0
  0
LINE
  8
0
  6
CONTINUOUS
 62
     7
  5
58F
 10
334.420284
 20
-52.359811
 30
0.0
 11
337.970284
 21
-52.359811
 31
0.0
  0
LINE
  8
0
  6
CONTINUOUS
 62
     7
  5
590
 10
312.670284
 20
-93.359811
 30
0.0
 11
312.670284
 21
-55.359811
 31
0.0
  0
LINE
  8
0
  6
CONTINUOUS
 62
     7
  5
591
 10
325.670284
 20
-93.359811
 30
0.0
 11
325.670284
 21
-55.359811
 31
0.0
  0
LINE
  8
0
  6
CONTINUOUS
 62
     7
  5
592
 10
303.920284
 20
-93.359811
 30
0.0
 11
295.570284
 21
-93.359811
 31
0.0
  0
LINE
  8
0
  6
CONTINUOUS
 62
     7
  5
593
 10
308.920284
 20
-99.359811
 30
0.0
 11
308.920284
 21
-98.959811
 31
0.0
  0
LINE
  8
0
  6
CONTINUOUS
 62
     7
  5
594
 10
308.920284
 20
-99.359811
 30
0.0
 11
298.920284
 21
-99.359811
 31
0.0
  0
LINE
  8
0
  6
CONTINUOUS
 62
     7
  5
595
 10
298.920284
 20
-98.959811
 30
0.0
 11
298.920284
 21
-99.359811
 31
0.0
  0
LINE
  8
0
  6
CONTINUOUS
 62
     7
  5
596
 10
308.920284
 20
-49.759811
 30
0.0
 11
308.920284
 21
-49.359811
 31
0.0
  0
LINE
  8
0
  6
CONTINUOUS
 62
     7
  5
597
 10
298.920284
 20
-49.359811
 30
0.0
 11
298.920284
 21
-49.759811
 31
0.0
  0
LINE
  8
0
  6
CONTINUOUS
 62
     7
  5
598
 10
298.920284
 20
-49.359811
 30
0.0
 11
308.920284
 21
-49.359811
 31
0.0
  0
LINE
  8
0
  6
CONTINUOUS
 62
     7
  5
599
 10
303.920284
 20
-49.759811
 30
0.0
 11
303.920284
 21
-52.359811
 31
0.0
  0
LINE
  8
0
  6
CONTINUOUS
 62
     7
  5
59A
 10
295.570284
 20
-52.359811
 30
0.0
 11
303.920284
 21
-52.359811
 31
0.0
  0
LINE
  8
0
  6
CONTINUOUS
 62
     7
  5
59B
 10
295.570284
 20
-55.359811
 30
0.0
 11
295.570284
 21
-52.359811
 31
0.0
  0
LINE
  8
0
  6
CONTINUOUS
 62
     7
  5
59C
 10
273.420284
 20
-55.359811
 30
0.0
 11
295.570284
 21
-55.359811
 31
0.0
  0
LINE
  8
0
  6
CONTINUOUS
 62
     7
  5
59D
 10
273.420284
 20
-52.359811
 30
0.0
 11
273.420284
 21
-55.359811
 31
0.0
  0
LINE
  8
0
  6
CONTINUOUS
 62
     7
  5
59E
 10
281.770284
 20
-52.359811
 30
0.0
 11
273.420284
 21
-52.359811
 31
0.0
  0
LINE
  8
0
  6
CONTINUOUS
 62
     7
  5
59F
 10
303.920284
 20
-49.759811
 30
0.0
 11
281.770284
 21
-49.759811
 31
0.0
  0
LINE
  8
0
  6
CONTINUOUS
 62
     7
  5
5A0
 10
281.770284
 20
-49.759811
 30
0.0
 11
281.770284
 21
-52.359811
 31
0.0
  0
LINE
  8
0
  6
CONTINUOUS
 62
     7
  5
5A1
 10
281.770284
 20
-96.359811
 30
0.0
 11
281.770284
 21
-98.959811
 31
0.0
  0
LINE
  8
0
  6
CONTINUOUS
 62
     7
  5
5A2
 10
273.420284
 20
-96.359811
 30
0.0
 11
281.770284
 21
-96.359811
 31
0.0
  0
LINE
  8
0
  6
CONTINUOUS
 62
     7
  5
5A3
 10
273.420284
 20
-93.359811
 30
0.0
 11
273.420284
 21
-96.359811
 31
0.0
  0
LINE
  8
0
  6
CONTINUOUS
 62
     7
  5
5A4
 10
295.570284
 20
-93.359811
 30
0.0
 11
273.420284
 21
-93.359811
 31
0.0
  0
LINE
  8
0
  6
CONTINUOUS
 62
     7
  5
5A5
 10
303.920284
 20
-96.359811
 30
0.0
 11
295.570284
 21
-96.359811
 31
0.0
  0
LINE
  8
0
  6
CONTINUOUS
 62
     7
  5
5A6
 10
303.920284
 20
-96.359811
 30
0.0
 11
303.920284
 21
-98.959811
 31
0.0
  0
LINE
  8
0
  6
CONTINUOUS
 62
     7
  5
5A7
 10
281.770284
 20
-98.959811
 30
0.0
 11
303.920284
 21
-98.959811
 31
0.0
  0
LINE
  8
0
  6
CONTINUOUS
 62
     7
  5
5A8
 10
295.570284
 20
-96.359811
 30
0.0
 11
295.570284
 21
-93.359811
 31
0.0
  0
LINE
  8
0
  6
CONTINUOUS
 62
     7
  5
5A9
 10
309.920284
 20
-99.359811
 30
0.0
 11
316.420284
 21
-99.359811
 31
0.0
  0
LINE
  8
0
  6
CONTINUOUS
 62
     7
  5
5AA
 10
309.920284
 20
-98.959811
 30
0.0
 11
309.920284
 21
-99.359811
 31
0.0
  0
LINE
  8
0
  6
CONTINUOUS
 62
     7
  5
5AB
 10
303.920284
 20
-98.959811
 30
0.0
 11
309.920284
 21
-98.959811
 31
0.0
  0
LINE
  8
0
  6
CONTINUOUS
 62
     7
  5
5AC
 10
265.070284
 20
-55.359811
 30
0.0
 11
273.420284
 21
-55.359811
 31
0.0
  0
LINE
  8
0
  6
CONTINUOUS
 62
     7
  5
5AD
 10
273.420284
 20
-93.359811
 30
0.0
 11
265.070284
 21
-93.359811
 31
0.0
  0
LINE
  8
0
  6
CONTINUOUS
 62
     7
  5
5AE
 10
309.920284
 20
-49.359811
 30
0.0
 11
316.420284
 21
-49.359811
 31
0.0
  0
LINE
  8
0
  6
CONTINUOUS
 62
     7
  5
5AF
 10
309.920284
 20
-49.359811
 30
0.0
 11
309.920284
 21
-49.759811
 31
0.0
  0
LINE
  8
0
  6
CONTINUOUS
 62
     7
  5
5B0
 10
309.920284
 20
-49.759811
 30
0.0
 11
303.920284
 21
-49.759811
 31
0.0
  0
LINE
  8
0
  6
CONTINUOUS
 62
     7
  5
5B1
 10
282.170284
 20
-93.359811
 30
0.0
 11
282.170284
 21
-55.359811
 31
0.0
  0
LINE
  8
0
  6
CONTINUOUS
 62
     7
  5
5B2
 10
295.170284
 20
-93.359811
 30
0.0
 11
295.170284
 21
-55.359811
 31
0.0
  0
LINE
  8
0
  6
CONTINUOUS
 62
     7
  5
5B3
 10
278.420284
 20
-99.359811
 30
0.0
 11
278.420284
 21
-98.959811
 31
0.0
  0
LINE
  8
0
  6
CONTINUOUS
 62
     7
  5
5B4
 10
278.420284
 20
-99.359811
 30
0.0
 11
268.420284
 21
-99.359811
 31
0.0
  0
LINE
  8
0
  6
CONTINUOUS
 62
     7
  5
5B5
 10
268.420284
 20
-98.959811
 30
0.0
 11
268.420284
 21
-99.359811
 31
0.0
  0
LINE
  8
0
  6
CONTINUOUS
 62
     7
  5
5B6
 10
278.420284
 20
-49.759811
 30
0.0
 11
278.420284
 21
-49.359811
 31
0.0
  0
LINE
  8
0
  6
CONTINUOUS
 62
     7
  5
5B7
 10
268.420284
 20
-49.359811
 30
0.0
 11
268.420284
 21
-49.759811
 31
0.0
  0
LINE
  8
0
  6
CONTINUOUS
 62
     7
  5
5B8
 10
268.420284
 20
-49.359811
 30
0.0
 11
278.420284
 21
-49.359811
 31
0.0
  0
LINE
  8
0
  6
CONTINUOUS
 62
     7
  5
5B9
 10
273.420284
 20
-49.759811
 30
0.0
 11
273.420284
 21
-52.359811
 31
0.0
  0
LINE
  8
0
  6
CONTINUOUS
 62
     7
  5
5BA
 10
265.070284
 20
-52.359811
 30
0.0
 11
273.420284
 21
-52.359811
 31
0.0
  0
LINE
  8
0
  6
CONTINUOUS
 62
     7
  5
5BB
 10
265.070284
 20
-55.359811
 30
0.0
 11
265.070284
 21
-52.359811
 31
0.0
  0
LINE
  8
0
  6
CONTINUOUS
 62
     7
  5
5BC
 10
242.920284
 20
-55.359811
 30
0.0
 11
265.070284
 21
-55.359811
 31
0.0
  0
LINE
  8
0
  6
CONTINUOUS
 62
     7
  5
5BD
 10
242.920284
 20
-52.359811
 30
0.0
 11
242.920284
 21
-55.359811
 31
0.0
  0
LINE
  8
0
  6
CONTINUOUS
 62
     7
  5
5BE
 10
251.270284
 20
-52.359811
 30
0.0
 11
242.920284
 21
-52.359811
 31
0.0
  0
LINE
  8
0
  6
CONTINUOUS
 62
     7
  5
5BF
 10
273.420284
 20
-49.759811
 30
0.0
 11
251.270284
 21
-49.759811
 31
0.0
  0
LINE
  8
0
  6
CONTINUOUS
 62
     7
  5
5C0
 10
251.270284
 20
-49.759811
 30
0.0
 11
251.270284
 21
-52.359811
 31
0.0
  0
LINE
  8
0
  6
CONTINUOUS
 62
     7
  5
5C1
 10
251.270284
 20
-96.359811
 30
0.0
 11
251.270284
 21
-98.959811
 31
0.0
  0
LINE
  8
0
  6
CONTINUOUS
 62
     7
  5
5C2
 10
273.420284
 20
-96.359811
 30
0.0
 11
273.420284
 21
-98.959811
 31
0.0
  0
LINE
  8
0
  6
CONTINUOUS
 62
     7
  5
5C3
 10
273.420284
 20
-96.359811
 30
0.0
 11
265.070284
 21
-96.359811
 31
0.0
  0
LINE
  8
0
  6
CONTINUOUS
 62
     7
  5
5C4
 10
265.070284
 20
-96.359811
 30
0.0
 11
265.070284
 21
-93.359811
 31
0.0
  0
LINE
  8
0
  6
CONTINUOUS
 62
     7
  5
5C5
 10
265.070284
 20
-93.359811
 30
0.0
 11
242.920284
 21
-93.359811
 31
0.0
  0
LINE
  8
0
  6
CONTINUOUS
 62
     7
  5
5C6
 10
251.270284
 20
-98.959811
 30
0.0
 11
273.420284
 21
-98.959811
 31
0.0
  0
LINE
  8
0
  6
CONTINUOUS
 62
     7
  5
5C7
 10
242.920284
 20
-96.359811
 30
0.0
 11
251.270284
 21
-96.359811
 31
0.0
  0
LINE
  8
0
  6
CONTINUOUS
 62
     7
  5
5C8
 10
242.920284
 20
-93.359811
 30
0.0
 11
242.920284
 21
-96.359811
 31
0.0
  0
LINE
  8
0
  6
CONTINUOUS
 62
     7
  5
5C9
 10
251.670284
 20
-93.359811
 30
0.0
 11
251.670284
 21
-55.359811
 31
0.0
  0
LINE
  8
0
  6
CONTINUOUS
 62
     7
  5
5CA
 10
264.670284
 20
-93.359811
 30
0.0
 11
264.670284
 21
-55.359811
 31
0.0
  0
LINE
  8
0
  6
CONTINUOUS
 62
     7
  5
5CB
 10
234.570284
 20
-55.359811
 30
0.0
 11
242.920284
 21
-55.359811
 31
0.0
  0
LINE
  8
0
  6
CONTINUOUS
 62
     7
  5
5CC
 10
279.420284
 20
-99.359811
 30
0.0
 11
285.920284
 21
-99.359811
 31
0.0
  0
LINE
  8
0
  6
CONTINUOUS
 62
     7
  5
5CD
 10
279.420284
 20
-98.959811
 30
0.0
 11
279.420284
 21
-99.359811
 31
0.0
  0
LINE
  8
0
  6
CONTINUOUS
 62
     7
  5
5CE
 10
273.420284
 20
-98.959811
 30
0.0
 11
279.420284
 21
-98.959811
 31
0.0
  0
LINE
  8
0
  6
CONTINUOUS
 62
     7
  5
5CF
 10
279.420284
 20
-49.359811
 30
0.0
 11
285.920284
 21
-49.359811
 31
0.0
  0
LINE
  8
0
  6
CONTINUOUS
 62
     7
  5
5D0
 10
279.420284
 20
-49.359811
 30
0.0
 11
279.420284
 21
-49.759811
 31
0.0
  0
LINE
  8
0
  6
CONTINUOUS
 62
     7
  5
5D1
 10
279.420284
 20
-49.759811
 30
0.0
 11
273.420284
 21
-49.759811
 31
0.0
  0
LINE
  8
0
  6
CONTINUOUS
 62
     7
  5
5D2
 10
242.920284
 20
-93.359811
 30
0.0
 11
234.570284
 21
-93.359811
 31
0.0
  0
LINE
  8
0
  6
CONTINUOUS
 62
     7
  5
5D3
 10
237.920284
 20
-49.359811
 30
0.0
 11
247.920284
 21
-49.359811
 31
0.0
  0
LINE
  8
0
  6
CONTINUOUS
 62
     7
  5
5D4
 10
247.920284
 20
-49.759811
 30
0.0
 11
247.920284
 21
-49.359811
 31
0.0
  0
LINE
  8
0
  6
CONTINUOUS
 62
     7
  5
5D5
 10
237.920284
 20
-49.359811
 30
0.0
 11
237.920284
 21
-49.759811
 31
0.0
  0
LINE
  8
0
  6
CONTINUOUS
 62
     7
  5
5D6
 10
247.920284
 20
-99.359811
 30
0.0
 11
247.920284
 21
-98.959811
 31
0.0
  0
LINE
  8
0
  6
CONTINUOUS
 62
     7
  5
5D7
 10
237.920284
 20
-98.959811
 30
0.0
 11
237.920284
 21
-99.359811
 31
0.0
  0
LINE
  8
0
  6
CONTINUOUS
 62
     7
  5
5D8
 10
247.920284
 20
-99.359811
 30
0.0
 11
237.920284
 21
-99.359811
 31
0.0
  0
LINE
  8
0
  6
CONTINUOUS
 62
     7
  5
5D9
 10
242.920284
 20
-49.759811
 30
0.0
 11
242.920284
 21
-52.359811
 31
0.0
  0
LINE
  8
0
  6
CONTINUOUS
 62
     7
  5
5DA
 10
234.570284
 20
-52.359811
 30
0.0
 11
242.920284
 21
-52.359811
 31
0.0
  0
LINE
  8
0
  6
CONTINUOUS
 62
     7
  5
5DB
 10
234.570284
 20
-55.359811
 30
0.0
 11
234.570284
 21
-52.359811
 31
0.0
  0
LINE
  8
0
  6
CONTINUOUS
 62
     7
  5
5DC
 10
212.420284
 20
-55.359811
 30
0.0
 11
234.570284
 21
-55.359811
 31
0.0
  0
LINE
  8
0
  6
CONTINUOUS
 62
     7
  5
5DD
 10
212.420284
 20
-52.359811
 30
0.0
 11
212.420284
 21
-55.359811
 31
0.0
  0
LINE
  8
0
  6
CONTINUOUS
 62
     7
  5
5DE
 10
220.770284
 20
-52.359811
 30
0.0
 11
212.420284
 21
-52.359811
 31
0.0
  0
LINE
  8
0
  6
CONTINUOUS
 62
     7
  5
5DF
 10
242.920284
 20
-49.759811
 30
0.0
 11
220.770284
 21
-49.759811
 31
0.0
  0
LINE
  8
0
  6
CONTINUOUS
 62
     7
  5
5E0
 10
220.770284
 20
-49.759811
 30
0.0
 11
220.770284
 21
-52.359811
 31
0.0
  0
LINE
  8
0
  6
CONTINUOUS
 62
     7
  5
5E1
 10
220.770284
 20
-96.359811
 30
0.0
 11
220.770284
 21
-98.959811
 31
0.0
  0
LINE
  8
0
  6
CONTINUOUS
 62
     7
  5
5E2
 10
212.420284
 20
-96.359811
 30
0.0
 11
220.770284
 21
-96.359811
 31
0.0
  0
LINE
  8
0
  6
CONTINUOUS
 62
     7
  5
5E3
 10
212.420284
 20
-93.359811
 30
0.0
 11
212.420284
 21
-96.359811
 31
0.0
  0
LINE
  8
0
  6
CONTINUOUS
 62
     7
  5
5E4
 10
234.570284
 20
-93.359811
 30
0.0
 11
212.420284
 21
-93.359811
 31
0.0
  0
LINE
  8
0
  6
CONTINUOUS
 62
     7
  5
5E5
 10
234.570284
 20
-96.359811
 30
0.0
 11
234.570284
 21
-93.359811
 31
0.0
  0
LINE
  8
0
  6
CONTINUOUS
 62
     7
  5
5E6
 10
242.920284
 20
-96.359811
 30
0.0
 11
234.570284
 21
-96.359811
 31
0.0
  0
LINE
  8
0
  6
CONTINUOUS
 62
     7
  5
5E7
 10
242.920284
 20
-96.359811
 30
0.0
 11
242.920284
 21
-98.959811
 31
0.0
  0
LINE
  8
0
  6
CONTINUOUS
 62
     7
  5
5E8
 10
220.770284
 20
-98.959811
 30
0.0
 11
242.920284
 21
-98.959811
 31
0.0
  0
LINE
  8
0
  6
CONTINUOUS
 62
     7
  5
5E9
 10
248.920284
 20
-99.359811
 30
0.0
 11
255.420284
 21
-99.359811
 31
0.0
  0
LINE
  8
0
  6
CONTINUOUS
 62
     7
  5
5EA
 10
248.920284
 20
-98.959811
 30
0.0
 11
248.920284
 21
-99.359811
 31
0.0
  0
LINE
  8
0
  6
CONTINUOUS
 62
     7
  5
5EB
 10
242.920284
 20
-98.959811
 30
0.0
 11
248.920284
 21
-98.959811
 31
0.0
  0
LINE
  8
0
  6
CONTINUOUS
 62
     7
  5
5EC
 10
221.170284
 20
-93.359811
 30
0.0
 11
221.170284
 21
-55.359811
 31
0.0
  0
LINE
  8
0
  6
CONTINUOUS
 62
     7
  5
5ED
 10
234.170284
 20
-93.359811
 30
0.0
 11
234.170284
 21
-55.359811
 31
0.0
  0
LINE
  8
0
  6
CONTINUOUS
 62
     7
  5
5EE
 10
248.920284
 20
-49.359811
 30
0.0
 11
255.420284
 21
-49.359811
 31
0.0
  0
LINE
  8
0
  6
CONTINUOUS
 62
     7
  5
5EF
 10
248.920284
 20
-49.359811
 30
0.0
 11
248.920284
 21
-49.759811
 31
0.0
  0
LINE
  8
0
  6
CONTINUOUS
 62
     7
  5
5F0
 10
248.920284
 20
-49.759811
 30
0.0
 11
242.920284
 21
-49.759811
 31
0.0
  0
LINE
  8
0
  6
CONTINUOUS
 62
     7
  5
5F1
 10
204.070284
 20
-55.359811
 30
0.0
 11
212.420284
 21
-55.359811
 31
0.0
  0
LINE
  8
0
  6
CONTINUOUS
 62
     7
  5
5F2
 10
212.420284
 20
-93.359811
 30
0.0
 11
204.070284
 21
-93.359811
 31
0.0
  0
LINE
  8
0
  6
CONTINUOUS
 62
     7
  5
5F3
 10
217.420284
 20
-99.359811
 30
0.0
 11
217.420284
 21
-98.959811
 31
0.0
  0
LINE
  8
0
  6
CONTINUOUS
 62
     7
  5
5F4
 10
217.420284
 20
-99.359811
 30
0.0
 11
207.420284
 21
-99.359811
 31
0.0
  0
LINE
  8
0
  6
CONTINUOUS
 62
     7
  5
5F5
 10
207.420284
 20
-98.959811
 30
0.0
 11
207.420284
 21
-99.359811
 31
0.0
  0
LINE
  8
0
  6
CONTINUOUS
 62
     7
  5
5F6
 10
217.420284
 20
-49.759811
 30
0.0
 11
217.420284
 21
-49.359811
 31
0.0
  0
LINE
  8
0
  6
CONTINUOUS
 62
     7
  5
5F7
 10
207.420284
 20
-49.359811
 30
0.0
 11
207.420284
 21
-49.759811
 31
0.0
  0
LINE
  8
0
  6
CONTINUOUS
 62
     7
  5
5F8
 10
207.420284
 20
-49.359811
 30
0.0
 11
217.420284
 21
-49.359811
 31
0.0
  0
LINE
  8
0
  6
CONTINUOUS
 62
     7
  5
5F9
 10
181.920284
 20
-52.359811
 30
0.0
 11
181.920284
 21
-55.359811
 31
0.0
  0
LINE
  8
0
  6
CONTINUOUS
 62
     7
  5
5FA
 10
190.270284
 20
-52.359811
 30
0.0
 11
181.920284
 21
-52.359811
 31
0.0
  0
LINE
  8
0
  6
CONTINUOUS
 62
     7
  5
5FB
 10
190.270284
 20
-49.759811
 30
0.0
 11
190.270284
 21
-52.359811
 31
0.0
  0
LINE
  8
0
  6
CONTINUOUS
 62
     7
  5
5FC
 10
212.420284
 20
-49.759811
 30
0.0
 11
190.270284
 21
-49.759811
 31
0.0
  0
LINE
  8
0
  6
CONTINUOUS
 62
     7
  5
5FD
 10
212.420284
 20
-49.759811
 30
0.0
 11
212.420284
 21
-52.359811
 31
0.0
  0
LINE
  8
0
  6
CONTINUOUS
 62
     7
  5
5FE
 10
204.070284
 20
-52.359811
 30
0.0
 11
212.420284
 21
-52.359811
 31
0.0
  0
LINE
  8
0
  6
CONTINUOUS
 62
     7
  5
5FF
 10
204.070284
 20
-55.359811
 30
0.0
 11
204.070284
 21
-52.359811
 31
0.0
  0
LINE
  8
0
  6
CONTINUOUS
 62
     7
  5
600
 10
181.920284
 20
-55.359811
 30
0.0
 11
204.070284
 21
-55.359811
 31
0.0
  0
LINE
  8
0
  6
CONTINUOUS
 62
     7
  5
601
 10
190.270284
 20
-96.359811
 30
0.0
 11
190.270284
 21
-98.959811
 31
0.0
  0
LINE
  8
0
  6
CONTINUOUS
 62
     7
  5
602
 10
212.420284
 20
-96.359811
 30
0.0
 11
204.070284
 21
-96.359811
 31
0.0
  0
LINE
  8
0
  6
CONTINUOUS
 62
     7
  5
603
 10
212.420284
 20
-96.359811
 30
0.0
 11
212.420284
 21
-98.959811
 31
0.0
  0
LINE
  8
0
  6
CONTINUOUS
 62
     7
  5
604
 10
190.270284
 20
-98.959811
 30
0.0
 11
212.420284
 21
-98.959811
 31
0.0
  0
LINE
  8
0
  6
CONTINUOUS
 62
     7
  5
605
 10
204.070284
 20
-96.359811
 30
0.0
 11
204.070284
 21
-93.359811
 31
0.0
  0
LINE
  8
0
  6
CONTINUOUS
 62
     7
  5
606
 10
181.920284
 20
-96.359811
 30
0.0
 11
190.270284
 21
-96.359811
 31
0.0
  0
LINE
  8
0
  6
CONTINUOUS
 62
     7
  5
607
 10
181.920284
 20
-93.359811
 30
0.0
 11
181.920284
 21
-96.359811
 31
0.0
  0
LINE
  8
0
  6
CONTINUOUS
 62
     7
  5
608
 10
204.070284
 20
-93.359811
 30
0.0
 11
181.920284
 21
-93.359811
 31
0.0
  0
LINE
  8
0
  6
CONTINUOUS
 62
     7
  5
609
 10
181.920284
 20
-93.359811
 30
0.0
 11
173.570284
 21
-93.359811
 31
0.0
  0
LINE
  8
0
  6
CONTINUOUS
 62
     7
  5
60A
 10
218.420284
 20
-49.359811
 30
0.0
 11
224.920284
 21
-49.359811
 31
0.0
  0
LINE
  8
0
  6
CONTINUOUS
 62
     7
  5
60B
 10
218.420284
 20
-49.359811
 30
0.0
 11
218.420284
 21
-49.759811
 31
0.0
  0
LINE
  8
0
  6
CONTINUOUS
 62
     7
  5
60C
 10
218.420284
 20
-49.759811
 30
0.0
 11
212.420284
 21
-49.759811
 31
0.0
  0
LINE
  8
0
  6
CONTINUOUS
 62
     7
  5
60D
 10
190.670284
 20
-93.359811
 30
0.0
 11
190.670284
 21
-55.359811
 31
0.0
  0
LINE
  8
0
  6
CONTINUOUS
 62
     7
  5
60E
 10
203.670284
 20
-93.359811
 30
0.0
 11
203.670284
 21
-55.359811
 31
0.0
  0
LINE
  8
0
  6
CONTINUOUS
 62
     7
  5
60F
 10
173.570284
 20
-55.359811
 30
0.0
 11
181.920284
 21
-55.359811
 31
0.0
  0
LINE
  8
0
  6
CONTINUOUS
 62
     7
  5
610
 10
218.420284
 20
-99.359811
 30
0.0
 11
224.920284
 21
-99.359811
 31
0.0
  0
LINE
  8
0
  6
CONTINUOUS
 62
     7
  5
611
 10
218.420284
 20
-98.959811
 30
0.0
 11
218.420284
 21
-99.359811
 31
0.0
  0
LINE
  8
0
  6
CONTINUOUS
 62
     7
  5
612
 10
212.420284
 20
-98.959811
 30
0.0
 11
218.420284
 21
-98.959811
 31
0.0
  0
LINE
  8
0
  6
CONTINUOUS
 62
     7
  5
613
 10
186.920284
 20
-99.359811
 30
0.0
 11
186.920284
 21
-98.959811
 31
0.0
  0
LINE
  8
0
  6
CONTINUOUS
 62
     7
  5
614
 10
186.920284
 20
-99.359811
 30
0.0
 11
176.920284
 21
-99.359811
 31
0.0
  0
LINE
  8
0
  6
CONTINUOUS
 62
     7
  5
615
 10
176.920284
 20
-98.959811
 30
0.0
 11
176.920284
 21
-99.359811
 31
0.0
  0
LINE
  8
0
  6
CONTINUOUS
 62
     7
  5
616
 10
186.920284
 20
-49.759811
 30
0.0
 11
186.920284
 21
-49.359811
 31
0.0
  0
LINE
  8
0
  6
CONTINUOUS
 62
     7
  5
617
 10
176.920284
 20
-49.359811
 30
0.0
 11
176.920284
 21
-49.759811
 31
0.0
  0
LINE
  8
0
  6
CONTINUOUS
 62
     7
  5
618
 10
176.920284
 20
-49.359811
 30
0.0
 11
186.920284
 21
-49.359811
 31
0.0
  0
LINE
  8
0
  6
CONTINUOUS
 62
     7
  5
619
 10
173.570284
 20
-96.359811
 30
0.0
 11
173.570284
 21
-93.359811
 31
0.0
  0
LINE
  8
0
  6
CONTINUOUS
 62
     7
  5
61A
 10
151.420284
 20
-93.359811
 30
0.0
 11
151.420284
 21
-96.359811
 31
0.0
  0
LINE
  8
0
  6
CONTINUOUS
 62
     7
  5
61B
 10
173.570284
 20
-93.359811
 30
0.0
 11
151.420284
 21
-93.359811
 31
0.0
  0
LINE
  8
0
  6
CONTINUOUS
 62
     7
  5
61C
 10
151.420284
 20
-96.359811
 30
0.0
 11
159.770284
 21
-96.359811
 31
0.0
  0
LINE
  8
0
  6
CONTINUOUS
 62
     7
  5
61D
 10
159.770284
 20
-96.359811
 30
0.0
 11
159.770284
 21
-98.959811
 31
0.0
  0
LINE
  8
0
  6
CONTINUOUS
 62
     7
  5
61E
 10
181.920284
 20
-96.359811
 30
0.0
 11
181.920284
 21
-98.959811
 31
0.0
  0
LINE
  8
0
  6
CONTINUOUS
 62
     7
  5
61F
 10
159.770284
 20
-98.959811
 30
0.0
 11
181.920284
 21
-98.959811
 31
0.0
  0
LINE
  8
0
  6
CONTINUOUS
 62
     7
  5
620
 10
181.920284
 20
-96.359811
 30
0.0
 11
173.570284
 21
-96.359811
 31
0.0
  0
LINE
  8
0
  6
CONTINUOUS
 62
     7
  5
621
 10
159.770284
 20
-49.759811
 30
0.0
 11
159.770284
 21
-52.359811
 31
0.0
  0
LINE
  8
0
  6
CONTINUOUS
 62
     7
  5
622
 10
181.920284
 20
-49.759811
 30
0.0
 11
159.770284
 21
-49.759811
 31
0.0
  0
LINE
  8
0
  6
CONTINUOUS
 62
     7
  5
623
 10
181.920284
 20
-49.759811
 30
0.0
 11
181.920284
 21
-52.359811
 31
0.0
  0
LINE
  8
0
  6
CONTINUOUS
 62
     7
  5
624
 10
151.420284
 20
-55.359811
 30
0.0
 11
173.570284
 21
-55.359811
 31
0.0
  0
LINE
  8
0
  6
CONTINUOUS
 62
     7
  5
625
 10
173.570284
 20
-55.359811
 30
0.0
 11
173.570284
 21
-52.359811
 31
0.0
  0
LINE
  8
0
  6
CONTINUOUS
 62
     7
  5
626
 10
159.770284
 20
-52.359811
 30
0.0
 11
151.420284
 21
-52.359811
 31
0.0
  0
LINE
  8
0
  6
CONTINUOUS
 62
     7
  5
627
 10
173.570284
 20
-52.359811
 30
0.0
 11
181.920284
 21
-52.359811
 31
0.0
  0
LINE
  8
0
  6
CONTINUOUS
 62
     7
  5
628
 10
151.420284
 20
-52.359811
 30
0.0
 11
151.420284
 21
-55.359811
 31
0.0
  0
LINE
  8
0
  6
CONTINUOUS
 62
     7
  5
629
 10
160.170284
 20
-93.359811
 30
0.0
 11
160.170284
 21
-55.359811
 31
0.0
  0
LINE
  8
0
  6
CONTINUOUS
 62
     7
  5
62A
 10
173.170284
 20
-93.359811
 30
0.0
 11
173.170284
 21
-55.359811
 31
0.0
  0
LINE
  8
0
  6
CONTINUOUS
 62
     7
  5
62B
 10
187.920284
 20
-49.359811
 30
0.0
 11
194.420284
 21
-49.359811
 31
0.0
  0
LINE
  8
0
  6
CONTINUOUS
 62
     7
  5
62C
 10
187.920284
 20
-49.359811
 30
0.0
 11
187.920284
 21
-49.759811
 31
0.0
  0
LINE
  8
0
  6
CONTINUOUS
 62
     7
  5
62D
 10
187.920284
 20
-49.759811
 30
0.0
 11
181.920284
 21
-49.759811
 31
0.0
  0
LINE
  8
0
  6
CONTINUOUS
 62
     7
  5
62E
 10
143.070284
 20
-55.359811
 30
0.0
 11
151.420284
 21
-55.359811
 31
0.0
  0
LINE
  8
0
  6
CONTINUOUS
 62
     7
  5
62F
 10
187.920284
 20
-99.359811
 30
0.0
 11
194.420284
 21
-99.359811
 31
0.0
  0
LINE
  8
0
  6
CONTINUOUS
 62
     7
  5
630
 10
187.920284
 20
-98.959811
 30
0.0
 11
187.920284
 21
-99.359811
 31
0.0
  0
LINE
  8
0
  6
CONTINUOUS
 62
     7
  5
631
 10
181.920284
 20
-98.959811
 30
0.0
 11
187.920284
 21
-98.959811
 31
0.0
  0
LINE
  8
0
  6
CONTINUOUS
 62
     7
  5
632
 10
151.420284
 20
-93.359811
 30
0.0
 11
143.070284
 21
-93.359811
 31
0.0
  0
LINE
  8
0
  6
CONTINUOUS
 62
     7
  5
633
 10
146.420284
 20
-49.359811
 30
0.0
 11
156.420284
 21
-49.359811
 31
0.0
  0
LINE
  8
0
  6
CONTINUOUS
 62
     7
  5
634
 10
156.420284
 20
-49.759811
 30
0.0
 11
156.420284
 21
-49.359811
 31
0.0
  0
LINE
  8
0
  6
CONTINUOUS
 62
     7
  5
635
 10
146.420284
 20
-49.359811
 30
0.0
 11
146.420284
 21
-49.759811
 31
0.0
  0
LINE
  8
0
  6
CONTINUOUS
 62
     7
  5
636
 10
156.420284
 20
-99.359811
 30
0.0
 11
156.420284
 21
-98.959811
 31
0.0
  0
LINE
  8
0
  6
CONTINUOUS
 62
     7
  5
637
 10
146.420284
 20
-98.959811
 30
0.0
 11
146.420284
 21
-99.359811
 31
0.0
  0
LINE
  8
0
  6
CONTINUOUS
 62
     7
  5
638
 10
156.420284
 20
-99.359811
 30
0.0
 11
146.420284
 21
-99.359811
 31
0.0
  0
LINE
  8
0
  6
CONTINUOUS
 62
     7
  5
639
 10
151.420284
 20
-49.759811
 30
0.0
 11
151.420284
 21
-52.359811
 31
0.0
  0
LINE
  8
0
  6
CONTINUOUS
 62
     7
  5
63A
 10
143.070284
 20
-55.359811
 30
0.0
 11
143.070284
 21
-52.359811
 31
0.0
  0
LINE
  8
0
  6
CONTINUOUS
 62
     7
  5
63B
 10
120.920284
 20
-55.359811
 30
0.0
 11
143.070284
 21
-55.359811
 31
0.0
  0
LINE
  8
0
  6
CONTINUOUS
 62
     7
  5
63C
 10
120.920284
 20
-52.359811
 30
0.0
 11
120.920284
 21
-55.359811
 31
0.0
  0
LINE
  8
0
  6
CONTINUOUS
 62
     7
  5
63D
 10
129.270284
 20
-49.759811
 30
0.0
 11
129.270284
 21
-52.359811
 31
0.0
  0
LINE
  8
0
  6
CONTINUOUS
 62
     7
  5
63E
 10
151.420284
 20
-49.759811
 30
0.0
 11
129.270284
 21
-49.759811
 31
0.0
  0
LINE
  8
0
  6
CONTINUOUS
 62
     7
  5
63F
 10
129.270284
 20
-52.359811
 30
0.0
 11
120.920284
 21
-52.359811
 31
0.0
  0
LINE
  8
0
  6
CONTINUOUS
 62
     7
  5
640
 10
143.070284
 20
-52.359811
 30
0.0
 11
151.420284
 21
-52.359811
 31
0.0
  0
LINE
  8
0
  6
CONTINUOUS
 62
     7
  5
641
 10
129.270284
 20
-96.359811
 30
0.0
 11
129.270284
 21
-98.959811
 31
0.0
  0
LINE
  8
0
  6
CONTINUOUS
 62
     7
  5
642
 10
120.920284
 20
-93.359811
 30
0.0
 11
120.920284
 21
-96.359811
 31
0.0
  0
LINE
  8
0
  6
CONTINUOUS
 62
     7
  5
643
 10
143.070284
 20
-93.359811
 30
0.0
 11
120.920284
 21
-93.359811
 31
0.0
  0
LINE
  8
0
  6
CONTINUOUS
 62
     7
  5
644
 10
143.070284
 20
-96.359811
 30
0.0
 11
143.070284
 21
-93.359811
 31
0.0
  0
LINE
  8
0
  6
CONTINUOUS
 62
     7
  5
645
 10
151.420284
 20
-96.359811
 30
0.0
 11
151.420284
 21
-98.959811
 31
0.0
  0
LINE
  8
0
  6
CONTINUOUS
 62
     7
  5
646
 10
129.270284
 20
-98.959811
 30
0.0
 11
151.420284
 21
-98.959811
 31
0.0
  0
LINE
  8
0
  6
CONTINUOUS
 62
     7
  5
647
 10
120.920284
 20
-96.359811
 30
0.0
 11
129.270284
 21
-96.359811
 31
0.0
  0
LINE
  8
0
  6
CONTINUOUS
 62
     7
  5
648
 10
151.420284
 20
-96.359811
 30
0.0
 11
143.070284
 21
-96.359811
 31
0.0
  0
LINE
  8
0
  6
CONTINUOUS
 62
     7
  5
649
 10
157.420284
 20
-49.359811
 30
0.0
 11
163.920284
 21
-49.359811
 31
0.0
  0
LINE
  8
0
  6
CONTINUOUS
 62
     7
  5
64A
 10
157.420284
 20
-49.359811
 30
0.0
 11
157.420284
 21
-49.759811
 31
0.0
  0
LINE
  8
0
  6
CONTINUOUS
 62
     7
  5
64B
 10
157.420284
 20
-49.759811
 30
0.0
 11
151.420284
 21
-49.759811
 31
0.0
  0
LINE
  8
0
  6
CONTINUOUS
 62
     7
  5
64C
 10
157.420284
 20
-99.359811
 30
0.0
 11
163.920284
 21
-99.359811
 31
0.0
  0
LINE
  8
0
  6
CONTINUOUS
 62
     7
  5
64D
 10
157.420284
 20
-98.959811
 30
0.0
 11
157.420284
 21
-99.359811
 31
0.0
  0
LINE
  8
0
  6
CONTINUOUS
 62
     7
  5
64E
 10
151.420284
 20
-98.959811
 30
0.0
 11
157.420284
 21
-98.959811
 31
0.0
  0
LINE
  8
0
  6
CONTINUOUS
 62
     7
  5
64F
 10
142.670284
 20
-93.359811
 30
0.0
 11
142.670284
 21
-55.359811
 31
0.0
  0
LINE
  8
0
  6
CONTINUOUS
 62
     7
  5
650
 10
129.670284
 20
-93.359811
 30
0.0
 11
129.670284
 21
-55.359811
 31
0.0
  0
LINE
  8
0
  6
CONTINUOUS
 62
     7
  5
651
 10
111.725238
 20
-55.359811
 30
0.0
 11
120.920284
 21
-55.359811
 31
0.0
  0
LINE
  8
0
  6
CONTINUOUS
 62
     7
  5
652
 10
120.920284
 20
-52.359811
 30
0.0
 11
119.787172
 21
-52.359811
 31
0.0
  0
LINE
  8
0
  6
CONTINUOUS
 62
     7
  5
653
 10
119.787172
 20
-96.359811
 30
0.0
 11
120.920284
 21
-96.359811
 31
0.0
  0
LINE
  8
0
  6
CONTINUOUS
 62
     7
  5
654
 10
120.920284
 20
-93.359811
 30
0.0
 11
111.725238
 21
-93.359811
 31
0.0
  0
LINE
  8
0
  6
CONTINUOUS
 62
     7
  5
655
 10
115.920284
 20
-49.359811
 30
0.0
 11
115.920284
 21
-49.759811
 31
0.0
  0
LINE
  8
0
  6
CONTINUOUS
 62
     7
  5
656
 10
115.920284
 20
-49.359811
 30
0.0
 11
125.901538
 21
-49.359811
 31
0.0
  0
LINE
  8
0
  6
CONTINUOUS
 62
     7
  5
657
 10
115.920284
 20
-98.959811
 30
0.0
 11
115.920284
 21
-99.359811
 31
0.0
  0
LINE
  8
0
  6
CONTINUOUS
 62
     7
  5
658
 10
125.901538
 20
-99.359811
 30
0.0
 11
115.920284
 21
-99.359811
 31
0.0
  0
LINE
  8
0
  6
CONTINUOUS
 62
     7
  5
659
 10
119.787172
 20
-49.759811
 30
0.0
 11
119.787172
 21
-52.359811
 31
0.0
  0
LINE
  8
0
  6
CONTINUOUS
 62
     7
  5
65A
 10
119.759977
 20
-49.759811
 30
0.0
 11
119.759977
 21
-52.359811
 31
0.0
  0
LINE
  8
0
  6
CONTINUOUS
 62
     7
  5
65B
 10
119.787172
 20
-49.759811
 30
0.0
 11
119.759977
 21
-49.759811
 31
0.0
  0
LINE
  8
0
  6
CONTINUOUS
 62
     7
  5
65C
 10
119.759977
 20
-52.359811
 30
0.0
 11
119.787172
 21
-52.359811
 31
0.0
  0
LINE
  8
0
  6
CONTINUOUS
 62
     7
  5
65D
 10
97.701171
 20
-96.359811
 30
0.0
 11
97.701171
 21
-98.959811
 31
0.0
  0
LINE
  8
0
  6
CONTINUOUS
 62
     7
  5
65E
 10
89.385548
 20
-96.359811
 30
0.0
 11
97.701171
 21
-96.359811
 31
0.0
  0
LINE
  8
0
  6
CONTINUOUS
 62
     7
  5
65F
 10
89.385548
 20
-93.359811
 30
0.0
 11
89.385548
 21
-96.359811
 31
0.0
  0
LINE
  8
0
  6
CONTINUOUS
 62
     7
  5
660
 10
111.444355
 20
-93.359811
 30
0.0
 11
89.385548
 21
-93.359811
 31
0.0
  0
LINE
  8
0
  6
CONTINUOUS
 62
     7
  5
661
 10
111.444355
 20
-96.359811
 30
0.0
 11
111.444355
 21
-93.359811
 31
0.0
  0
LINE
  8
0
  6
CONTINUOUS
 62
     7
  5
662
 10
119.759977
 20
-96.359811
 30
0.0
 11
119.759977
 21
-98.959811
 31
0.0
  0
LINE
  8
0
  6
CONTINUOUS
 62
     7
  5
663
 10
119.759977
 20
-96.359811
 30
0.0
 11
111.444355
 21
-96.359811
 31
0.0
  0
LINE
  8
0
  6
CONTINUOUS
 62
     7
  5
664
 10
97.701171
 20
-98.959811
 30
0.0
 11
119.759977
 21
-98.959811
 31
0.0
  0
LINE
  8
0
  6
CONTINUOUS
 62
     7
  5
665
 10
119.787172
 20
-96.359811
 30
0.0
 11
119.787172
 21
-98.959811
 31
0.0
  0
LINE
  8
0
  6
CONTINUOUS
 62
     7
  5
666
 10
119.787172
 20
-96.359811
 30
0.0
 11
119.759977
 21
-96.359811
 31
0.0
  0
LINE
  8
0
  6
CONTINUOUS
 62
     7
  5
667
 10
119.759977
 20
-98.959811
 30
0.0
 11
119.787172
 21
-98.959811
 31
0.0
  0
LINE
  8
0
  6
CONTINUOUS
 62
     7
  5
668
 10
111.444355
 20
-55.359811
 30
0.0
 11
111.444355
 21
-52.359811
 31
0.0
  0
LINE
  8
0
  6
CONTINUOUS
 62
     7
  5
669
 10
89.385548
 20
-55.359811
 30
0.0
 11
111.444355
 21
-55.359811
 31
0.0
  0
LINE
  8
0
  6
CONTINUOUS
 62
     7
  5
66A
 10
89.385548
 20
-52.359811
 30
0.0
 11
89.385548
 21
-55.359811
 31
0.0
  0
LINE
  8
0
  6
CONTINUOUS
 62
     7
  5
66B
 10
97.701171
 20
-52.359811
 30
0.0
 11
89.385548
 21
-52.359811
 31
0.0
  0
LINE
  8
0
  6
CONTINUOUS
 62
     7
  5
66C
 10
97.701171
 20
-49.759811
 30
0.0
 11
97.701171
 21
-52.359811
 31
0.0
  0
LINE
  8
0
  6
CONTINUOUS
 62
     7
  5
66D
 10
119.759977
 20
-49.759811
 30
0.0
 11
97.701171
 21
-49.759811
 31
0.0
  0
LINE
  8
0
  6
CONTINUOUS
 62
     7
  5
66E
 10
111.444355
 20
-52.359811
 30
0.0
 11
119.759977
 21
-52.359811
 31
0.0
  0
LINE
  8
0
  6
CONTINUOUS
 62
     7
  5
66F
 10
125.901538
 20
-99.359811
 30
0.0
 11
133.420284
 21
-99.359811
 31
0.0
  0
LINE
  8
0
  6
CONTINUOUS
 62
     7
  5
670
 10
125.901538
 20
-98.959811
 30
0.0
 11
125.901538
 21
-99.359811
 31
0.0
  0
LINE
  8
0
  6
CONTINUOUS
 62
     7
  5
671
 10
120.920284
 20
-96.359811
 30
0.0
 11
119.787172
 21
-96.359811
 31
0.0
  0
LINE
  8
0
  6
CONTINUOUS
 62
     7
  5
672
 10
119.787172
 20
-98.959811
 30
0.0
 11
125.901538
 21
-98.959811
 31
0.0
  0
LINE
  8
0
  6
CONTINUOUS
 62
     7
  5
673
 10
125.901538
 20
-49.359811
 30
0.0
 11
133.420284
 21
-49.359811
 31
0.0
  0
LINE
  8
0
  6
CONTINUOUS
 62
     7
  5
674
 10
125.901538
 20
-49.359811
 30
0.0
 11
125.901538
 21
-49.759811
 31
0.0
  0
LINE
  8
0
  6
CONTINUOUS
 62
     7
  5
675
 10
125.901538
 20
-49.759811
 30
0.0
 11
119.787172
 21
-49.759811
 31
0.0
  0
LINE
  8
0
  6
CONTINUOUS
 62
     7
  5
676
 10
119.787172
 20
-52.359811
 30
0.0
 11
120.920284
 21
-52.359811
 31
0.0
  0
LINE
  8
0
  6
CONTINUOUS
 62
     7
  5
677
 10
111.725238
 20
-93.359811
 30
0.0
 11
111.725238
 21
-96.354811
 31
0.0
  0
LINE
  8
0
  6
CONTINUOUS
 62
     7
  5
678
 10
111.444355
 20
-93.359811
 30
0.0
 11
111.725238
 21
-93.359811
 31
0.0
  0
LINE
  8
0
  6
CONTINUOUS
 62
     7
  5
679
 10
111.725238
 20
-52.364811
 30
0.0
 11
111.725238
 21
-55.359811
 31
0.0
  0
LINE
  8
0
  6
CONTINUOUS
 62
     7
  5
67A
 10
111.725238
 20
-55.359811
 30
0.0
 11
111.444355
 21
-55.359811
 31
0.0
  0
LINE
  8
0
  6
CONTINUOUS
 62
     7
  5
67B
 10
98.126719
 20
-93.359811
 30
0.0
 11
98.126719
 21
-55.359811
 31
0.0
  0
LINE
  8
0
  6
CONTINUOUS
 62
     7
  5
67C
 10
111.073196
 20
-93.359811
 30
0.0
 11
111.073196
 21
-55.359811
 31
0.0
  0
LINE
  8
0
  6
CONTINUOUS
 62
     7
  5
67D
 10
111.359444
 20
-93.359811
 30
0.0
 11
111.359444
 21
-55.359811
 31
0.0
  0
LINE
  8
0
  6
CONTINUOUS
 62
     7
  5
67E
 10
82.407837
 20
-96.359811
 30
0.0
 11
82.598572
 21
-96.359811
 31
0.0
  0
LINE
  8
0
  6
CONTINUOUS
 62
     7
  5
67F
 10
82.598572
 20
-96.359811
 30
0.0
 11
85.688382
 21
-96.359811
 31
0.0
  0
LINE
  8
0
  6
CONTINUOUS
 62
     7
  5
680
 10
85.688382
 20
-96.359811
 30
0.0
 11
89.412743
 21
-96.359811
 31
0.0
  0
LINE
  8
0
  6
CONTINUOUS
 62
     7
  5
681
 10
89.412743
 20
-93.359811
 30
0.0
 11
78.045855
 21
-93.359811
 31
0.0
  0
LINE
  8
0
  6
CONTINUOUS
 62
     7
  5
682
 10
78.045855
 20
-55.359811
 30
0.0
 11
89.412743
 21
-55.359811
 31
0.0
  0
LINE
  8
0
  6
CONTINUOUS
 62
     7
  5
683
 10
89.412743
 20
-52.359811
 30
0.0
 11
85.688382
 21
-52.359811
 31
0.0
  0
LINE
  8
0
  6
CONTINUOUS
 62
     7
  5
684
 10
85.688382
 20
-52.359811
 30
0.0
 11
82.598572
 21
-52.359811
 31
0.0
  0
LINE
  8
0
  6
CONTINUOUS
 62
     7
  5
685
 10
82.598572
 20
-52.359811
 30
0.0
 11
82.407837
 21
-52.359811
 31
0.0
  0
LINE
  8
0
  6
CONTINUOUS
 62
     7
  5
686
 10
88.205163
 20
-99.359811
 30
0.0
 11
85.545855
 21
-99.359811
 31
0.0
  0
LINE
  8
0
  6
CONTINUOUS
 62
     7
  5
687
 10
85.545855
 20
-49.359811
 30
0.0
 11
88.205163
 21
-49.359811
 31
0.0
  0
LINE
  8
0
  6
CONTINUOUS
 62
     7
  5
688
 10
47.397689
 20
-52.364811
 30
0.0
 11
47.449956
 21
-52.364811
 31
0.0
  0
LINE
  8
0
  6
CONTINUOUS
 62
     7
  5
689
 10
47.447366
 20
-49.759811
 30
0.0
 11
47.397689
 21
-49.759811
 31
0.0
  0
LINE
  8
0
  6
CONTINUOUS
 62
     7
  5
68A
 10
47.447366
 20
-49.359811
 30
0.0
 11
47.447366
 21
-49.759811
 31
0.0
  0
LINE
  8
0
  6
CONTINUOUS
 62
     7
  5
68B
 10
47.447366
 20
-49.359811
 30
0.0
 11
57.737751
 21
-49.359811
 31
0.0
  0
LINE
  8
0
  6
CONTINUOUS
 62
     7
  5
68C
 10
47.397689
 20
-98.959811
 30
0.0
 11
47.447366
 21
-98.959811
 31
0.0
  0
LINE
  8
0
  6
CONTINUOUS
 62
     7
  5
68D
 10
47.447366
 20
-98.959811
 30
0.0
 11
47.447366
 21
-99.359811
 31
0.0
  0
LINE
  8
0
  6
CONTINUOUS
 62
     7
  5
68E
 10
47.447366
 20
-99.359811
 30
0.0
 11
57.737751
 21
-99.359811
 31
0.0
  0
LINE
  8
0
  6
CONTINUOUS
 62
     7
  5
68F
 10
47.449956
 20
-96.354811
 30
0.0
 11
47.397689
 21
-96.354811
 31
0.0
  0
LINE
  8
0
  6
CONTINUOUS
 62
     7
  5
690
 10
78.653606
 20
-78.359811
 30
0.0
 11
77.852373
 21
-76.845654
 31
0.0
  0
LINE
  8
0
  6
CONTINUOUS
 62
     7
  5
691
 10
78.653606
 20
-78.359811
 30
0.0
 11
77.852373
 21
-78.359811
 31
0.0
  0
LINE
  8
0
  6
CONTINUOUS
 62
     7
  5
692
 10
78.653606
 20
-93.359811
 30
0.0
 11
78.653606
 21
-78.359811
 31
0.0
  0
LINE
  8
0
  6
CONTINUOUS
 62
     7
  5
693
 10
78.653606
 20
-55.359811
 30
0.0
 11
78.653606
 21
-73.359811
 31
0.0
  0
LINE
  8
0
  6
CONTINUOUS
 62
     7
  5
694
 10
77.852373
 20
-73.359811
 30
0.0
 11
78.653606
 21
-73.359811
 31
0.0
  0
LINE
  8
0
  6
CONTINUOUS
 62
     7
  5
695
 10
60.256351
 20
-93.359811
 30
0.0
 11
60.256351
 21
-55.359811
 31
0.0
  0
LINE
  8
0
  6
CONTINUOUS
 62
     7
  5
696
 10
79.065884
 20
-99.359811
 30
0.0
 11
79.065884
 21
-98.959811
 31
0.0
  0
LINE
  8
0
  6
CONTINUOUS
 62
     7
  5
697
 10
57.737751
 20
-98.959811
 30
0.0
 11
57.737751
 21
-99.359811
 31
0.0
  0
LINE
  8
0
  6
CONTINUOUS
 62
     7
  5
698
 10
54.847889
 20
-98.959811
 30
0.0
 11
57.737751
 21
-98.959811
 31
0.0
  0
LINE
  8
0
  6
CONTINUOUS
 62
     7
  5
699
 10
54.847889
 20
-96.359811
 30
0.0
 11
54.847889
 21
-98.959811
 31
0.0
  0
LINE
  8
0
  6
CONTINUOUS
 62
     7
  5
69A
 10
56.175534
 20
-96.359811
 30
0.0
 11
54.847889
 21
-96.359811
 31
0.0
  0
LINE
  8
0
  6
CONTINUOUS
 62
     7
  5
69B
 10
56.175534
 20
-96.354811
 30
0.0
 11
56.175534
 21
-96.359811
 31
0.0
  0
LINE
  8
0
  6
CONTINUOUS
 62
     7
  5
69C
 10
57.737751
 20
-99.359811
 30
0.0
 11
79.065884
 21
-99.359811
 31
0.0
  0
LINE
  8
0
  6
CONTINUOUS
 62
     7
  5
69D
 10
58.86586
 20
-96.354811
 30
0.0
 11
56.175534
 21
-96.354811
 31
0.0
  0
LINE
  8
0
  6
CONTINUOUS
 62
     7
  5
69E
 10
79.065884
 20
-49.759811
 30
0.0
 11
79.065884
 21
-49.359811
 31
0.0
  0
LINE
  8
0
  6
CONTINUOUS
 62
     7
  5
69F
 10
56.175534
 20
-52.359811
 30
0.0
 11
56.175534
 21
-52.364811
 31
0.0
  0
LINE
  8
0
  6
CONTINUOUS
 62
     7
  5
6A0
 10
54.847889
 20
-52.359811
 30
0.0
 11
56.175534
 21
-52.359811
 31
0.0
  0
LINE
  8
0
  6
CONTINUOUS
 62
     7
  5
6A1
 10
54.847889
 20
-49.759811
 30
0.0
 11
54.847889
 21
-52.359811
 31
0.0
  0
LINE
  8
0
  6
CONTINUOUS
 62
     7
  5
6A2
 10
57.737751
 20
-49.759811
 30
0.0
 11
54.847889
 21
-49.759811
 31
0.0
  0
LINE
  8
0
  6
CONTINUOUS
 62
     7
  5
6A3
 10
57.737751
 20
-49.359811
 30
0.0
 11
57.737751
 21
-49.759811
 31
0.0
  0
LINE
  8
0
  6
CONTINUOUS
 62
     7
  5
6A4
 10
56.175534
 20
-52.364811
 30
0.0
 11
58.86586
 21
-52.364811
 31
0.0
  0
LINE
  8
0
  6
CONTINUOUS
 62
     7
  5
6A5
 10
57.737751
 20
-49.359811
 30
0.0
 11
79.065884
 21
-49.359811
 31
0.0
  0
LINE
  8
0
  6
CONTINUOUS
 62
     7
  5
6A6
 10
54.556145
 20
-49.759811
 30
0.0
 11
54.556145
 21
-52.359811
 31
0.0
  0
LINE
  8
0
  6
CONTINUOUS
 62
     7
  5
6A7
 10
52.61068
 20
-55.359811
 30
0.0
 11
52.61068
 21
-52.359811
 31
0.0
  0
LINE
  8
0
  6
CONTINUOUS
 62
     7
  5
6A8
 10
47.449956
 20
-55.359811
 30
0.0
 11
52.61068
 21
-55.359811
 31
0.0
  0
LINE
  8
0
  6
CONTINUOUS
 62
     7
  5
6A9
 10
47.449956
 20
-52.359811
 30
0.0
 11
47.449956
 21
-55.359811
 31
0.0
  0
LINE
  8
0
  6
CONTINUOUS
 62
     7
  5
6AA
 10
49.395421
 20
-52.359811
 30
0.0
 11
47.449956
 21
-52.359811
 31
0.0
  0
LINE
  8
0
  6
CONTINUOUS
 62
     7
  5
6AB
 10
49.395421
 20
-49.759811
 30
0.0
 11
49.395421
 21
-52.359811
 31
0.0
  0
LINE
  8
0
  6
CONTINUOUS
 62
     7
  5
6AC
 10
52.61068
 20
-52.359811
 30
0.0
 11
54.556145
 21
-52.359811
 31
0.0
  0
LINE
  8
0
  6
CONTINUOUS
 62
     7
  5
6AD
 10
54.556145
 20
-49.759811
 30
0.0
 11
49.395421
 21
-49.759811
 31
0.0
  0
LINE
  8
0
  6
CONTINUOUS
 62
     7
  5
6AE
 10
54.556145
 20
-52.359811
 30
0.0
 11
54.847889
 21
-52.359811
 31
0.0
  0
LINE
  8
0
  6
CONTINUOUS
 62
     7
  5
6AF
 10
54.847889
 20
-49.759811
 30
0.0
 11
54.556145
 21
-49.759811
 31
0.0
  0
LINE
  8
0
  6
CONTINUOUS
 62
     7
  5
6B0
 10
54.556145
 20
-96.359811
 30
0.0
 11
54.556145
 21
-98.959811
 31
0.0
  0
LINE
  8
0
  6
CONTINUOUS
 62
     7
  5
6B1
 10
54.847889
 20
-96.359811
 30
0.0
 11
54.556145
 21
-96.359811
 31
0.0
  0
LINE
  8
0
  6
CONTINUOUS
 62
     7
  5
6B2
 10
54.556145
 20
-98.959811
 30
0.0
 11
54.847889
 21
-98.959811
 31
0.0
  0
LINE
  8
0
  6
CONTINUOUS
 62
     7
  5
6B3
 10
49.395421
 20
-96.359811
 30
0.0
 11
49.395421
 21
-98.959811
 31
0.0
  0
LINE
  8
0
  6
CONTINUOUS
 62
     7
  5
6B4
 10
47.449956
 20
-96.359811
 30
0.0
 11
49.395421
 21
-96.359811
 31
0.0
  0
LINE
  8
0
  6
CONTINUOUS
 62
     7
  5
6B5
 10
47.449956
 20
-93.359811
 30
0.0
 11
47.449956
 21
-96.359811
 31
0.0
  0
LINE
  8
0
  6
CONTINUOUS
 62
     7
  5
6B6
 10
52.61068
 20
-93.359811
 30
0.0
 11
47.449956
 21
-93.359811
 31
0.0
  0
LINE
  8
0
  6
CONTINUOUS
 62
     7
  5
6B7
 10
52.61068
 20
-96.359811
 30
0.0
 11
52.61068
 21
-93.359811
 31
0.0
  0
LINE
  8
0
  6
CONTINUOUS
 62
     7
  5
6B8
 10
54.556145
 20
-96.359811
 30
0.0
 11
52.61068
 21
-96.359811
 31
0.0
  0
LINE
  8
0
  6
CONTINUOUS
 62
     7
  5
6B9
 10
49.395421
 20
-98.959811
 30
0.0
 11
54.556145
 21
-98.959811
 31
0.0
  0
LINE
  8
0
  6
CONTINUOUS
 62
     7
  5
6BA
 10
52.61068
 20
-93.359811
 30
0.0
 11
54.503878
 21
-93.359811
 31
0.0
  0
LINE
  8
0
  6
CONTINUOUS
 62
     7
  5
6BB
 10
54.503878
 20
-55.359811
 30
0.0
 11
52.61068
 21
-55.359811
 31
0.0
  0
LINE
  8
0
  6
CONTINUOUS
 62
     7
  5
6BC
 10
49.78036
 20
-93.359811
 30
0.0
 11
49.78036
 21
-55.359811
 31
0.0
  0
LINE
  8
0
  6
CONTINUOUS
 62
     7
  5
6BD
 10
52.809228
 20
-93.359811
 30
0.0
 11
52.809228
 21
-55.359811
 31
0.0
  0
LINE
  8
0
  6
CONTINUOUS
 62
     7
  5
6BE
 10
55.880081
 20
-93.359811
 30
0.0
 11
55.880081
 21
-55.359811
 31
0.0
  0
LINE
  8
0
  6
CONTINUOUS
 62
     7
  5
6BF
 10
56.057021
 20
-55.359811
 30
0.0
 11
56.057021
 21
-93.359811
 31
0.0
  0
LINE
  8
0
  6
CONTINUOUS
 62
     7
  5
6C0
 10
47.397689
 20
-96.359811
 30
0.0
 11
47.449956
 21
-96.359811
 31
0.0
  0
LINE
  8
0
  6
CONTINUOUS
 62
     7
  5
6C1
 10
47.449956
 20
-93.359811
 30
0.0
 11
47.397689
 21
-93.359811
 31
0.0
  0
LINE
  8
0
  6
CONTINUOUS
 62
     7
  5
6C2
 10
47.397689
 20
-55.359811
 30
0.0
 11
47.449956
 21
-55.359811
 31
0.0
  0
LINE
  8
0
  6
CONTINUOUS
 62
     7
  5
6C3
 10
47.449956
 20
-52.359811
 30
0.0
 11
47.397689
 21
-52.359811
 31
0.0
  0
LINE
  8
0
  6
CONTINUOUS
 62
     7
  5
6C4
 10
88.205163
 20
-49.359811
 30
0.0
 11
103.045855
 21
-49.359811
 31
0.0
  0
LINE
  8
0
  6
CONTINUOUS
 62
     7
  5
6C5
 10
85.665939
 20
-52.364811
 30
0.0
 11
89.385548
 21
-52.364811
 31
0.0
  0
LINE
  8
0
  6
CONTINUOUS
 62
     7
  5
6C6
 10
85.665939
 20
-52.359811
 30
0.0
 11
85.665939
 21
-52.364811
 31
0.0
  0
LINE
  8
0
  6
CONTINUOUS
 62
     7
  5
6C7
 10
82.598572
 20
-52.359811
 30
0.0
 11
85.665939
 21
-52.359811
 31
0.0
  0
LINE
  8
0
  6
CONTINUOUS
 62
     7
  5
6C8
 10
82.598572
 20
-49.759811
 30
0.0
 11
82.598572
 21
-52.359811
 31
0.0
  0
LINE
  8
0
  6
CONTINUOUS
 62
     7
  5
6C9
 10
88.205163
 20
-49.759811
 30
0.0
 11
82.598572
 21
-49.759811
 31
0.0
  0
LINE
  8
0
  6
CONTINUOUS
 62
     7
  5
6CA
 10
88.205163
 20
-49.359811
 30
0.0
 11
88.205163
 21
-49.759811
 31
0.0
  0
LINE
  8
0
  6
CONTINUOUS
 62
     7
  5
6CB
 10
89.385548
 20
-96.354811
 30
0.0
 11
85.665939
 21
-96.354811
 31
0.0
  0
LINE
  8
0
  6
CONTINUOUS
 62
     7
  5
6CC
 10
88.205163
 20
-98.959811
 30
0.0
 11
88.205163
 21
-99.359811
 31
0.0
  0
LINE
  8
0
  6
CONTINUOUS
 62
     7
  5
6CD
 10
82.598572
 20
-98.959811
 30
0.0
 11
88.205163
 21
-98.959811
 31
0.0
  0
LINE
  8
0
  6
CONTINUOUS
 62
     7
  5
6CE
 10
82.598572
 20
-96.359811
 30
0.0
 11
82.598572
 21
-98.959811
 31
0.0
  0
LINE
  8
0
  6
CONTINUOUS
 62
     7
  5
6CF
 10
85.665939
 20
-96.359811
 30
0.0
 11
82.598572
 21
-96.359811
 31
0.0
  0
LINE
  8
0
  6
CONTINUOUS
 62
     7
  5
6D0
 10
85.665939
 20
-96.354811
 30
0.0
 11
85.665939
 21
-96.359811
 31
0.0
  0
LINE
  8
0
  6
CONTINUOUS
 62
     7
  5
6D1
 10
88.205163
 20
-99.359811
 30
0.0
 11
103.045855
 21
-99.359811
 31
0.0
  0
LINE
  8
0
  6
CONTINUOUS
 62
     7
  5
6D2
 10
82.407837
 20
-49.759811
 30
0.0
 11
82.407837
 21
-52.359811
 31
0.0
  0
LINE
  8
0
  6
CONTINUOUS
 62
     7
  5
6D3
 10
82.407837
 20
-52.359811
 30
0.0
 11
82.598572
 21
-52.359811
 31
0.0
  0
LINE
  8
0
  6
CONTINUOUS
 62
     7
  5
6D4
 10
82.598572
 20
-49.759811
 30
0.0
 11
82.407837
 21
-49.759811
 31
0.0
  0
LINE
  8
0
  6
CONTINUOUS
 62
     7
  5
6D5
 10
75.962738
 20
-55.359811
 30
0.0
 11
75.962738
 21
-52.359811
 31
0.0
  0
LINE
  8
0
  6
CONTINUOUS
 62
     7
  5
6D6
 10
58.86586
 20
-55.359811
 30
0.0
 11
75.962738
 21
-55.359811
 31
0.0
  0
LINE
  8
0
  6
CONTINUOUS
 62
     7
  5
6D7
 10
58.86586
 20
-52.359811
 30
0.0
 11
58.86586
 21
-55.359811
 31
0.0
  0
LINE
  8
0
  6
CONTINUOUS
 62
     7
  5
6D8
 10
65.310959
 20
-52.359811
 30
0.0
 11
58.86586
 21
-52.359811
 31
0.0
  0
LINE
  8
0
  6
CONTINUOUS
 62
     7
  5
6D9
 10
65.310959
 20
-49.759811
 30
0.0
 11
65.310959
 21
-52.359811
 31
0.0
  0
LINE
  8
0
  6
CONTINUOUS
 62
     7
  5
6DA
 10
75.962738
 20
-52.359811
 30
0.0
 11
82.407837
 21
-52.359811
 31
0.0
  0
LINE
  8
0
  6
CONTINUOUS
 62
     7
  5
6DB
 10
82.407837
 20
-49.759811
 30
0.0
 11
65.310959
 21
-49.759811
 31
0.0
  0
LINE
  8
0
  6
CONTINUOUS
 62
     7
  5
6DC
 10
82.407837
 20
-96.359811
 30
0.0
 11
82.407837
 21
-98.959811
 31
0.0
  0
LINE
  8
0
  6
CONTINUOUS
 62
     7
  5
6DD
 10
82.598572
 20
-96.359811
 30
0.0
 11
82.407837
 21
-96.359811
 31
0.0
  0
LINE
  8
0
  6
CONTINUOUS
 62
     7
  5
6DE
 10
82.407837
 20
-98.959811
 30
0.0
 11
82.598572
 21
-98.959811
 31
0.0
  0
LINE
  8
0
  6
CONTINUOUS
 62
     7
  5
6DF
 10
65.310959
 20
-96.359811
 30
0.0
 11
65.310959
 21
-98.959811
 31
0.0
  0
LINE
  8
0
  6
CONTINUOUS
 62
     7
  5
6E0
 10
58.86586
 20
-96.359811
 30
0.0
 11
65.310959
 21
-96.359811
 31
0.0
  0
LINE
  8
0
  6
CONTINUOUS
 62
     7
  5
6E1
 10
58.86586
 20
-93.359811
 30
0.0
 11
58.86586
 21
-96.359811
 31
0.0
  0
LINE
  8
0
  6
CONTINUOUS
 62
     7
  5
6E2
 10
75.962738
 20
-93.359811
 30
0.0
 11
58.86586
 21
-93.359811
 31
0.0
  0
LINE
  8
0
  6
CONTINUOUS
 62
     7
  5
6E3
 10
75.962738
 20
-96.359811
 30
0.0
 11
75.962738
 21
-93.359811
 31
0.0
  0
LINE
  8
0
  6
CONTINUOUS
 62
     7
  5
6E4
 10
82.407837
 20
-96.359811
 30
0.0
 11
75.962738
 21
-96.359811
 31
0.0
  0
LINE
  8
0
  6
CONTINUOUS
 62
     7
  5
6E5
 10
65.310959
 20
-98.959811
 30
0.0
 11
82.407837
 21
-98.959811
 31
0.0
  0
LINE
  8
0
  6
CONTINUOUS
 62
     7
  5
6E6
 10
75.962738
 20
-93.359811
 30
0.0
 11
77.932764
 21
-93.359811
 31
0.0
  0
LINE
  8
0
  6
CONTINUOUS
 62
     7
  5
6E7
 10
77.932764
 20
-93.359811
 30
0.0
 11
77.932764
 21
-96.354811
 31
0.0
  0
LINE
  8
0
  6
CONTINUOUS
 62
     7
  5
6E8
 10
77.932764
 20
-55.359811
 30
0.0
 11
75.962738
 21
-55.359811
 31
0.0
  0
LINE
  8
0
  6
CONTINUOUS
 62
     7
  5
6E9
 10
77.932764
 20
-52.364811
 30
0.0
 11
77.932764
 21
-55.359811
 31
0.0
  0
LINE
  8
0
  6
CONTINUOUS
 62
     7
  5
6EA
 10
75.844726
 20
-93.359811
 30
0.0
 11
75.844726
 21
-55.359811
 31
0.0
  0
LINE
  8
0
  6
CONTINUOUS
 62
     7
  5
6EB
 10
77.852373
 20
-93.359811
 30
0.0
 11
77.852373
 21
-55.359811
 31
0.0
  0
LINE
  8
0
  6
CONTINUOUS
 62
     7
  5
6EC
 10
65.810441
 20
-93.359811
 30
0.0
 11
65.810441
 21
-55.359811
 31
0.0
  0
LINE
  8
0
  6
CONTINUOUS
 62
     7
  5
6ED
 10
78.045855
 20
-93.359811
 30
0.0
 11
77.932764
 21
-93.359811
 31
0.0
  0
LINE
  8
0
  6
CONTINUOUS
 62
     7
  5
6EE
 10
77.932764
 20
-55.359811
 30
0.0
 11
78.045855
 21
-55.359811
 31
0.0
  0
LINE
  8
0
  6
CONTINUOUS
 62
     7
  5
6EF
 10
54.847889
 20
-96.359811
 30
0.0
 11
56.175534
 21
-96.359811
 31
0.0
  0
LINE
  8
0
  6
CONTINUOUS
 62
     7
  5
6F0
 10
56.175534
 20
-96.359811
 30
0.0
 11
58.86586
 21
-96.359811
 31
0.0
  0
LINE
  8
0
  6
CONTINUOUS
 62
     7
  5
6F1
 10
58.86586
 20
-93.359811
 30
0.0
 11
54.503878
 21
-93.359811
 31
0.0
  0
LINE
  8
0
  6
CONTINUOUS
 62
     7
  5
6F2
 10
54.503878
 20
-55.359811
 30
0.0
 11
58.86586
 21
-55.359811
 31
0.0
  0
LINE
  8
0
  6
CONTINUOUS
 62
     7
  5
6F3
 10
58.86586
 20
-52.359811
 30
0.0
 11
56.175534
 21
-52.359811
 31
0.0
  0
LINE
  8
0
  6
CONTINUOUS
 62
     7
  5
6F4
 10
56.175534
 20
-52.359811
 30
0.0
 11
54.847889
 21
-52.359811
 31
0.0
  0
LINE
  8
0
  6
CONTINUOUS
 62
     7
  5
6F5
 10
88.529129
 20
-93.359811
 30
0.0
 11
88.529129
 21
-78.574171
 31
0.0
  0
LINE
  8
0
  6
CONTINUOUS
 62
     7
  5
6F6
 10
88.529129
 20
-78.574171
 30
0.0
 11
87.060852
 21
-74.574171
 31
0.0
  0
LINE
  8
0
  6
CONTINUOUS
 62
     7
  5
6F7
 10
87.060852
 20
-74.574171
 30
0.0
 11
87.060852
 21
-71.359811
 31
0.0
  0
LINE
  8
0
  6
CONTINUOUS
 62
     7
  5
6F8
 10
87.060852
 20
-71.359811
 30
0.0
 11
87.569478
 21
-71.359811
 31
0.0
  0
LINE
  8
0
  6
CONTINUOUS
 62
     7
  5
6F9
 10
87.569478
 20
-71.359811
 30
0.0
 11
87.569478
 21
-74.359811
 31
0.0
  0
LINE
  8
0
  6
CONTINUOUS
 62
     7
  5
6FA
 10
87.569478
 20
-74.359811
 30
0.0
 11
89.037755
 21
-78.359811
 31
0.0
  0
LINE
  8
0
  6
CONTINUOUS
 62
     7
  5
6FB
 10
89.037755
 20
-78.359811
 30
0.0
 11
89.037755
 21
-93.359811
 31
0.0
  0
LINE
  8
0
  6
CONTINUOUS
 62
     7
  5
6FC
 10
83.89792
 20
-78.574171
 30
0.0
 11
88.529129
 21
-78.574171
 31
0.0
  0
LINE
  8
0
  6
CONTINUOUS
 62
     7
  5
6FD
 10
82.429643
 20
-74.574171
 30
0.0
 11
83.89792
 21
-78.574171
 31
0.0
  0
LINE
  8
0
  6
CONTINUOUS
 62
     7
  5
6FE
 10
82.429643
 20
-74.574171
 30
0.0
 11
87.060852
 21
-74.574171
 31
0.0
  0
LINE
  8
0
  6
CONTINUOUS
 62
     7
  5
6FF
 10
82.429643
 20
-71.359811
 30
0.0
 11
82.429643
 21
-74.574171
 31
0.0
  0
LINE
  8
0
  6
CONTINUOUS
 62
     7
  5
700
 10
82.429643
 20
-71.359811
 30
0.0
 11
87.060852
 21
-71.359811
 31
0.0
  0
LINE
  8
0
  6
CONTINUOUS
 62
     7
  5
701
 10
83.89792
 20
-78.574171
 30
0.0
 11
83.89792
 21
-93.359811
 31
0.0
  0
LINE
  8
0
  6
CONTINUOUS
 62
     7
  5
702
 10
88.529129
 20
-55.359811
 30
0.0
 11
88.529129
 21
-73.359811
 31
0.0
  0
LINE
  8
0
  6
CONTINUOUS
 62
     7
  5
703
 10
88.529129
 20
-73.359811
 30
0.0
 11
87.569478
 21
-73.359811
 31
0.0
  0
LINE
  8
0
  6
CONTINUOUS
 62
     7
  5
704
 10
83.89792
 20
-71.359811
 30
0.0
 11
83.89792
 21
-55.359811
 31
0.0
  0
LINE
  8
0
  6
CONTINUOUS
 62
     7
  5
705
 10
89.037755
 20
-73.359811
 30
0.0
 11
89.037755
 21
-55.359811
 31
0.0
  0
LINE
  8
0
  6
CONTINUOUS
 62
     7
  5
706
 10
88.529129
 20
-73.359811
 30
0.0
 11
89.037755
 21
-73.359811
 31
0.0
  0
LINE
  8
0
  6
CONTINUOUS
 62
     7
  5
707
 10
87.890702
 20
-73.359811
 30
0.0
 11
87.890702
 21
-74.359811
 31
0.0
  0
LINE
  8
0
  6
CONTINUOUS
 62
     7
  5
708
 10
87.890702
 20
-74.359811
 30
0.0
 11
89.119528
 21
-78.359811
 31
0.0
  0
LINE
  8
0
  6
CONTINUOUS
 62
     7
  5
709
 10
89.119528
 20
-78.359811
 30
0.0
 11
89.119528
 21
-93.359811
 31
0.0
  0
LINE
  8
0
  6
CONTINUOUS
 62
     7
  5
70A
 10
89.119528
 20
-73.359811
 30
0.0
 11
89.119528
 21
-55.359811
 31
0.0
  0
LINE
  8
0
  6
CONTINUOUS
 62
     7
  5
70B
 10
94.199628
 20
-55.359811
 30
0.0
 11
94.199628
 21
-73.359811
 31
0.0
  0
LINE
  8
0
  6
CONTINUOUS
 62
     7
  5
70C
 10
89.119528
 20
-73.359811
 30
0.0
 11
94.199628
 21
-73.359811
 31
0.0
  0
LINE
  8
0
  6
CONTINUOUS
 62
     7
  5
70D
 10
92.970802
 20
-74.359811
 30
0.0
 11
87.890702
 21
-74.359811
 31
0.0
  0
LINE
  8
0
  6
CONTINUOUS
 62
     7
  5
70E
 10
94.199628
 20
-78.359811
 30
0.0
 11
92.970802
 21
-74.359811
 31
0.0
  0
LINE
  8
0
  6
CONTINUOUS
 62
     7
  5
70F
 10
94.199628
 20
-78.359811
 30
0.0
 11
89.119528
 21
-78.359811
 31
0.0
  0
LINE
  8
0
  6
CONTINUOUS
 62
     7
  5
710
 10
89.037755
 20
-73.359811
 30
0.0
 11
89.119528
 21
-73.359811
 31
0.0
  0
LINE
  8
0
  6
CONTINUOUS
 62
     7
  5
711
 10
94.199628
 20
-93.359811
 30
0.0
 11
94.199628
 21
-78.359811
 31
0.0
  0
LINE
  8
0
  6
CONTINUOUS
 62
     7
  5
712
 10
92.970802
 20
-74.359811
 30
0.0
 11
92.970802
 21
-73.359811
 31
0.0
  0
LINE
  8
0
  6
CONTINUOUS
 62
     7
  5
713
 10
85.420284
 20
-49.359811
 30
0.0
 11
85.545855
 21
-49.359811
 31
0.0
  0
LINE
  8
0
  6
CONTINUOUS
 62
     7
  5
714
 10
116.170284
 20
-74.359811
 30
0.0
 11
111.359444
 21
-74.359811
 31
0.0
  0
LINE
  8
0
  6
CONTINUOUS
 62
     7
  5
715
 10
116.170284
 20
-78.359811
 30
0.0
 11
111.359444
 21
-78.359811
 31
0.0
  0
LINE
  8
0
  6
CONTINUOUS
 62
     7
  5
716
 10
116.170284
 20
-78.359811
 30
0.0
 11
116.170284
 21
-74.359811
 31
0.0
  0
LINE
  8
0
  6
CONTINUOUS
 62
     7
  5
717
 10
116.170284
 20
-93.359811
 30
0.0
 11
116.170284
 21
-78.359811
 31
0.0
  0
LINE
  8
0
  6
CONTINUOUS
 62
     7
  5
718
 10
116.170284
 20
-55.359811
 30
0.0
 11
116.170284
 21
-73.359811
 31
0.0
  0
LINE
  8
0
  6
CONTINUOUS
 62
     7
  5
719
 10
111.359444
 20
-73.359811
 30
0.0
 11
116.170284
 21
-73.359811
 31
0.0
  0
LINE
  8
0
  6
CONTINUOUS
 62
     7
  5
71A
 10
85.420284
 20
-99.359811
 30
0.0
 11
85.545855
 21
-99.359811
 31
0.0
  0
LINE
  8
0
  6
CONTINUOUS
 62
     7
  5
71B
 10
116.170284
 20
-74.359811
 30
0.0
 11
116.170284
 21
-73.359811
 31
0.0
  0
LINE
  8
0
  6
CONTINUOUS
 62
     7
  5
71C
 10
119.670284
 20
-93.359811
 30
0.0
 11
119.670284
 21
-55.359811
 31
0.0
  0
LINE
  8
0
  6
CONTINUOUS
 62
     7
  5
71D
 10
146.670284
 20
-55.359811
 30
0.0
 11
146.670284
 21
-73.359811
 31
0.0
  0
LINE
  8
0
  6
CONTINUOUS
 62
     7
  5
71E
 10
142.670284
 20
-73.359811
 30
0.0
 11
146.670284
 21
-73.359811
 31
0.0
  0
LINE
  8
0
  6
CONTINUOUS
 62
     7
  5
71F
 10
146.670284
 20
-78.359811
 30
0.0
 11
142.670284
 21
-78.359811
 31
0.0
  0
LINE
  8
0
  6
CONTINUOUS
 62
     7
  5
720
 10
146.670284
 20
-93.359811
 30
0.0
 11
146.670284
 21
-78.359811
 31
0.0
  0
LINE
  8
0
  6
CONTINUOUS
 62
     7
  5
721
 10
146.670284
 20
-74.359811
 30
0.0
 11
142.670284
 21
-74.359811
 31
0.0
  0
LINE
  8
0
  6
CONTINUOUS
 62
     7
  5
722
 10
146.670284
 20
-78.359811
 30
0.0
 11
146.670284
 21
-74.359811
 31
0.0
  0
LINE
  8
0
  6
CONTINUOUS
 62
     7
  5
723
 10
146.670284
 20
-74.359811
 30
0.0
 11
146.670284
 21
-73.359811
 31
0.0
  0
LINE
  8
0
  6
CONTINUOUS
 62
     7
  5
724
 10
156.420284
 20
-49.359811
 30
0.0
 11
157.420284
 21
-49.359811
 31
0.0
  0
LINE
  8
0
  6
CONTINUOUS
 62
     7
  5
725
 10
157.420284
 20
-99.359811
 30
0.0
 11
156.420284
 21
-99.359811
 31
0.0
  0
LINE
  8
0
  6
CONTINUOUS
 62
     7
  5
726
 10
150.170284
 20
-93.359811
 30
0.0
 11
150.170284
 21
-55.359811
 31
0.0
  0
LINE
  8
0
  6
CONTINUOUS
 62
     7
  5
727
 10
177.170284
 20
-78.359811
 30
0.0
 11
173.170284
 21
-78.359811
 31
0.0
  0
LINE
  8
0
  6
CONTINUOUS
 62
     7
  5
728
 10
177.170284
 20
-93.359811
 30
0.0
 11
177.170284
 21
-78.359811
 31
0.0
  0
LINE
  8
0
  6
CONTINUOUS
 62
     7
  5
729
 10
177.170284
 20
-74.359811
 30
0.0
 11
173.170284
 21
-74.359811
 31
0.0
  0
LINE
  8
0
  6
CONTINUOUS
 62
     7
  5
72A
 10
177.170284
 20
-78.359811
 30
0.0
 11
177.170284
 21
-74.359811
 31
0.0
  0
LINE
  8
0
  6
CONTINUOUS
 62
     7
  5
72B
 10
177.170284
 20
-55.359811
 30
0.0
 11
177.170284
 21
-73.359811
 31
0.0
  0
LINE
  8
0
  6
CONTINUOUS
 62
     7
  5
72C
 10
173.170284
 20
-73.359811
 30
0.0
 11
177.170284
 21
-73.359811
 31
0.0
  0
LINE
  8
0
  6
CONTINUOUS
 62
     7
  5
72D
 10
177.170284
 20
-74.359811
 30
0.0
 11
177.170284
 21
-73.359811
 31
0.0
  0
LINE
  8
0
  6
CONTINUOUS
 62
     7
  5
72E
 10
187.920284
 20
-99.359811
 30
0.0
 11
186.920284
 21
-99.359811
 31
0.0
  0
LINE
  8
0
  6
CONTINUOUS
 62
     7
  5
72F
 10
186.920284
 20
-49.359811
 30
0.0
 11
187.920284
 21
-49.359811
 31
0.0
  0
LINE
  8
0
  6
CONTINUOUS
 62
     7
  5
730
 10
180.670284
 20
-93.359811
 30
0.0
 11
180.670284
 21
-55.359811
 31
0.0
  0
LINE
  8
0
  6
CONTINUOUS
 62
     7
  5
731
 10
207.670284
 20
-74.359811
 30
0.0
 11
203.670284
 21
-74.359811
 31
0.0
  0
LINE
  8
0
  6
CONTINUOUS
 62
     7
  5
732
 10
207.670284
 20
-78.359811
 30
0.0
 11
207.670284
 21
-74.359811
 31
0.0
  0
LINE
  8
0
  6
CONTINUOUS
 62
     7
  5
733
 10
207.670284
 20
-78.359811
 30
0.0
 11
203.670284
 21
-78.359811
 31
0.0
  0
LINE
  8
0
  6
CONTINUOUS
 62
     7
  5
734
 10
207.670284
 20
-93.359811
 30
0.0
 11
207.670284
 21
-78.359811
 31
0.0
  0
LINE
  8
0
  6
CONTINUOUS
 62
     7
  5
735
 10
207.670284
 20
-55.359811
 30
0.0
 11
207.670284
 21
-73.359811
 31
0.0
  0
LINE
  8
0
  6
CONTINUOUS
 62
     7
  5
736
 10
203.670284
 20
-73.359811
 30
0.0
 11
207.670284
 21
-73.359811
 31
0.0
  0
LINE
  8
0
  6
CONTINUOUS
 62
     7
  5
737
 10
207.670284
 20
-74.359811
 30
0.0
 11
207.670284
 21
-73.359811
 31
0.0
  0
LINE
  8
0
  6
CONTINUOUS
 62
     7
  5
738
 10
217.420284
 20
-49.359811
 30
0.0
 11
218.420284
 21
-49.359811
 31
0.0
  0
LINE
  8
0
  6
CONTINUOUS
 62
     7
  5
739
 10
218.420284
 20
-99.359811
 30
0.0
 11
217.420284
 21
-99.359811
 31
0.0
  0
LINE
  8
0
  6
CONTINUOUS
 62
     7
  5
73A
 10
211.170284
 20
-93.359811
 30
0.0
 11
211.170284
 21
-55.359811
 31
0.0
  0
LINE
  8
0
  6
CONTINUOUS
 62
     7
  5
73B
 10
238.170284
 20
-74.359811
 30
0.0
 11
234.170284
 21
-74.359811
 31
0.0
  0
LINE
  8
0
  6
CONTINUOUS
 62
     7
  5
73C
 10
238.170284
 20
-78.359811
 30
0.0
 11
234.170284
 21
-78.359811
 31
0.0
  0
LINE
  8
0
  6
CONTINUOUS
 62
     7
  5
73D
 10
238.170284
 20
-78.359811
 30
0.0
 11
238.170284
 21
-74.359811
 31
0.0
  0
LINE
  8
0
  6
CONTINUOUS
 62
     7
  5
73E
 10
238.170284
 20
-93.359811
 30
0.0
 11
238.170284
 21
-78.359811
 31
0.0
  0
LINE
  8
0
  6
CONTINUOUS
 62
     7
  5
73F
 10
234.170284
 20
-73.359811
 30
0.0
 11
238.170284
 21
-73.359811
 31
0.0
  0
LINE
  8
0
  6
CONTINUOUS
 62
     7
  5
740
 10
238.170284
 20
-55.359811
 30
0.0
 11
238.170284
 21
-73.359811
 31
0.0
  0
LINE
  8
0
  6
CONTINUOUS
 62
     7
  5
741
 10
238.170284
 20
-74.359811
 30
0.0
 11
238.170284
 21
-73.359811
 31
0.0
  0
LINE
  8
0
  6
CONTINUOUS
 62
     7
  5
742
 10
241.670284
 20
-93.359811
 30
0.0
 11
241.670284
 21
-55.359811
 31
0.0
  0
LINE
  8
0
  6
CONTINUOUS
 62
     7
  5
743
 10
277.920284
 20
-29.759811
 30
0.0
 11
277.520284
 21
-29.359811
 31
0.0
  0
LINE
  8
0
  6
CONTINUOUS
 62
     7
  5
744
 10
273.320284
 20
-29.359811
 30
0.0
 11
272.920284
 21
-29.759811
 31
0.0
  0
LINE
  8
0
  6
CONTINUOUS
 62
     7
  5
745
 10
277.920284
 20
-39.359811
 30
0.0
 11
277.920284
 21
-29.759811
 31
0.0
  0
LINE
  8
0
  6
CONTINUOUS
 62
     7
  5
746
 10
272.920284
 20
-29.759811
 30
0.0
 11
272.920284
 21
-39.359811
 31
0.0
  0
LINE
  8
0
  6
CONTINUOUS
 62
     7
  5
747
 10
180.920284
 20
-39.359811
 30
0.0
 11
180.920284
 21
-29.759811
 31
0.0
  0
LINE
  8
0
  6
CONTINUOUS
 62
     7
  5
748
 10
175.920284
 20
-29.759811
 30
0.0
 11
175.920284
 21
-39.359811
 31
0.0
  0
LINE
  8
0
  6
CONTINUOUS
 62
     7
  5
749
 10
180.920284
 20
-29.759811
 30
0.0
 11
180.520284
 21
-29.359811
 31
0.0
  0
LINE
  8
0
  6
CONTINUOUS
 62
     7
  5
74A
 10
176.320284
 20
-29.359811
 30
0.0
 11
175.920284
 21
-29.759811
 31
0.0
  0
LINE
  8
0
  6
CONTINUOUS
 62
     7
  5
74B
 10
329.420284
 20
-49.359811
 30
0.0
 11
329.420284
 21
-49.759811
 31
0.0
  0
LINE
  8
0
  6
CONTINUOUS
 62
     7
  5
74C
 10
339.420284
 20
-49.759811
 30
0.0
 11
339.420284
 21
-49.359811
 31
0.0
  0
LINE
  8
0
  6
CONTINUOUS
 62
     7
  5
74D
 10
329.420284
 20
-98.959811
 30
0.0
 11
329.420284
 21
-99.359811
 31
0.0
  0
LINE
  8
0
  6
CONTINUOUS
 62
     7
  5
74E
 10
339.420284
 20
-99.359811
 30
0.0
 11
339.420284
 21
-98.959811
 31
0.0
  0
LINE
  8
0
  6
CONTINUOUS
 62
     7
  5
74F
 10
346.920284
 20
-99.359811
 30
0.0
 11
346.920284
 21
-96.359811
 31
0.0
  0
LINE
  8
0
  6
CONTINUOUS
 62
     7
  5
750
 10
346.920284
 20
-52.359811
 30
0.0
 11
346.920284
 21
-49.359811
 31
0.0
  0
LINE
  8
0
  6
CONTINUOUS
 62
     7
  5
751
 10
316.420284
 20
-99.359811
 30
0.0
 11
316.420284
 21
-98.959811
 31
0.0
  0
LINE
  8
0
  6
CONTINUOUS
 62
     7
  5
752
 10
316.420284
 20
-49.759811
 30
0.0
 11
316.420284
 21
-49.359811
 31
0.0
  0
LINE
  8
0
  6
CONTINUOUS
 62
     7
  5
753
 10
285.920284
 20
-99.359811
 30
0.0
 11
285.920284
 21
-98.959811
 31
0.0
  0
LINE
  8
0
  6
CONTINUOUS
 62
     7
  5
754
 10
285.920284
 20
-49.759811
 30
0.0
 11
285.920284
 21
-49.359811
 31
0.0
  0
LINE
  8
0
  6
CONTINUOUS
 62
     7
  5
755
 10
255.420284
 20
-99.359811
 30
0.0
 11
255.420284
 21
-98.959811
 31
0.0
  0
LINE
  8
0
  6
CONTINUOUS
 62
     7
  5
756
 10
255.420284
 20
-49.759811
 30
0.0
 11
255.420284
 21
-49.359811
 31
0.0
  0
LINE
  8
0
  6
CONTINUOUS
 62
     7
  5
757
 10
224.920284
 20
-49.759811
 30
0.0
 11
224.920284
 21
-49.359811
 31
0.0
  0
LINE
  8
0
  6
CONTINUOUS
 62
     7
  5
758
 10
224.920284
 20
-99.359811
 30
0.0
 11
224.920284
 21
-98.959811
 31
0.0
  0
LINE
  8
0
  6
CONTINUOUS
 62
     7
  5
759
 10
194.420284
 20
-49.759811
 30
0.0
 11
194.420284
 21
-49.359811
 31
0.0
  0
LINE
  8
0
  6
CONTINUOUS
 62
     7
  5
75A
 10
194.420284
 20
-99.359811
 30
0.0
 11
194.420284
 21
-98.959811
 31
0.0
  0
LINE
  8
0
  6
CONTINUOUS
 62
     7
  5
75B
 10
163.920284
 20
-49.759811
 30
0.0
 11
163.920284
 21
-49.359811
 31
0.0
  0
LINE
  8
0
  6
CONTINUOUS
 62
     7
  5
75C
 10
163.920284
 20
-99.359811
 30
0.0
 11
163.920284
 21
-98.959811
 31
0.0
  0
LINE
  8
0
  6
CONTINUOUS
 62
     7
  5
75D
 10
133.420284
 20
-99.359811
 30
0.0
 11
133.420284
 21
-98.959811
 31
0.0
  0
LINE
  8
0
  6
CONTINUOUS
 62
     7
  5
75E
 10
133.420284
 20
-49.759811
 30
0.0
 11
133.420284
 21
-49.359811
 31
0.0
  0
LINE
  8
0
  6
CONTINUOUS
 62
     7
  5
75F
 10
78.045855
 20
-93.359811
 30
0.0
 11
78.045855
 21
-96.354811
 31
0.0
  0
LINE
  8
0
  6
CONTINUOUS
 62
     7
  5
760
 10
78.045855
 20
-52.364811
 30
0.0
 11
78.045855
 21
-55.359811
 31
0.0
  0
LINE
  8
0
  6
CONTINUOUS
 62
     7
  5
761
 10
85.545855
 20
-98.959811
 30
0.0
 11
85.545855
 21
-99.359811
 31
0.0
  0
LINE
  8
0
  6
CONTINUOUS
 62
     7
  5
762
 10
85.545855
 20
-49.359811
 30
0.0
 11
85.545855
 21
-49.759811
 31
0.0
  0
LINE
  8
0
  6
CONTINUOUS
 62
     7
  5
763
 10
47.397689
 20
-49.759811
 30
0.0
 11
47.397689
 21
-52.359811
 31
0.0
  0
LINE
  8
0
  6
CONTINUOUS
 62
     7
  5
764
 10
47.397689
 20
-52.359811
 30
0.0
 11
47.397689
 21
-52.364811
 31
0.0
  0
LINE
  8
0
  6
CONTINUOUS
 62
     7
  5
765
 10
47.397689
 20
-96.354811
 30
0.0
 11
47.397689
 21
-96.359811
 31
0.0
  0
LINE
  8
0
  6
CONTINUOUS
 62
     7
  5
766
 10
47.397689
 20
-96.359811
 30
0.0
 11
47.397689
 21
-98.959811
 31
0.0
  0
LINE
  8
0
  6
CONTINUOUS
 62
     7
  5
767
 10
47.397689
 20
-93.359811
 30
0.0
 11
47.397689
 21
-96.354811
 31
0.0
  0
LINE
  8
0
  6
CONTINUOUS
 62
     7
  5
768
 10
47.397689
 20
-96.354811
 30
0.0
 11
47.397689
 21
-96.359811
 31
0.0
  0
LINE
  8
0
  6
CONTINUOUS
 62
     7
  5
769
 10
47.397689
 20
-52.359811
 30
0.0
 11
47.397689
 21
-52.364811
 31
0.0
  0
LINE
  8
0
  6
CONTINUOUS
 62
     7
  5
76A
 10
47.397689
 20
-52.364811
 30
0.0
 11
47.397689
 21
-55.359811
 31
0.0
  0
LINE
  8
0
  6
CONTINUOUS
 62
     7
  5
76B
 10
103.045855
 20
-49.759811
 30
0.0
 11
103.045855
 21
-49.359811
 31
0.0
  0
LINE
  8
0
  6
CONTINUOUS
 62
     7
  5
76C
 10
103.045855
 20
-99.359811
 30
0.0
 11
103.045855
 21
-98.959811
 31
0.0
  0
LINE
  8
0
  6
CONTINUOUS
 62
     7
  5
76D
 10
54.503878
 20
-93.359811
 30
0.0
 11
54.503878
 21
-96.359811
 31
0.0
  0
LINE
  8
0
  6
CONTINUOUS
 62
     7
  5
76E
 10
54.503878
 20
-52.359811
 30
0.0
 11
54.503878
 21
-55.359811
 31
0.0
  0
LINE
  8
0
  6
CONTINUOUS
 62
     7
  5
76F
 10
85.420284
 20
-49.359811
 30
0.0
 11
85.420284
 21
-49.759811
 31
0.0
  0
LINE
  8
0
  6
CONTINUOUS
 62
     7
  5
770
 10
85.420284
 20
-98.959811
 30
0.0
 11
85.420284
 21
-99.359811
 31
0.0
  0
ENDBLK
  8
0
  5
771
  0
BLOCK
  8
0
  5
774
  2
AID3729
 70
     0
 10
0.0
 20
0.0
 30
0.0
  3
#auxiliary draft view
  0
LINE
  8
0
  6
CONTINUOUS
 62
     7
  5
775
 10
522.929712
 20
100.205455
 30
0.0
 11
572.929712
 21
100.205455
 31
0.0
  0
LINE
  8
0
  6
CONTINUOUS
 62
     7
  5
776
 10
522.929712
 20
120.205455
 30
0.0
 11
522.929712
 21
100.205455
 31
0.0
  0
LINE
  8
0
  6
CONTINUOUS
 62
     7
  5
777
 10
524.929712
 20
120.205455
 30
0.0
 11
522.929712
 21
120.205455
 31
0.0
  0
LINE
  8
0
  6
CONTINUOUS
 62
     7
  5
778
 10
524.929712
 20
102.205455
 30
0.0
 11
524.929712
 21
120.205455
 31
0.0
  0
LINE
  8
0
  6
CONTINUOUS
 62
     7
  5
779
 10
533.329712
 20
102.205455
 30
0.0
 11
524.929712
 21
102.205455
 31
0.0
  0
LINE
  8
0
  6
CONTINUOUS
 62
     7
  5
77A
 10
572.929712
 20
100.205455
 30
0.0
 11
572.929712
 21
102.205455
 31
0.0
  0
LINE
  8
0
  6
CONTINUOUS
 62
     7
  5
77B
 10
528.429712
 20
108.396054
 30
0.0
 11
524.929712
 21
108.396054
 31
0.0
  0
LINE
  8
0
  6
CONTINUOUS
 62
     7
  5
77C
 10
528.429712
 20
108.396054
 30
0.0
 11
528.429712
 21
106.086653
 31
0.0
  0
LINE
  8
0
  6
CONTINUOUS
 62
     7
  5
77D
 10
528.429712
 20
106.086653
 30
0.0
 11
524.929712
 21
106.086653
 31
0.0
  0
LINE
  8
0
  6
CONTINUOUS
 62
     7
  5
77E
 10
528.429712
 20
115.324258
 30
0.0
 11
524.929712
 21
115.324258
 31
0.0
  0
LINE
  8
0
  6
CONTINUOUS
 62
     7
  5
77F
 10
528.429712
 20
115.324258
 30
0.0
 11
528.429712
 21
113.014857
 31
0.0
  0
LINE
  8
0
  6
CONTINUOUS
 62
     7
  5
780
 10
528.429712
 20
113.014857
 30
0.0
 11
524.929712
 21
113.014857
 31
0.0
  0
LINE
  8
0
  6
CONTINUOUS
 62
     7
  5
781
 10
528.429712
 20
113.014857
 30
0.0
 11
528.429712
 21
108.396054
 31
0.0
  0
LINE
  8
0
  6
CONTINUOUS
 62
     7
  5
782
 10
513.329712
 20
113.205455
 30
0.0
 11
513.329712
 21
108.205455
 31
0.0
  0
LINE
  8
0
  6
CONTINUOUS
 62
     7
  5
783
 10
512.929712
 20
108.605455
 30
0.0
 11
512.929712
 21
112.805455
 31
0.0
  0
LINE
  8
0
  6
CONTINUOUS
 62
     7
  5
784
 10
532.929712
 20
102.205455
 30
0.0
 11
532.929712
 21
103.739599
 31
0.0
  0
LINE
  8
0
  6
CONTINUOUS
 62
     7
  5
785
 10
582.929712
 20
103.739599
 30
0.0
 11
582.929712
 21
102.205455
 31
0.0
  0
LINE
  8
0
  6
CONTINUOUS
 62
     7
  5
786
 10
582.929712
 20
102.205455
 30
0.0
 11
582.529712
 21
102.205455
 31
0.0
  0
LINE
  8
0
  6
CONTINUOUS
 62
     7
  5
787
 10
572.929712
 20
108.205455
 30
0.0
 11
542.929712
 21
108.205455
 31
0.0
  0
LINE
  8
0
  6
CONTINUOUS
 62
     7
  5
788
 10
542.929712
 20
108.205455
 30
0.0
 11
542.929712
 21
105.605455
 31
0.0
  0
LINE
  8
0
  6
CONTINUOUS
 62
     7
  5
789
 10
572.929712
 20
105.605455
 30
0.0
 11
572.929712
 21
108.205455
 31
0.0
  0
LINE
  8
0
  6
CONTINUOUS
 62
     7
  5
78A
 10
561.929712
 20
198.205455
 30
0.0
 11
561.687911
 21
198.205455
 31
0.0
  0
LINE
  8
0
  6
CONTINUOUS
 62
     7
  5
78B
 10
559.141964
 20
198.205455
 30
0.0
 11
556.929712
 21
198.205455
 31
0.0
  0
LINE
  8
0
  6
CONTINUOUS
 62
     7
  5
78C
 10
513.429712
 20
182.664004
 30
0.0
 11
516.929712
 21
184.684729
 31
0.0
  0
LINE
  8
0
  6
CONTINUOUS
 62
     7
  5
78D
 10
509.929712
 20
184.684729
 30
0.0
 11
513.429712
 21
182.664004
 31
0.0
  0
LINE
  8
0
  6
CONTINUOUS
 62
     7
  5
78E
 10
509.929712
 20
188.726181
 30
0.0
 11
509.929712
 21
184.684729
 31
0.0
  0
LINE
  8
0
  6
CONTINUOUS
 62
     7
  5
78F
 10
513.429712
 20
190.746907
 30
0.0
 11
509.929712
 21
188.726181
 31
0.0
  0
LINE
  8
0
  6
CONTINUOUS
 62
     7
  5
790
 10
516.929712
 20
188.726181
 30
0.0
 11
513.429712
 21
190.746907
 31
0.0
  0
LINE
  8
0
  6
CONTINUOUS
 62
     7
  5
791
 10
516.929712
 20
184.684729
 30
0.0
 11
516.929712
 21
188.726181
 31
0.0
  0
LINE
  8
0
  6
CONTINUOUS
 62
     7
  5
792
 10
495.929712
 20
186.664004
 30
0.0
 11
499.429712
 21
188.684729
 31
0.0
  0
LINE
  8
0
  6
CONTINUOUS
 62
     7
  5
793
 10
492.429712
 20
188.684729
 30
0.0
 11
495.929712
 21
186.664004
 31
0.0
  0
LINE
  8
0
  6
CONTINUOUS
 62
     7
  5
794
 10
492.429712
 20
192.726181
 30
0.0
 11
492.429712
 21
188.684729
 31
0.0
  0
LINE
  8
0
  6
CONTINUOUS
 62
     7
  5
795
 10
499.429712
 20
192.726181
 30
0.0
 11
495.929712
 21
194.746907
 31
0.0
  0
LINE
  8
0
  6
CONTINUOUS
 62
     7
  5
796
 10
499.429712
 20
188.684729
 30
0.0
 11
499.429712
 21
192.726181
 31
0.0
  0
LINE
  8
0
  6
CONTINUOUS
 62
     7
  5
797
 10
495.929712
 20
194.746907
 30
0.0
 11
492.429712
 21
192.726181
 31
0.0
  0
LINE
  8
0
  6
CONTINUOUS
 62
     7
  5
798
 10
491.429712
 20
183.205455
 30
0.0
 11
512.49189
 21
183.205455
 31
0.0
  0
LINE
  8
0
  6
CONTINUOUS
 62
     7
  5
799
 10
491.429712
 20
198.205455
 30
0.0
 11
532.929712
 21
198.205455
 31
0.0
  0
LINE
  8
0
  6
CONTINUOUS
 62
     7
  5
79A
 10
514.367534
 20
183.205455
 30
0.0
 11
533.329712
 21
183.205455
 31
0.0
  0
LINE
  8
0
  6
CONTINUOUS
 62
     7
  5
79B
 10
538.929712
 20
183.205455
 30
0.0
 11
576.929712
 21
183.205455
 31
0.0
  0
LINE
  8
0
  6
CONTINUOUS
 62
     7
  5
79C
 10
491.429712
 20
183.205455
 30
0.0
 11
491.429712
 21
198.205455
 31
0.0
  0
LINE
  8
0
  6
CONTINUOUS
 62
     7
  5
79D
 10
576.929712
 20
223.205455
 30
0.0
 11
576.929712
 21
222.695838
 31
0.0
  0
LINE
  8
0
  6
CONTINUOUS
 62
     7
  5
79E
 10
576.929712
 20
223.205455
 30
0.0
 11
579.929712
 21
223.205455
 31
0.0
  0
LINE
  8
0
  6
CONTINUOUS
 62
     7
  5
79F
 10
535.929712
 20
223.205455
 30
0.0
 11
538.929712
 21
223.205455
 31
0.0
  0
LINE
  8
0
  6
CONTINUOUS
 62
     7
  5
7A0
 10
538.929712
 20
222.695838
 30
0.0
 11
538.929712
 21
223.205455
 31
0.0
  0
LINE
  8
0
  6
CONTINUOUS
 62
     7
  5
7A1
 10
535.929712
 20
223.505455
 30
0.0
 11
538.929712
 21
223.505455
 31
0.0
  0
LINE
  8
0
  6
CONTINUOUS
 62
     7
  5
7A2
 10
538.929712
 20
223.205455
 30
0.0
 11
538.929712
 21
223.505455
 31
0.0
  0
LINE
  8
0
  6
CONTINUOUS
 62
     7
  5
7A3
 10
535.929712
 20
223.505455
 30
0.0
 11
535.929712
 21
223.452757
 31
0.0
  0
LINE
  8
0
  6
CONTINUOUS
 62
     7
  5
7A4
 10
576.929712
 20
223.505455
 30
0.0
 11
579.929712
 21
223.505455
 31
0.0
  0
LINE
  8
0
  6
CONTINUOUS
 62
     7
  5
7A5
 10
579.929712
 20
223.452757
 30
0.0
 11
579.929712
 21
223.505455
 31
0.0
  0
LINE
  8
0
  6
CONTINUOUS
 62
     7
  5
7A6
 10
576.929712
 20
223.505455
 30
0.0
 11
576.929712
 21
223.205455
 31
0.0
  0
LINE
  8
0
  6
CONTINUOUS
 62
     7
  5
7A7
 10
533.329712
 20
223.505455
 30
0.0
 11
533.329712
 21
223.452757
 31
0.0
  0
LINE
  8
0
  6
CONTINUOUS
 62
     7
  5
7A8
 10
533.329712
 20
223.505455
 30
0.0
 11
535.929712
 21
223.505455
 31
0.0
  0
LINE
  8
0
  6
CONTINUOUS
 62
     7
  5
7A9
 10
582.529712
 20
223.452757
 30
0.0
 11
582.529712
 21
223.505455
 31
0.0
  0
LINE
  8
0
  6
CONTINUOUS
 62
     7
  5
7AA
 10
579.929712
 20
223.505455
 30
0.0
 11
582.529712
 21
223.505455
 31
0.0
  0
LINE
  8
0
  6
CONTINUOUS
 62
     7
  5
7AB
 10
576.929712
 20
223.205455
 30
0.0
 11
538.929712
 21
223.205455
 31
0.0
  0
LINE
  8
0
  6
CONTINUOUS
 62
     7
  5
7AC
 10
561.929712
 20
198.205455
 30
0.0
 11
557.929712
 21
200.514857
 31
0.0
  0
LINE
  8
0
  6
CONTINUOUS
 62
     7
  5
7AD
 10
557.929712
 20
200.514857
 30
0.0
 11
554.929712
 21
200.514857
 31
0.0
  0
LINE
  8
0
  6
CONTINUOUS
 62
     7
  5
7AE
 10
554.929712
 20
200.514857
 30
0.0
 11
554.929712
 21
201.136387
 31
0.0
  0
LINE
  8
0
  6
CONTINUOUS
 62
     7
  5
7AF
 10
558.453189
 20
201.136387
 30
0.0
 11
562.144071
 21
199.005455
 31
0.0
  0
LINE
  8
0
  6
CONTINUOUS
 62
     7
  5
7B0
 10
562.144071
 20
199.005455
 30
0.0
 11
576.929712
 21
199.005455
 31
0.0
  0
LINE
  8
0
  6
CONTINUOUS
 62
     7
  5
7B1
 10
576.929712
 20
198.205455
 30
0.0
 11
561.929712
 21
198.205455
 31
0.0
  0
LINE
  8
0
  6
CONTINUOUS
 62
     7
  5
7B2
 10
554.929712
 20
199.005455
 30
0.0
 11
538.929712
 21
199.005455
 31
0.0
  0
LINE
  8
0
  6
CONTINUOUS
 62
     7
  5
7B3
 10
556.929712
 20
198.205455
 30
0.0
 11
556.929712
 21
198.902468
 31
0.0
  0
LINE
  8
0
  6
CONTINUOUS
 62
     7
  5
7B4
 10
538.929712
 20
198.205455
 30
0.0
 11
556.929712
 21
198.205455
 31
0.0
  0
LINE
  8
0
  6
CONTINUOUS
 62
     7
  5
7B5
 10
538.929712
 20
212.511787
 30
0.0
 11
538.929712
 21
220.389198
 31
0.0
  0
LINE
  8
0
  6
CONTINUOUS
 62
     7
  5
7B6
 10
535.929712
 20
220.389198
 30
0.0
 11
535.934712
 21
220.389198
 31
0.0
  0
LINE
  8
0
  6
CONTINUOUS
 62
     7
  5
7B7
 10
535.934712
 20
220.389198
 30
0.0
 11
538.929712
 21
220.389198
 31
0.0
  0
LINE
  8
0
  6
CONTINUOUS
 62
     7
  5
7B8
 10
535.929712
 20
220.389198
 30
0.0
 11
535.929712
 21
219.448763
 31
0.0
  0
LINE
  8
0
  6
CONTINUOUS
 62
     7
  5
7B9
 10
535.929712
 20
219.448763
 30
0.0
 11
535.929712
 21
217.820573
 31
0.0
  0
LINE
  8
0
  6
CONTINUOUS
 62
     7
  5
7BA
 10
579.929712
 20
217.820573
 30
0.0
 11
579.929712
 21
219.448763
 31
0.0
  0
LINE
  8
0
  6
CONTINUOUS
 62
     7
  5
7BB
 10
579.929712
 20
219.448763
 30
0.0
 11
579.929712
 21
220.389198
 31
0.0
  0
LINE
  8
0
  6
CONTINUOUS
 62
     7
  5
7BC
 10
576.929712
 20
220.389198
 30
0.0
 11
579.924712
 21
220.389198
 31
0.0
  0
LINE
  8
0
  6
CONTINUOUS
 62
     7
  5
7BD
 10
579.924712
 20
220.389198
 30
0.0
 11
579.929712
 21
220.389198
 31
0.0
  0
LINE
  8
0
  6
CONTINUOUS
 62
     7
  5
7BE
 10
576.929712
 20
220.389198
 30
0.0
 11
576.929712
 21
212.511787
 31
0.0
  0
LINE
  8
0
  6
CONTINUOUS
 62
     7
  5
7BF
 10
532.929712
 20
207.487416
 30
0.0
 11
532.929712
 21
212.940661
 31
0.0
  0
LINE
  8
0
  6
CONTINUOUS
 62
     9
  5
7C0
 10
532.929712
 20
207.487416
 30
0.0
 11
533.329712
 21
207.487416
 31
0.0
  0
LINE
  8
0
  6
CONTINUOUS
 62
     7
  5
7C1
 10
582.929712
 20
212.940661
 30
0.0
 11
582.929712
 21
207.487416
 31
0.0
  0
LINE
  8
0
  6
CONTINUOUS
 62
     9
  5
7C2
 10
582.529712
 20
207.487416
 30
0.0
 11
582.929712
 21
207.487416
 31
0.0
  0
LINE
  8
0
  6
CONTINUOUS
 62
     7
  5
7C3
 10
582.929712
 20
207.487416
 30
0.0
 11
582.929712
 21
202.940661
 31
0.0
  0
LINE
  8
0
  6
CONTINUOUS
 62
     7
  5
7C4
 10
532.929712
 20
202.940661
 30
0.0
 11
532.929712
 21
207.487416
 31
0.0
  0
LINE
  8
0
  6
CONTINUOUS
 62
     7
  5
7C5
 10
576.929712
 20
220.687962
 30
0.0
 11
579.929712
 21
220.687962
 31
0.0
  0
LINE
  8
0
  6
CONTINUOUS
 62
     7
  5
7C6
 10
579.929712
 20
220.389198
 30
0.0
 11
579.929712
 21
220.687962
 31
0.0
  0
LINE
  8
0
  6
CONTINUOUS
 62
     7
  5
7C7
 10
576.929712
 20
220.687962
 30
0.0
 11
576.929712
 21
220.389198
 31
0.0
  0
LINE
  8
0
  6
CONTINUOUS
 62
     7
  5
7C8
 10
579.929712
 20
221.444881
 30
0.0
 11
582.529712
 21
221.444881
 31
0.0
  0
LINE
  8
0
  6
CONTINUOUS
 62
     7
  5
7C9
 10
579.929712
 20
222.695838
 30
0.0
 11
576.929712
 21
222.695838
 31
0.0
  0
LINE
  8
0
  6
CONTINUOUS
 62
     7
  5
7CA
 10
579.929712
 20
223.452757
 30
0.0
 11
579.929712
 21
222.695838
 31
0.0
  0
LINE
  8
0
  6
CONTINUOUS
 62
     7
  5
7CB
 10
579.929712
 20
223.452757
 30
0.0
 11
582.529712
 21
223.452757
 31
0.0
  0
LINE
  8
0
  6
CONTINUOUS
 62
     7
  5
7CC
 10
582.529712
 20
221.444881
 30
0.0
 11
582.529712
 21
223.452757
 31
0.0
  0
LINE
  8
0
  6
CONTINUOUS
 62
     7
  5
7CD
 10
579.929712
 20
220.687962
 30
0.0
 11
579.929712
 21
221.444881
 31
0.0
  0
LINE
  8
0
  6
CONTINUOUS
 62
     7
  5
7CE
 10
576.929712
 20
222.695838
 30
0.0
 11
576.929712
 21
220.687962
 31
0.0
  0
LINE
  8
0
  6
CONTINUOUS
 62
     7
  5
7CF
 10
533.329712
 20
223.452757
 30
0.0
 11
535.929712
 21
223.452757
 31
0.0
  0
LINE
  8
0
  6
CONTINUOUS
 62
     7
  5
7D0
 10
535.929712
 20
222.695838
 30
0.0
 11
535.929712
 21
223.452757
 31
0.0
  0
LINE
  8
0
  6
CONTINUOUS
 62
     7
  5
7D1
 10
538.929712
 20
222.695838
 30
0.0
 11
535.929712
 21
222.695838
 31
0.0
  0
LINE
  8
0
  6
CONTINUOUS
 62
     7
  5
7D2
 10
535.929712
 20
220.687962
 30
0.0
 11
538.929712
 21
220.687962
 31
0.0
  0
LINE
  8
0
  6
CONTINUOUS
 62
     7
  5
7D3
 10
533.329712
 20
221.444881
 30
0.0
 11
535.929712
 21
221.444881
 31
0.0
  0
LINE
  8
0
  6
CONTINUOUS
 62
     7
  5
7D4
 10
533.329712
 20
223.452757
 30
0.0
 11
533.329712
 21
221.444881
 31
0.0
  0
LINE
  8
0
  6
CONTINUOUS
 62
     7
  5
7D5
 10
535.929712
 20
221.444881
 30
0.0
 11
535.929712
 21
220.687962
 31
0.0
  0
LINE
  8
0
  6
CONTINUOUS
 62
     7
  5
7D6
 10
538.929712
 20
220.687962
 30
0.0
 11
538.929712
 21
222.695838
 31
0.0
  0
LINE
  8
0
  6
CONTINUOUS
 62
     7
  5
7D7
 10
535.929712
 20
220.687962
 30
0.0
 11
535.929712
 21
220.389198
 31
0.0
  0
LINE
  8
0
  6
CONTINUOUS
 62
     7
  5
7D8
 10
538.929712
 20
220.389198
 30
0.0
 11
538.929712
 21
220.687962
 31
0.0
  0
LINE
  8
0
  6
CONTINUOUS
 62
     7
  5
7D9
 10
533.329712
 20
221.444881
 30
0.0
 11
533.329712
 21
220.440661
 31
0.0
  0
LINE
  8
0
  6
CONTINUOUS
 62
     7
  5
7DA
 10
582.529712
 20
220.440661
 30
0.0
 11
582.529712
 21
221.444881
 31
0.0
  0
LINE
  8
0
  6
CONTINUOUS
 62
     7
  5
7DB
 10
576.929712
 20
221.182376
 30
0.0
 11
538.929712
 21
221.182376
 31
0.0
  0
LINE
  8
0
  6
CONTINUOUS
 62
     7
  5
7DC
 10
576.929712
 20
222.360813
 30
0.0
 11
538.929712
 21
222.360813
 31
0.0
  0
LINE
  8
0
  6
CONTINUOUS
 62
     7
  5
7DD
 10
576.929712
 20
217.796374
 30
0.0
 11
538.929712
 21
217.796374
 31
0.0
  0
LINE
  8
0
  6
CONTINUOUS
 62
     7
  5
7DE
 10
558.144071
 20
199.699174
 30
0.0
 11
558.144071
 21
200.243068
 31
0.0
  0
LINE
  8
0
  6
CONTINUOUS
 62
     7
  5
7DF
 10
554.929712
 20
199.699174
 30
0.0
 11
558.144071
 21
199.699174
 31
0.0
  0
LINE
  8
0
  6
CONTINUOUS
 62
     7
  5
7E0
 10
554.929712
 20
199.699174
 30
0.0
 11
554.929712
 21
200.243068
 31
0.0
  0
LINE
  8
0
  6
CONTINUOUS
 62
     7
  5
7E1
 10
558.144071
 20
200.243068
 30
0.0
 11
554.929712
 21
200.243068
 31
0.0
  0
LINE
  8
0
  6
CONTINUOUS
 62
     7
  5
7E2
 10
562.144071
 20
197.399281
 30
0.0
 11
562.144071
 21
197.943175
 31
0.0
  0
LINE
  8
0
  6
CONTINUOUS
 62
     7
  5
7E3
 10
558.144071
 20
199.699174
 30
0.0
 11
562.144071
 21
197.399281
 31
0.0
  0
LINE
  8
0
  6
CONTINUOUS
 62
     7
  5
7E4
 10
562.144071
 20
197.943175
 30
0.0
 11
558.144071
 21
200.243068
 31
0.0
  0
LINE
  8
0
  6
CONTINUOUS
 62
     7
  5
7E5
 10
561.929712
 20
196.602575
 30
0.0
 11
557.929712
 21
198.902468
 31
0.0
  0
LINE
  8
0
  6
CONTINUOUS
 62
     7
  5
7E6
 10
557.929712
 20
198.902468
 30
0.0
 11
554.929712
 21
198.902468
 31
0.0
  0
LINE
  8
0
  6
CONTINUOUS
 62
     7
  5
7E7
 10
562.144071
 20
197.399281
 30
0.0
 11
576.929712
 21
197.399281
 31
0.0
  0
LINE
  8
0
  6
CONTINUOUS
 62
     7
  5
7E8
 10
576.929712
 20
196.602575
 30
0.0
 11
561.929712
 21
196.602575
 31
0.0
  0
LINE
  8
0
  6
CONTINUOUS
 62
     7
  5
7E9
 10
554.929712
 20
198.902468
 30
0.0
 11
554.929712
 21
199.699174
 31
0.0
  0
LINE
  8
0
  6
CONTINUOUS
 62
     7
  5
7EA
 10
576.929712
 20
197.943175
 30
0.0
 11
562.144071
 21
197.943175
 31
0.0
  0
LINE
  8
0
  6
CONTINUOUS
 62
     7
  5
7EB
 10
538.929712
 20
196.602575
 30
0.0
 11
556.929712
 21
196.602575
 31
0.0
  0
LINE
  8
0
  6
CONTINUOUS
 62
     7
  5
7EC
 10
556.929712
 20
197.399281
 30
0.0
 11
538.929712
 21
197.399281
 31
0.0
  0
LINE
  8
0
  6
CONTINUOUS
 62
     7
  5
7ED
 10
556.929712
 20
196.602575
 30
0.0
 11
556.929712
 21
197.399281
 31
0.0
  0
LINE
  8
0
  6
CONTINUOUS
 62
     7
  5
7EE
 10
538.929712
 20
197.943175
 30
0.0
 11
556.929712
 21
197.943175
 31
0.0
  0
LINE
  8
0
  6
CONTINUOUS
 62
     7
  5
7EF
 10
556.929712
 20
197.943175
 30
0.0
 11
556.929712
 21
197.399281
 31
0.0
  0
LINE
  8
0
  6
CONTINUOUS
 62
     7
  5
7F0
 10
532.929712
 20
222.170058
 30
0.0
 11
533.329712
 21
222.170058
 31
0.0
  0
LINE
  8
0
  6
CONTINUOUS
 62
     7
  5
7F1
 10
582.529712
 20
222.170058
 30
0.0
 11
582.929712
 21
222.170058
 31
0.0
  0
LINE
  8
0
  6
CONTINUOUS
 62
     7
  5
7F2
 10
532.929712
 20
201.049289
 30
0.0
 11
532.929712
 21
202.940661
 31
0.0
  0
LINE
  8
0
  6
CONTINUOUS
 62
     7
  5
7F3
 10
532.929712
 20
220.440661
 30
0.0
 11
532.929712
 21
222.170058
 31
0.0
  0
LINE
  8
0
  6
CONTINUOUS
 62
     7
  5
7F4
 10
582.929712
 20
222.170058
 30
0.0
 11
582.929712
 21
220.440661
 31
0.0
  0
LINE
  8
0
  6
CONTINUOUS
 62
     7
  5
7F5
 10
582.929712
 20
202.940661
 30
0.0
 11
582.929712
 21
201.049289
 31
0.0
  0
LINE
  8
0
  6
CONTINUOUS
 62
     7
  5
7F6
 10
532.929712
 20
160.001978
 30
0.0
 11
532.929712
 21
171.388674
 31
0.0
  0
LINE
  8
0
  6
CONTINUOUS
 62
     7
  5
7F7
 10
535.929712
 20
157.348734
 30
0.0
 11
535.934712
 21
157.348734
 31
0.0
  0
LINE
  8
0
  6
CONTINUOUS
 62
     7
  5
7F8
 10
535.929712
 20
153.889185
 30
0.0
 11
535.929712
 21
157.348734
 31
0.0
  0
LINE
  8
0
  6
CONTINUOUS
 62
     7
  5
7F9
 10
533.329712
 20
153.889185
 30
0.0
 11
535.929712
 21
153.889185
 31
0.0
  0
LINE
  8
0
  6
CONTINUOUS
 62
     7
  5
7FA
 10
533.329712
 20
160.001978
 30
0.0
 11
533.329712
 21
153.889185
 31
0.0
  0
LINE
  8
0
  6
CONTINUOUS
 62
     7
  5
7FB
 10
532.929712
 20
160.001978
 30
0.0
 11
533.329712
 21
160.001978
 31
0.0
  0
LINE
  8
0
  6
CONTINUOUS
 62
     7
  5
7FC
 10
582.929712
 20
160.001978
 30
0.0
 11
582.929712
 21
171.388674
 31
0.0
  0
LINE
  8
0
  6
CONTINUOUS
 62
     7
  5
7FD
 10
582.529712
 20
160.001978
 30
0.0
 11
582.929712
 21
160.001978
 31
0.0
  0
LINE
  8
0
  6
CONTINUOUS
 62
     7
  5
7FE
 10
582.529712
 20
153.889185
 30
0.0
 11
582.529712
 21
160.001978
 31
0.0
  0
LINE
  8
0
  6
CONTINUOUS
 62
     7
  5
7FF
 10
579.929712
 20
153.889185
 30
0.0
 11
582.529712
 21
153.889185
 31
0.0
  0
LINE
  8
0
  6
CONTINUOUS
 62
     7
  5
800
 10
579.929712
 20
157.348734
 30
0.0
 11
579.929712
 21
153.889185
 31
0.0
  0
LINE
  8
0
  6
CONTINUOUS
 62
     7
  5
801
 10
579.924712
 20
157.348734
 30
0.0
 11
579.929712
 21
157.348734
 31
0.0
  0
LINE
  8
0
  6
CONTINUOUS
 62
     7
  5
802
 10
579.929712
 20
153.769197
 30
0.0
 11
582.529712
 21
153.769197
 31
0.0
  0
LINE
  8
0
  6
CONTINUOUS
 62
     7
  5
803
 10
579.929712
 20
153.889185
 30
0.0
 11
579.929712
 21
153.769197
 31
0.0
  0
LINE
  8
0
  6
CONTINUOUS
 62
     7
  5
804
 10
582.529712
 20
153.769197
 30
0.0
 11
582.529712
 21
153.889185
 31
0.0
  0
LINE
  8
0
  6
CONTINUOUS
 62
     7
  5
805
 10
533.329712
 20
153.769197
 30
0.0
 11
535.929712
 21
153.769197
 31
0.0
  0
LINE
  8
0
  6
CONTINUOUS
 62
     7
  5
806
 10
538.929712
 20
146.116147
 30
0.0
 11
535.929712
 21
146.116147
 31
0.0
  0
LINE
  8
0
  6
CONTINUOUS
 62
     7
  5
807
 10
538.929712
 20
125.814941
 30
0.0
 11
538.929712
 21
146.116147
 31
0.0
  0
LINE
  8
0
  6
CONTINUOUS
 62
     7
  5
808
 10
535.929712
 20
125.814941
 30
0.0
 11
538.929712
 21
125.814941
 31
0.0
  0
LINE
  8
0
  6
CONTINUOUS
 62
     7
  5
809
 10
535.929712
 20
133.467992
 30
0.0
 11
535.929712
 21
125.814941
 31
0.0
  0
LINE
  8
0
  6
CONTINUOUS
 62
     7
  5
80A
 10
533.329712
 20
133.467992
 30
0.0
 11
535.929712
 21
133.467992
 31
0.0
  0
LINE
  8
0
  6
CONTINUOUS
 62
     7
  5
80B
 10
535.929712
 20
146.116147
 30
0.0
 11
535.929712
 21
153.769197
 31
0.0
  0
LINE
  8
0
  6
CONTINUOUS
 62
     7
  5
80C
 10
533.329712
 20
153.769197
 30
0.0
 11
533.329712
 21
133.467992
 31
0.0
  0
LINE
  8
0
  6
CONTINUOUS
 62
     7
  5
80D
 10
579.929712
 20
133.467992
 30
0.0
 11
582.529712
 21
133.467992
 31
0.0
  0
LINE
  8
0
  6
CONTINUOUS
 62
     7
  5
80E
 10
579.929712
 20
125.814941
 30
0.0
 11
579.929712
 21
133.467992
 31
0.0
  0
LINE
  8
0
  6
CONTINUOUS
 62
     7
  5
80F
 10
576.929712
 20
125.814941
 30
0.0
 11
579.929712
 21
125.814941
 31
0.0
  0
LINE
  8
0
  6
CONTINUOUS
 62
     7
  5
810
 10
576.929712
 20
146.116147
 30
0.0
 11
576.929712
 21
125.814941
 31
0.0
  0
LINE
  8
0
  6
CONTINUOUS
 62
     7
  5
811
 10
579.929712
 20
146.116147
 30
0.0
 11
576.929712
 21
146.116147
 31
0.0
  0
LINE
  8
0
  6
CONTINUOUS
 62
     7
  5
812
 10
579.929712
 20
153.769197
 30
0.0
 11
579.929712
 21
146.116147
 31
0.0
  0
LINE
  8
0
  6
CONTINUOUS
 62
     7
  5
813
 10
582.529712
 20
133.467992
 30
0.0
 11
582.529712
 21
153.769197
 31
0.0
  0
LINE
  8
0
  6
CONTINUOUS
 62
     7
  5
814
 10
535.929712
 20
153.769197
 30
0.0
 11
535.929712
 21
153.889185
 31
0.0
  0
LINE
  8
0
  6
CONTINUOUS
 62
     7
  5
815
 10
533.329712
 20
153.889185
 30
0.0
 11
533.329712
 21
153.769197
 31
0.0
  0
LINE
  8
0
  6
CONTINUOUS
 62
     7
  5
816
 10
576.929712
 20
147.355453
 30
0.0
 11
579.924712
 21
147.355453
 31
0.0
  0
LINE
  8
0
  6
CONTINUOUS
 62
     7
  5
817
 10
576.929712
 20
146.116147
 30
0.0
 11
576.929712
 21
147.355453
 31
0.0
  0
LINE
  8
0
  6
CONTINUOUS
 62
     7
  5
818
 10
535.934712
 20
147.355453
 30
0.0
 11
538.929712
 21
147.355453
 31
0.0
  0
LINE
  8
0
  6
CONTINUOUS
 62
     7
  5
819
 10
538.929712
 20
147.355453
 30
0.0
 11
538.929712
 21
146.116147
 31
0.0
  0
LINE
  8
0
  6
CONTINUOUS
 62
     7
  5
81A
 10
576.929712
 20
145.869521
 30
0.0
 11
538.929712
 21
145.869521
 31
0.0
  0
LINE
  8
0
  6
CONTINUOUS
 62
     7
  5
81B
 10
576.929712
 20
147.132495
 30
0.0
 11
538.929712
 21
147.132495
 31
0.0
  0
LINE
  8
0
  6
CONTINUOUS
 62
     7
  5
81C
 10
576.929712
 20
133.954593
 30
0.0
 11
538.929712
 21
133.954593
 31
0.0
  0
LINE
  8
0
  6
CONTINUOUS
 62
     7
  5
81D
 10
579.929712
 20
120.350877
 30
0.0
 11
579.929712
 21
122.675607
 31
0.0
  0
LINE
  8
0
  6
CONTINUOUS
 62
     7
  5
81E
 10
579.929712
 20
122.675607
 30
0.0
 11
579.929712
 21
125.814941
 31
0.0
  0
LINE
  8
0
  6
CONTINUOUS
 62
     7
  5
81F
 10
576.929712
 20
125.814941
 30
0.0
 11
576.929712
 21
118.434418
 31
0.0
  0
LINE
  8
0
  6
CONTINUOUS
 62
     7
  5
820
 10
538.929712
 20
118.434418
 30
0.0
 11
538.929712
 21
125.814941
 31
0.0
  0
LINE
  8
0
  6
CONTINUOUS
 62
     7
  5
821
 10
535.929712
 20
125.814941
 30
0.0
 11
535.929712
 21
122.675607
 31
0.0
  0
LINE
  8
0
  6
CONTINUOUS
 62
     7
  5
822
 10
535.929712
 20
122.675607
 30
0.0
 11
535.929712
 21
120.350877
 31
0.0
  0
LINE
  8
0
  6
CONTINUOUS
 62
     7
  5
823
 10
562.144071
 20
147.132495
 30
0.0
 11
562.144071
 21
152.340667
 31
0.0
  0
LINE
  8
0
  6
CONTINUOUS
 62
     7
  5
824
 10
558.144071
 20
147.132495
 30
0.0
 11
558.144071
 21
151.417001
 31
0.0
  0
LINE
  8
0
  6
CONTINUOUS
 62
     7
  5
825
 10
562.144071
 20
152.340667
 30
0.0
 11
558.144071
 21
151.417001
 31
0.0
  0
LINE
  8
0
  6
CONTINUOUS
 62
     7
  5
826
 10
554.929712
 20
147.132495
 30
0.0
 11
554.929712
 21
151.417001
 31
0.0
  0
LINE
  8
0
  6
CONTINUOUS
 62
     7
  5
827
 10
558.144071
 20
151.417001
 30
0.0
 11
554.929712
 21
151.417001
 31
0.0
  0
LINE
  8
0
  6
CONTINUOUS
 62
     7
  5
828
 10
576.929712
 20
152.340667
 30
0.0
 11
562.144071
 21
152.340667
 31
0.0
  0
LINE
  8
0
  6
CONTINUOUS
 62
     7
  5
829
 10
554.929712
 20
151.417001
 30
0.0
 11
554.929712
 21
151.736968
 31
0.0
  0
LINE
  8
0
  6
CONTINUOUS
 62
     7
  5
82A
 10
554.929712
 20
151.736968
 30
0.0
 11
557.929712
 21
151.736968
 31
0.0
  0
LINE
  8
0
  6
CONTINUOUS
 62
     7
  5
82B
 10
557.929712
 20
151.736968
 30
0.0
 11
561.929712
 21
152.660634
 31
0.0
  0
LINE
  8
0
  6
CONTINUOUS
 62
     7
  5
82C
 10
561.929712
 20
152.660634
 30
0.0
 11
576.929712
 21
152.660634
 31
0.0
  0
LINE
  8
0
  6
CONTINUOUS
 62
     7
  5
82D
 10
538.929712
 20
152.340667
 30
0.0
 11
556.929712
 21
152.340667
 31
0.0
  0
LINE
  8
0
  6
CONTINUOUS
 62
     7
  5
82E
 10
556.929712
 20
152.660634
 30
0.0
 11
538.929712
 21
152.660634
 31
0.0
  0
LINE
  8
0
  6
CONTINUOUS
 62
     7
  5
82F
 10
556.929712
 20
152.340667
 30
0.0
 11
556.929712
 21
152.660634
 31
0.0
  0
LINE
  8
0
  6
CONTINUOUS
 62
     7
  5
830
 10
556.929712
 20
152.340667
 30
0.0
 11
556.929712
 21
151.736968
 31
0.0
  0
LINE
  8
0
  6
CONTINUOUS
 62
     7
  5
831
 10
579.929712
 20
153.769197
 30
0.0
 11
579.929712
 21
153.888674
 31
0.0
  0
LINE
  8
0
  6
CONTINUOUS
 62
     7
  5
832
 10
579.929712
 20
153.888674
 30
0.0
 11
579.929712
 21
157.348734
 31
0.0
  0
LINE
  8
0
  6
CONTINUOUS
 62
     7
  5
833
 10
579.929712
 20
157.348734
 30
0.0
 11
579.929712
 21
161.801047
 31
0.0
  0
LINE
  8
0
  6
CONTINUOUS
 62
     7
  5
834
 10
576.929712
 20
161.801047
 30
0.0
 11
576.929712
 21
147.355453
 31
0.0
  0
LINE
  8
0
  6
CONTINUOUS
 62
     7
  5
835
 10
576.929712
 20
161.801047
 30
0.0
 11
579.924712
 21
161.801047
 31
0.0
  0
LINE
  8
0
  6
CONTINUOUS
 62
     7
  5
836
 10
579.924712
 20
161.801047
 30
0.0
 11
579.929712
 21
161.801047
 31
0.0
  0
LINE
  8
0
  6
CONTINUOUS
 62
     7
  5
837
 10
538.929712
 20
147.355453
 30
0.0
 11
538.929712
 21
161.801047
 31
0.0
  0
LINE
  8
0
  6
CONTINUOUS
 62
     7
  5
838
 10
535.929712
 20
161.801047
 30
0.0
 11
535.934712
 21
161.801047
 31
0.0
  0
LINE
  8
0
  6
CONTINUOUS
 62
     7
  5
839
 10
535.934712
 20
161.801047
 30
0.0
 11
538.929712
 21
161.801047
 31
0.0
  0
LINE
  8
0
  6
CONTINUOUS
 62
     7
  5
83A
 10
535.929712
 20
161.801047
 30
0.0
 11
535.929712
 21
157.348734
 31
0.0
  0
LINE
  8
0
  6
CONTINUOUS
 62
     7
  5
83B
 10
535.929712
 20
157.348734
 30
0.0
 11
535.929712
 21
153.888674
 31
0.0
  0
LINE
  8
0
  6
CONTINUOUS
 62
     7
  5
83C
 10
535.929712
 20
153.888674
 30
0.0
 11
535.929712
 21
153.769197
 31
0.0
  0
LINE
  8
0
  6
CONTINUOUS
 62
     7
  5
83D
 10
535.929712
 20
161.870944
 30
0.0
 11
538.929712
 21
161.870944
 31
0.0
  0
LINE
  8
0
  6
CONTINUOUS
 62
     7
  5
83E
 10
538.929712
 20
161.801047
 30
0.0
 11
538.929712
 21
161.870944
 31
0.0
  0
LINE
  8
0
  6
CONTINUOUS
 62
     7
  5
83F
 10
535.929712
 20
161.870944
 30
0.0
 11
535.929712
 21
161.801047
 31
0.0
  0
LINE
  8
0
  6
CONTINUOUS
 62
     7
  5
840
 10
579.929712
 20
169.991145
 30
0.0
 11
582.529712
 21
169.991145
 31
0.0
  0
LINE
  8
0
  6
CONTINUOUS
 62
     7
  5
841
 10
576.929712
 20
161.870944
 30
0.0
 11
579.929712
 21
161.870944
 31
0.0
  0
LINE
  8
0
  6
CONTINUOUS
 62
     7
  5
842
 10
579.929712
 20
183.411357
 30
0.0
 11
576.929712
 21
183.411357
 31
0.0
  0
LINE
  8
0
  6
CONTINUOUS
 62
     7
  5
843
 10
579.929712
 20
191.531558
 30
0.0
 11
579.929712
 21
183.411357
 31
0.0
  0
LINE
  8
0
  6
CONTINUOUS
 62
     7
  5
844
 10
579.929712
 20
191.531558
 30
0.0
 11
582.529712
 21
191.531558
 31
0.0
  0
LINE
  8
0
  6
CONTINUOUS
 62
     7
  5
845
 10
582.529712
 20
169.991145
 30
0.0
 11
582.529712
 21
191.531558
 31
0.0
  0
LINE
  8
0
  6
CONTINUOUS
 62
     7
  5
846
 10
576.929712
 20
183.411357
 30
0.0
 11
576.929712
 21
161.870944
 31
0.0
  0
LINE
  8
0
  6
CONTINUOUS
 62
     7
  5
847
 10
579.929712
 20
161.870944
 30
0.0
 11
579.929712
 21
169.991145
 31
0.0
  0
LINE
  8
0
  6
CONTINUOUS
 62
     7
  5
848
 10
576.929712
 20
161.870944
 30
0.0
 11
576.929712
 21
161.801047
 31
0.0
  0
LINE
  8
0
  6
CONTINUOUS
 62
     7
  5
849
 10
579.929712
 20
161.801047
 30
0.0
 11
579.929712
 21
161.870944
 31
0.0
  0
LINE
  8
0
  6
CONTINUOUS
 62
     7
  5
84A
 10
533.329712
 20
191.531558
 30
0.0
 11
535.929712
 21
191.531558
 31
0.0
  0
LINE
  8
0
  6
CONTINUOUS
 62
     7
  5
84B
 10
535.929712
 20
183.411357
 30
0.0
 11
535.929712
 21
191.531558
 31
0.0
  0
LINE
  8
0
  6
CONTINUOUS
 62
     7
  5
84C
 10
538.929712
 20
183.411357
 30
0.0
 11
535.929712
 21
183.411357
 31
0.0
  0
LINE
  8
0
  6
CONTINUOUS
 62
     7
  5
84D
 10
533.329712
 20
169.991145
 30
0.0
 11
535.929712
 21
169.991145
 31
0.0
  0
LINE
  8
0
  6
CONTINUOUS
 62
     7
  5
84E
 10
533.329712
 20
191.531558
 30
0.0
 11
533.329712
 21
169.991145
 31
0.0
  0
LINE
  8
0
  6
CONTINUOUS
 62
     7
  5
84F
 10
538.929712
 20
161.870944
 30
0.0
 11
538.929712
 21
183.411357
 31
0.0
  0
LINE
  8
0
  6
CONTINUOUS
 62
     7
  5
850
 10
535.929712
 20
169.991145
 30
0.0
 11
535.929712
 21
161.870944
 31
0.0
  0
LINE
  8
0
  6
CONTINUOUS
 62
     7
  5
851
 10
533.329712
 20
169.269207
 30
0.0
 11
535.929712
 21
169.269207
 31
0.0
  0
LINE
  8
0
  6
CONTINUOUS
 62
     7
  5
852
 10
533.329712
 20
169.991145
 30
0.0
 11
533.329712
 21
169.269207
 31
0.0
  0
LINE
  8
0
  6
CONTINUOUS
 62
     7
  5
853
 10
582.529712
 20
169.269207
 30
0.0
 11
579.929712
 21
169.269207
 31
0.0
  0
LINE
  8
0
  6
CONTINUOUS
 62
     7
  5
854
 10
582.529712
 20
169.269207
 30
0.0
 11
582.529712
 21
169.991145
 31
0.0
  0
LINE
  8
0
  6
CONTINUOUS
 62
     7
  5
855
 10
576.929712
 20
169.518074
 30
0.0
 11
538.929712
 21
169.518074
 31
0.0
  0
LINE
  8
0
  6
CONTINUOUS
 62
     7
  5
856
 10
576.929712
 20
170.310239
 30
0.0
 11
538.929712
 21
170.310239
 31
0.0
  0
LINE
  8
0
  6
CONTINUOUS
 62
     7
  5
857
 10
576.929712
 20
182.952469
 30
0.0
 11
538.929712
 21
182.952469
 31
0.0
  0
LINE
  8
0
  6
CONTINUOUS
 62
     7
  5
858
 10
582.929712
 20
196.939097
 30
0.0
 11
582.929712
 21
201.049289
 31
0.0
  0
LINE
  8
0
  6
CONTINUOUS
 62
     7
  5
859
 10
582.529712
 20
196.939097
 30
0.0
 11
582.929712
 21
196.939097
 31
0.0
  0
LINE
  8
0
  6
CONTINUOUS
 62
     7
  5
85A
 10
579.924712
 20
194.794044
 30
0.0
 11
579.929712
 21
194.794044
 31
0.0
  0
LINE
  8
0
  6
CONTINUOUS
 62
     7
  5
85B
 10
579.929712
 20
194.794044
 30
0.0
 11
579.929712
 21
191.531558
 31
0.0
  0
LINE
  8
0
  6
CONTINUOUS
 62
     7
  5
85C
 10
582.529712
 20
191.531558
 30
0.0
 11
582.529712
 21
196.939097
 31
0.0
  0
LINE
  8
0
  6
CONTINUOUS
 62
     7
  5
85D
 10
532.929712
 20
196.939097
 30
0.0
 11
532.929712
 21
201.049289
 31
0.0
  0
LINE
  8
0
  6
CONTINUOUS
 62
     7
  5
85E
 10
535.929712
 20
194.794044
 30
0.0
 11
535.934712
 21
194.794044
 31
0.0
  0
LINE
  8
0
  6
CONTINUOUS
 62
     7
  5
85F
 10
532.929712
 20
196.939097
 30
0.0
 11
533.329712
 21
196.939097
 31
0.0
  0
LINE
  8
0
  6
CONTINUOUS
 62
     7
  5
860
 10
535.929712
 20
191.531558
 30
0.0
 11
535.929712
 21
194.794044
 31
0.0
  0
LINE
  8
0
  6
CONTINUOUS
 62
     7
  5
861
 10
533.329712
 20
196.939097
 30
0.0
 11
533.329712
 21
191.531558
 31
0.0
  0
LINE
  8
0
  6
CONTINUOUS
 62
     7
  5
862
 10
532.929712
 20
154.026278
 30
0.0
 11
532.929712
 21
160.001978
 31
0.0
  0
LINE
  8
0
  6
CONTINUOUS
 62
     9
  5
863
 10
532.929712
 20
154.026278
 30
0.0
 11
533.329712
 21
154.026278
 31
0.0
  0
LINE
  8
0
  6
CONTINUOUS
 62
     7
  5
864
 10
582.929712
 20
160.001978
 30
0.0
 11
582.929712
 21
154.026278
 31
0.0
  0
LINE
  8
0
  6
CONTINUOUS
 62
     9
  5
865
 10
582.529712
 20
154.026278
 30
0.0
 11
582.929712
 21
154.026278
 31
0.0
  0
LINE
  8
0
  6
CONTINUOUS
 62
     7
  5
866
 10
582.929712
 20
196.939097
 30
0.0
 11
582.929712
 21
193.549289
 31
0.0
  0
LINE
  8
0
  6
CONTINUOUS
 62
     7
  5
867
 10
532.929712
 20
193.549289
 30
0.0
 11
532.929712
 21
196.939097
 31
0.0
  0
LINE
  8
0
  6
CONTINUOUS
 62
     7
  5
868
 10
582.929712
 20
154.026278
 30
0.0
 11
582.929712
 21
153.888674
 31
0.0
  0
LINE
  8
0
  6
CONTINUOUS
 62
     7
  5
869
 10
532.929712
 20
153.888674
 30
0.0
 11
532.929712
 21
154.026278
 31
0.0
  0
LINE
  8
0
  6
CONTINUOUS
 62
     7
  5
86A
 10
561.929712
 20
167.889171
 30
0.0
 11
557.929712
 21
168.427238
 31
0.0
  0
LINE
  8
0
  6
CONTINUOUS
 62
     7
  5
86B
 10
557.929712
 20
168.427238
 30
0.0
 11
554.929712
 21
168.427238
 31
0.0
  0
LINE
  8
0
  6
CONTINUOUS
 62
     7
  5
86C
 10
554.929712
 20
168.61363
 30
0.0
 11
558.144071
 21
168.61363
 31
0.0
  0
LINE
  8
0
  6
CONTINUOUS
 62
     7
  5
86D
 10
558.144071
 20
168.61363
 30
0.0
 11
562.144071
 21
168.075563
 31
0.0
  0
LINE
  8
0
  6
CONTINUOUS
 62
     7
  5
86E
 10
562.144071
 20
168.075563
 30
0.0
 11
576.929712
 21
168.075563
 31
0.0
  0
LINE
  8
0
  6
CONTINUOUS
 62
     7
  5
86F
 10
576.929712
 20
167.889171
 30
0.0
 11
561.929712
 21
167.889171
 31
0.0
  0
LINE
  8
0
  6
CONTINUOUS
 62
     7
  5
870
 10
554.929712
 20
168.427238
 30
0.0
 11
554.929712
 21
168.61363
 31
0.0
  0
LINE
  8
0
  6
CONTINUOUS
 62
     7
  5
871
 10
562.144071
 20
168.075563
 30
0.0
 11
562.144071
 21
169.518074
 31
0.0
  0
LINE
  8
0
  6
CONTINUOUS
 62
     7
  5
872
 10
558.144071
 20
168.61363
 30
0.0
 11
558.144071
 21
169.518074
 31
0.0
  0
LINE
  8
0
  6
CONTINUOUS
 62
     7
  5
873
 10
554.929712
 20
168.61363
 30
0.0
 11
554.929712
 21
169.518074
 31
0.0
  0
LINE
  8
0
  6
CONTINUOUS
 62
     7
  5
874
 10
538.929712
 20
167.889171
 30
0.0
 11
556.929712
 21
167.889171
 31
0.0
  0
LINE
  8
0
  6
CONTINUOUS
 62
     7
  5
875
 10
556.929712
 20
168.075563
 30
0.0
 11
538.929712
 21
168.075563
 31
0.0
  0
LINE
  8
0
  6
CONTINUOUS
 62
     7
  5
876
 10
556.929712
 20
167.889171
 30
0.0
 11
556.929712
 21
168.075563
 31
0.0
  0
LINE
  8
0
  6
CONTINUOUS
 62
     7
  5
877
 10
556.929712
 20
168.427238
 30
0.0
 11
556.929712
 21
168.075563
 31
0.0
  0
LINE
  8
0
  6
CONTINUOUS
 62
     7
  5
878
 10
579.929712
 20
191.531558
 30
0.0
 11
579.929712
 21
194.794044
 31
0.0
  0
LINE
  8
0
  6
CONTINUOUS
 62
     7
  5
879
 10
579.929712
 20
194.794044
 30
0.0
 11
579.929712
 21
198.19764
 31
0.0
  0
LINE
  8
0
  6
CONTINUOUS
 62
     7
  5
87A
 10
576.929712
 20
198.19764
 30
0.0
 11
576.929712
 21
183.411357
 31
0.0
  0
LINE
  8
0
  6
CONTINUOUS
 62
     7
  5
87B
 10
576.929712
 20
198.19764
 30
0.0
 11
579.924712
 21
198.19764
 31
0.0
  0
LINE
  8
0
  6
CONTINUOUS
 62
     7
  5
87C
 10
579.924712
 20
198.19764
 30
0.0
 11
579.929712
 21
198.19764
 31
0.0
  0
LINE
  8
0
  6
CONTINUOUS
 62
     7
  5
87D
 10
538.929712
 20
183.411357
 30
0.0
 11
538.929712
 21
198.19764
 31
0.0
  0
LINE
  8
0
  6
CONTINUOUS
 62
     7
  5
87E
 10
535.929712
 20
198.19764
 30
0.0
 11
535.934712
 21
198.19764
 31
0.0
  0
LINE
  8
0
  6
CONTINUOUS
 62
     7
  5
87F
 10
535.934712
 20
198.19764
 30
0.0
 11
538.929712
 21
198.19764
 31
0.0
  0
LINE
  8
0
  6
CONTINUOUS
 62
     7
  5
880
 10
535.929712
 20
198.19764
 30
0.0
 11
535.929712
 21
194.794044
 31
0.0
  0
LINE
  8
0
  6
CONTINUOUS
 62
     7
  5
881
 10
535.929712
 20
194.794044
 30
0.0
 11
535.929712
 21
191.531558
 31
0.0
  0
LINE
  8
0
  6
CONTINUOUS
 62
     7
  5
882
 10
576.929712
 20
198.429201
 30
0.0
 11
579.929712
 21
198.429201
 31
0.0
  0
LINE
  8
0
  6
CONTINUOUS
 62
     7
  5
883
 10
579.929712
 20
198.19764
 30
0.0
 11
579.929712
 21
198.429201
 31
0.0
  0
LINE
  8
0
  6
CONTINUOUS
 62
     7
  5
884
 10
576.929712
 20
198.429201
 30
0.0
 11
576.929712
 21
198.19764
 31
0.0
  0
LINE
  8
0
  6
CONTINUOUS
 62
     7
  5
885
 10
579.929712
 20
203.737986
 30
0.0
 11
582.529712
 21
203.737986
 31
0.0
  0
LINE
  8
0
  6
CONTINUOUS
 62
     7
  5
886
 10
579.929712
 20
212.511787
 30
0.0
 11
576.929712
 21
212.511787
 31
0.0
  0
LINE
  8
0
  6
CONTINUOUS
 62
     7
  5
887
 10
579.929712
 20
217.820573
 30
0.0
 11
579.929712
 21
212.511787
 31
0.0
  0
LINE
  8
0
  6
CONTINUOUS
 62
     7
  5
888
 10
579.929712
 20
217.820573
 30
0.0
 11
582.529712
 21
217.820573
 31
0.0
  0
LINE
  8
0
  6
CONTINUOUS
 62
     7
  5
889
 10
582.529712
 20
203.737986
 30
0.0
 11
582.529712
 21
217.820573
 31
0.0
  0
LINE
  8
0
  6
CONTINUOUS
 62
     7
  5
88A
 10
579.929712
 20
198.429201
 30
0.0
 11
579.929712
 21
203.737986
 31
0.0
  0
LINE
  8
0
  6
CONTINUOUS
 62
     7
  5
88B
 10
576.929712
 20
212.511787
 30
0.0
 11
576.929712
 21
198.429201
 31
0.0
  0
LINE
  8
0
  6
CONTINUOUS
 62
     7
  5
88C
 10
533.329712
 20
217.820573
 30
0.0
 11
535.929712
 21
217.820573
 31
0.0
  0
LINE
  8
0
  6
CONTINUOUS
 62
     7
  5
88D
 10
535.929712
 20
212.511787
 30
0.0
 11
535.929712
 21
217.820573
 31
0.0
  0
LINE
  8
0
  6
CONTINUOUS
 62
     7
  5
88E
 10
538.929712
 20
212.511787
 30
0.0
 11
535.929712
 21
212.511787
 31
0.0
  0
LINE
  8
0
  6
CONTINUOUS
 62
     7
  5
88F
 10
535.929712
 20
198.429201
 30
0.0
 11
538.929712
 21
198.429201
 31
0.0
  0
LINE
  8
0
  6
CONTINUOUS
 62
     7
  5
890
 10
533.329712
 20
203.737986
 30
0.0
 11
535.929712
 21
203.737986
 31
0.0
  0
LINE
  8
0
  6
CONTINUOUS
 62
     7
  5
891
 10
533.329712
 20
217.820573
 30
0.0
 11
533.329712
 21
203.737986
 31
0.0
  0
LINE
  8
0
  6
CONTINUOUS
 62
     7
  5
892
 10
535.929712
 20
203.737986
 30
0.0
 11
535.929712
 21
198.429201
 31
0.0
  0
LINE
  8
0
  6
CONTINUOUS
 62
     7
  5
893
 10
538.929712
 20
198.429201
 30
0.0
 11
538.929712
 21
212.511787
 31
0.0
  0
LINE
  8
0
  6
CONTINUOUS
 62
     7
  5
894
 10
535.929712
 20
198.429201
 30
0.0
 11
535.929712
 21
198.19764
 31
0.0
  0
LINE
  8
0
  6
CONTINUOUS
 62
     7
  5
895
 10
538.929712
 20
198.19764
 30
0.0
 11
538.929712
 21
198.429201
 31
0.0
  0
LINE
  8
0
  6
CONTINUOUS
 62
     7
  5
896
 10
532.929712
 20
185.370376
 30
0.0
 11
532.929712
 21
193.549289
 31
0.0
  0
LINE
  8
0
  6
CONTINUOUS
 62
     9
  5
897
 10
532.929712
 20
185.370376
 30
0.0
 11
533.329712
 21
185.370376
 31
0.0
  0
LINE
  8
0
  6
CONTINUOUS
 62
     7
  5
898
 10
582.929712
 20
193.549289
 30
0.0
 11
582.929712
 21
185.370376
 31
0.0
  0
LINE
  8
0
  6
CONTINUOUS
 62
     9
  5
899
 10
582.529712
 20
185.370376
 30
0.0
 11
582.929712
 21
185.370376
 31
0.0
  0
LINE
  8
0
  6
CONTINUOUS
 62
     7
  5
89A
 10
532.929712
 20
183.549289
 30
0.0
 11
532.929712
 21
185.370376
 31
0.0
  0
LINE
  8
0
  6
CONTINUOUS
 62
     7
  5
89B
 10
582.929712
 20
185.370376
 30
0.0
 11
582.929712
 21
183.549289
 31
0.0
  0
LINE
  8
0
  6
CONTINUOUS
 62
     7
  5
89C
 10
533.329712
 20
201.346289
 30
0.0
 11
535.929712
 21
201.346289
 31
0.0
  0
LINE
  8
0
  6
CONTINUOUS
 62
     7
  5
89D
 10
533.329712
 20
203.737986
 30
0.0
 11
533.329712
 21
201.346289
 31
0.0
  0
LINE
  8
0
  6
CONTINUOUS
 62
     7
  5
89E
 10
582.529712
 20
201.346289
 30
0.0
 11
579.929712
 21
201.346289
 31
0.0
  0
LINE
  8
0
  6
CONTINUOUS
 62
     7
  5
89F
 10
582.529712
 20
201.346289
 30
0.0
 11
582.529712
 21
203.737986
 31
0.0
  0
LINE
  8
0
  6
CONTINUOUS
 62
     7
  5
8A0
 10
576.929712
 20
201.136387
 30
0.0
 11
538.929712
 21
201.136387
 31
0.0
  0
LINE
  8
0
  6
CONTINUOUS
 62
     7
  5
8A1
 10
576.929712
 20
203.760739
 30
0.0
 11
538.929712
 21
203.760739
 31
0.0
  0
LINE
  8
0
  6
CONTINUOUS
 62
     7
  5
8A2
 10
576.929712
 20
212.025914
 30
0.0
 11
538.929712
 21
212.025914
 31
0.0
  0
LINE
  8
0
  6
CONTINUOUS
 62
     7
  5
8A3
 10
533.329712
 20
201.049289
 30
0.0
 11
533.329712
 21
201.346289
 31
0.0
  0
LINE
  8
0
  6
CONTINUOUS
 62
     7
  5
8A4
 10
582.529712
 20
201.346289
 30
0.0
 11
582.529712
 21
201.049289
 31
0.0
  0
LINE
  8
0
  6
CONTINUOUS
 62
     7
  5
8A5
 10
561.929712
 20
186.689276
 30
0.0
 11
557.929712
 21
188.471829
 31
0.0
  0
LINE
  8
0
  6
CONTINUOUS
 62
     7
  5
8A6
 10
557.929712
 20
188.471829
 30
0.0
 11
554.929712
 21
188.471829
 31
0.0
  0
LINE
  8
0
  6
CONTINUOUS
 62
     7
  5
8A7
 10
554.929712
 20
189.089323
 30
0.0
 11
558.144071
 21
189.089323
 31
0.0
  0
LINE
  8
0
  6
CONTINUOUS
 62
     7
  5
8A8
 10
558.144071
 20
189.089323
 30
0.0
 11
562.144071
 21
187.30677
 31
0.0
  0
LINE
  8
0
  6
CONTINUOUS
 62
     7
  5
8A9
 10
562.144071
 20
187.30677
 30
0.0
 11
576.929712
 21
187.30677
 31
0.0
  0
LINE
  8
0
  6
CONTINUOUS
 62
     7
  5
8AA
 10
576.929712
 20
186.689276
 30
0.0
 11
561.929712
 21
186.689276
 31
0.0
  0
LINE
  8
0
  6
CONTINUOUS
 62
     7
  5
8AB
 10
554.929712
 20
188.471829
 30
0.0
 11
554.929712
 21
189.089323
 31
0.0
  0
LINE
  8
0
  6
CONTINUOUS
 62
     7
  5
8AC
 10
558.144071
 20
189.089323
 30
0.0
 11
558.144071
 21
192.904019
 31
0.0
  0
LINE
  8
0
  6
CONTINUOUS
 62
     7
  5
8AD
 10
558.144071
 20
192.904019
 30
0.0
 11
554.929712
 21
192.904019
 31
0.0
  0
LINE
  8
0
  6
CONTINUOUS
 62
     7
  5
8AE
 10
554.929712
 20
189.089323
 30
0.0
 11
554.929712
 21
192.904019
 31
0.0
  0
LINE
  8
0
  6
CONTINUOUS
 62
     7
  5
8AF
 10
562.144071
 20
187.30677
 30
0.0
 11
562.144071
 21
191.121466
 31
0.0
  0
LINE
  8
0
  6
CONTINUOUS
 62
     7
  5
8B0
 10
562.144071
 20
191.121466
 30
0.0
 11
558.144071
 21
192.904019
 31
0.0
  0
LINE
  8
0
  6
CONTINUOUS
 62
     7
  5
8B1
 10
532.929712
 20
220.219552
 30
0.0
 11
532.929712
 21
220.440661
 31
0.0
  0
LINE
  8
0
  6
CONTINUOUS
 62
     7
  5
8B2
 10
535.934712
 20
219.448763
 30
0.0
 11
535.934712
 21
220.440661
 31
0.0
  0
LINE
  8
0
  6
CONTINUOUS
 62
     7
  5
8B3
 10
535.929712
 20
219.448763
 30
0.0
 11
535.934712
 21
219.448763
 31
0.0
  0
LINE
  8
0
  6
CONTINUOUS
 62
     7
  5
8B4
 10
532.929712
 20
220.219552
 30
0.0
 11
533.329712
 21
220.219552
 31
0.0
  0
LINE
  8
0
  6
CONTINUOUS
 62
     7
  5
8B5
 10
535.929712
 20
217.820573
 30
0.0
 11
535.929712
 21
219.448763
 31
0.0
  0
LINE
  8
0
  6
CONTINUOUS
 62
     7
  5
8B6
 10
533.329712
 20
220.219552
 30
0.0
 11
533.329712
 21
217.820573
 31
0.0
  0
LINE
  8
0
  6
CONTINUOUS
 62
     7
  5
8B7
 10
579.924712
 20
220.440661
 30
0.0
 11
579.924712
 21
219.448763
 31
0.0
  0
LINE
  8
0
  6
CONTINUOUS
 62
     7
  5
8B8
 10
582.929712
 20
220.219552
 30
0.0
 11
582.929712
 21
220.440661
 31
0.0
  0
LINE
  8
0
  6
CONTINUOUS
 62
     7
  5
8B9
 10
582.529712
 20
220.219552
 30
0.0
 11
582.929712
 21
220.219552
 31
0.0
  0
LINE
  8
0
  6
CONTINUOUS
 62
     7
  5
8BA
 10
579.924712
 20
219.448763
 30
0.0
 11
579.929712
 21
219.448763
 31
0.0
  0
LINE
  8
0
  6
CONTINUOUS
 62
     7
  5
8BB
 10
579.929712
 20
219.448763
 30
0.0
 11
579.929712
 21
217.820573
 31
0.0
  0
LINE
  8
0
  6
CONTINUOUS
 62
     7
  5
8BC
 10
582.529712
 20
217.820573
 30
0.0
 11
582.529712
 21
220.219552
 31
0.0
  0
LINE
  8
0
  6
CONTINUOUS
 62
     7
  5
8BD
 10
576.929712
 20
191.121466
 30
0.0
 11
562.144071
 21
191.121466
 31
0.0
  0
LINE
  8
0
  6
CONTINUOUS
 62
     7
  5
8BE
 10
538.929712
 20
186.689276
 30
0.0
 11
556.929712
 21
186.689276
 31
0.0
  0
LINE
  8
0
  6
CONTINUOUS
 62
     7
  5
8BF
 10
556.929712
 20
187.30677
 30
0.0
 11
538.929712
 21
187.30677
 31
0.0
  0
LINE
  8
0
  6
CONTINUOUS
 62
     7
  5
8C0
 10
556.929712
 20
186.689276
 30
0.0
 11
556.929712
 21
187.30677
 31
0.0
  0
LINE
  8
0
  6
CONTINUOUS
 62
     7
  5
8C1
 10
538.929712
 20
191.121466
 30
0.0
 11
554.929712
 21
191.121466
 31
0.0
  0
LINE
  8
0
  6
CONTINUOUS
 62
     7
  5
8C2
 10
556.929712
 20
188.471829
 30
0.0
 11
556.929712
 21
187.30677
 31
0.0
  0
LINE
  8
0
  6
CONTINUOUS
 62
     7
  5
8C3
 10
532.929712
 20
212.940661
 30
0.0
 11
532.929712
 21
220.219552
 31
0.0
  0
LINE
  8
0
  6
CONTINUOUS
 62
     7
  5
8C4
 10
582.929712
 20
220.219552
 30
0.0
 11
582.929712
 21
212.940661
 31
0.0
  0
LINE
  8
0
  6
CONTINUOUS
 62
     7
  5
8C5
 10
532.929712
 20
124.842394
 30
0.0
 11
532.929712
 21
143.434418
 31
0.0
  0
LINE
  8
0
  6
CONTINUOUS
 62
     7
  5
8C6
 10
535.934712
 20
122.675607
 30
0.0
 11
535.934712
 21
125.814941
 31
0.0
  0
LINE
  8
0
  6
CONTINUOUS
 62
     7
  5
8C7
 10
535.929712
 20
122.675607
 30
0.0
 11
535.934712
 21
122.675607
 31
0.0
  0
LINE
  8
0
  6
CONTINUOUS
 62
     7
  5
8C8
 10
535.929712
 20
120.350877
 30
0.0
 11
535.929712
 21
122.675607
 31
0.0
  0
LINE
  8
0
  6
CONTINUOUS
 62
     7
  5
8C9
 10
533.329712
 20
120.350877
 30
0.0
 11
535.929712
 21
120.350877
 31
0.0
  0
LINE
  8
0
  6
CONTINUOUS
 62
     7
  5
8CA
 10
533.329712
 20
124.842394
 30
0.0
 11
533.329712
 21
120.350877
 31
0.0
  0
LINE
  8
0
  6
CONTINUOUS
 62
     7
  5
8CB
 10
532.929712
 20
124.842394
 30
0.0
 11
533.329712
 21
124.842394
 31
0.0
  0
LINE
  8
0
  6
CONTINUOUS
 62
     7
  5
8CC
 10
579.924712
 20
125.814941
 30
0.0
 11
579.924712
 21
122.675607
 31
0.0
  0
LINE
  8
0
  6
CONTINUOUS
 62
     7
  5
8CD
 10
582.529712
 20
124.842394
 30
0.0
 11
582.929712
 21
124.842394
 31
0.0
  0
LINE
  8
0
  6
CONTINUOUS
 62
     7
  5
8CE
 10
582.529712
 20
120.350877
 30
0.0
 11
582.529712
 21
124.842394
 31
0.0
  0
LINE
  8
0
  6
CONTINUOUS
 62
     7
  5
8CF
 10
579.929712
 20
120.350877
 30
0.0
 11
582.529712
 21
120.350877
 31
0.0
  0
LINE
  8
0
  6
CONTINUOUS
 62
     7
  5
8D0
 10
579.929712
 20
122.675607
 30
0.0
 11
579.929712
 21
120.350877
 31
0.0
  0
LINE
  8
0
  6
CONTINUOUS
 62
     7
  5
8D1
 10
579.924712
 20
122.675607
 30
0.0
 11
579.929712
 21
122.675607
 31
0.0
  0
LINE
  8
0
  6
CONTINUOUS
 62
     7
  5
8D2
 10
582.929712
 20
124.842394
 30
0.0
 11
582.929712
 21
143.434418
 31
0.0
  0
LINE
  8
0
  6
CONTINUOUS
 62
     7
  5
8D3
 10
533.329712
 20
120.096872
 30
0.0
 11
535.929712
 21
120.096872
 31
0.0
  0
LINE
  8
0
  6
CONTINUOUS
 62
     7
  5
8D4
 10
535.929712
 20
120.096872
 30
0.0
 11
535.929712
 21
120.350877
 31
0.0
  0
LINE
  8
0
  6
CONTINUOUS
 62
     7
  5
8D5
 10
533.329712
 20
120.350877
 30
0.0
 11
533.329712
 21
120.096872
 31
0.0
  0
LINE
  8
0
  6
CONTINUOUS
 62
     7
  5
8D6
 10
579.929712
 20
108.31092
 30
0.0
 11
582.529712
 21
108.31092
 31
0.0
  0
LINE
  8
0
  6
CONTINUOUS
 62
     7
  5
8D7
 10
579.929712
 20
103.867909
 30
0.0
 11
579.929712
 21
108.31092
 31
0.0
  0
LINE
  8
0
  6
CONTINUOUS
 62
     7
  5
8D8
 10
576.929712
 20
103.867909
 30
0.0
 11
579.929712
 21
103.867909
 31
0.0
  0
LINE
  8
0
  6
CONTINUOUS
 62
     7
  5
8D9
 10
576.929712
 20
115.653861
 30
0.0
 11
576.929712
 21
103.867909
 31
0.0
  0
LINE
  8
0
  6
CONTINUOUS
 62
     7
  5
8DA
 10
579.929712
 20
115.653861
 30
0.0
 11
576.929712
 21
115.653861
 31
0.0
  0
LINE
  8
0
  6
CONTINUOUS
 62
     7
  5
8DB
 10
579.929712
 20
120.096872
 30
0.0
 11
582.529712
 21
120.096872
 31
0.0
  0
LINE
  8
0
  6
CONTINUOUS
 62
     7
  5
8DC
 10
579.929712
 20
120.096872
 30
0.0
 11
579.929712
 21
115.653861
 31
0.0
  0
LINE
  8
0
  6
CONTINUOUS
 62
     7
  5
8DD
 10
582.529712
 20
108.31092
 30
0.0
 11
582.529712
 21
120.096872
 31
0.0
  0
LINE
  8
0
  6
CONTINUOUS
 62
     7
  5
8DE
 10
538.929712
 20
115.653861
 30
0.0
 11
535.929712
 21
115.653861
 31
0.0
  0
LINE
  8
0
  6
CONTINUOUS
 62
     7
  5
8DF
 10
538.929712
 20
103.867909
 30
0.0
 11
538.929712
 21
115.653861
 31
0.0
  0
LINE
  8
0
  6
CONTINUOUS
 62
     7
  5
8E0
 10
535.929712
 20
103.867909
 30
0.0
 11
538.929712
 21
103.867909
 31
0.0
  0
LINE
  8
0
  6
CONTINUOUS
 62
     7
  5
8E1
 10
535.929712
 20
108.31092
 30
0.0
 11
535.929712
 21
103.867909
 31
0.0
  0
LINE
  8
0
  6
CONTINUOUS
 62
     7
  5
8E2
 10
533.329712
 20
108.31092
 30
0.0
 11
535.929712
 21
108.31092
 31
0.0
  0
LINE
  8
0
  6
CONTINUOUS
 62
     7
  5
8E3
 10
535.929712
 20
115.653861
 30
0.0
 11
535.929712
 21
120.096872
 31
0.0
  0
LINE
  8
0
  6
CONTINUOUS
 62
     7
  5
8E4
 10
533.329712
 20
120.096872
 30
0.0
 11
533.329712
 21
108.31092
 31
0.0
  0
LINE
  8
0
  6
CONTINUOUS
 62
     7
  5
8E5
 10
579.929712
 20
120.350877
 30
0.0
 11
579.929712
 21
120.096872
 31
0.0
  0
LINE
  8
0
  6
CONTINUOUS
 62
     7
  5
8E6
 10
582.529712
 20
120.096872
 30
0.0
 11
582.529712
 21
120.350877
 31
0.0
  0
LINE
  8
0
  6
CONTINUOUS
 62
     7
  5
8E7
 10
538.929712
 20
118.277379
 30
0.0
 11
538.929712
 21
115.653861
 31
0.0
  0
LINE
  8
0
  6
CONTINUOUS
 62
     7
  5
8E8
 10
535.934712
 20
118.434418
 30
0.0
 11
535.934712
 21
118.277379
 31
0.0
  0
LINE
  8
0
  6
CONTINUOUS
 62
     7
  5
8E9
 10
535.934712
 20
118.277379
 30
0.0
 11
538.929712
 21
118.277379
 31
0.0
  0
LINE
  8
0
  6
CONTINUOUS
 62
     7
  5
8EA
 10
579.924712
 20
118.277379
 30
0.0
 11
579.924712
 21
118.434418
 31
0.0
  0
LINE
  8
0
  6
CONTINUOUS
 62
     7
  5
8EB
 10
576.929712
 20
118.277379
 30
0.0
 11
579.924712
 21
118.277379
 31
0.0
  0
LINE
  8
0
  6
CONTINUOUS
 62
     7
  5
8EC
 10
576.929712
 20
115.653861
 30
0.0
 11
576.929712
 21
118.277379
 31
0.0
  0
LINE
  8
0
  6
CONTINUOUS
 62
     7
  5
8ED
 10
576.929712
 20
115.695027
 30
0.0
 11
538.929712
 21
115.695027
 31
0.0
  0
LINE
  8
0
  6
CONTINUOUS
 62
     7
  5
8EE
 10
576.929712
 20
118.368647
 30
0.0
 11
538.929712
 21
118.368647
 31
0.0
  0
LINE
  8
0
  6
CONTINUOUS
 62
     7
  5
8EF
 10
576.929712
 20
108.777764
 30
0.0
 11
538.929712
 21
108.777764
 31
0.0
  0
LINE
  8
0
  6
CONTINUOUS
 62
     7
  5
8F0
 10
538.929712
 20
118.439839
 30
0.0
 11
576.929712
 21
118.439839
 31
0.0
  0
LINE
  8
0
  6
CONTINUOUS
 62
     7
  5
8F1
 10
538.929712
 20
118.277379
 30
0.0
 11
538.929712
 21
118.368647
 31
0.0
  0
LINE
  8
0
  6
CONTINUOUS
 62
     7
  5
8F2
 10
576.929712
 20
118.368647
 30
0.0
 11
576.929712
 21
118.277379
 31
0.0
  0
LINE
  8
0
  6
CONTINUOUS
 62
     7
  5
8F3
 10
558.144071
 20
129.174509
 30
0.0
 11
558.144071
 21
132.367092
 31
0.0
  0
LINE
  8
0
  6
CONTINUOUS
 62
     7
  5
8F4
 10
554.929712
 20
129.174509
 30
0.0
 11
558.144071
 21
129.174509
 31
0.0
  0
LINE
  8
0
  6
CONTINUOUS
 62
     7
  5
8F5
 10
558.144071
 20
132.367092
 30
0.0
 11
554.929712
 21
132.367092
 31
0.0
  0
LINE
  8
0
  6
CONTINUOUS
 62
     7
  5
8F6
 10
554.929712
 20
129.174509
 30
0.0
 11
554.929712
 21
132.367092
 31
0.0
  0
LINE
  8
0
  6
CONTINUOUS
 62
     7
  5
8F7
 10
561.391604
 20
133.954593
 30
0.0
 11
558.144071
 21
132.367092
 31
0.0
  0
LINE
  8
0
  6
CONTINUOUS
 62
     7
  5
8F8
 10
554.929712
 20
133.044438
 30
0.0
 11
557.929712
 21
133.044438
 31
0.0
  0
LINE
  8
0
  6
CONTINUOUS
 62
     7
  5
8F9
 10
557.929712
 20
133.044438
 30
0.0
 11
559.791604
 21
133.954593
 31
0.0
  0
LINE
  8
0
  6
CONTINUOUS
 62
     7
  5
8FA
 10
554.929712
 20
132.367092
 30
0.0
 11
554.929712
 21
133.044438
 31
0.0
  0
LINE
  8
0
  6
CONTINUOUS
 62
     7
  5
8FB
 10
562.144071
 20
131.12984
 30
0.0
 11
562.144071
 21
133.954593
 31
0.0
  0
LINE
  8
0
  6
CONTINUOUS
 62
     7
  5
8FC
 10
558.144071
 20
129.174509
 30
0.0
 11
562.144071
 21
131.12984
 31
0.0
  0
LINE
  8
0
  6
CONTINUOUS
 62
     7
  5
8FD
 10
562.144071
 20
131.12984
 30
0.0
 11
576.929712
 21
131.12984
 31
0.0
  0
LINE
  8
0
  6
CONTINUOUS
 62
     7
  5
8FE
 10
554.929712
 20
131.12984
 30
0.0
 11
538.929712
 21
131.12984
 31
0.0
  0
LINE
  8
0
  6
CONTINUOUS
 62
     7
  5
8FF
 10
556.929712
 20
133.954593
 30
0.0
 11
556.929712
 21
133.044438
 31
0.0
  0
LINE
  8
0
  6
CONTINUOUS
 62
     7
  5
900
 10
579.929712
 20
102.205455
 30
0.0
 11
579.929712
 21
102.720152
 31
0.0
  0
LINE
  8
0
  6
CONTINUOUS
 62
     7
  5
901
 10
579.929712
 20
102.720152
 30
0.0
 11
579.929712
 21
103.867909
 31
0.0
  0
LINE
  8
0
  6
CONTINUOUS
 62
     7
  5
902
 10
576.929712
 20
103.867909
 30
0.0
 11
576.929712
 21
102.205455
 31
0.0
  0
LINE
  8
0
  6
CONTINUOUS
 62
     7
  5
903
 10
538.929712
 20
102.205455
 30
0.0
 11
538.929712
 21
103.867909
 31
0.0
  0
LINE
  8
0
  6
CONTINUOUS
 62
     7
  5
904
 10
535.929712
 20
103.867909
 30
0.0
 11
535.929712
 21
102.720152
 31
0.0
  0
LINE
  8
0
  6
CONTINUOUS
 62
     7
  5
905
 10
535.929712
 20
102.720152
 30
0.0
 11
535.929712
 21
102.205455
 31
0.0
  0
LINE
  8
0
  6
CONTINUOUS
 62
     7
  5
906
 10
582.929712
 20
103.739599
 30
0.0
 11
582.929712
 21
124.842394
 31
0.0
  0
LINE
  8
0
  6
CONTINUOUS
 62
     7
  5
907
 10
582.529712
 20
103.739599
 30
0.0
 11
582.929712
 21
103.739599
 31
0.0
  0
LINE
  8
0
  6
CONTINUOUS
 62
     7
  5
908
 10
582.529712
 20
102.205455
 30
0.0
 11
582.529712
 21
103.739599
 31
0.0
  0
LINE
  8
0
  6
CONTINUOUS
 62
     7
  5
909
 10
579.929712
 20
102.205455
 30
0.0
 11
582.529712
 21
102.205455
 31
0.0
  0
LINE
  8
0
  6
CONTINUOUS
 62
     7
  5
90A
 10
579.929712
 20
102.720152
 30
0.0
 11
579.929712
 21
102.205455
 31
0.0
  0
LINE
  8
0
  6
CONTINUOUS
 62
     7
  5
90B
 10
579.924712
 20
102.720152
 30
0.0
 11
579.929712
 21
102.720152
 31
0.0
  0
LINE
  8
0
  6
CONTINUOUS
 62
     7
  5
90C
 10
579.924712
 20
103.867909
 30
0.0
 11
579.924712
 21
102.720152
 31
0.0
  0
LINE
  8
0
  6
CONTINUOUS
 62
     7
  5
90D
 10
535.934712
 20
102.720152
 30
0.0
 11
535.934712
 21
103.867909
 31
0.0
  0
LINE
  8
0
  6
CONTINUOUS
 62
     7
  5
90E
 10
535.929712
 20
102.720152
 30
0.0
 11
535.934712
 21
102.720152
 31
0.0
  0
LINE
  8
0
  6
CONTINUOUS
 62
     7
  5
90F
 10
535.929712
 20
102.205455
 30
0.0
 11
535.929712
 21
102.720152
 31
0.0
  0
LINE
  8
0
  6
CONTINUOUS
 62
     7
  5
910
 10
533.329712
 20
102.205455
 30
0.0
 11
535.929712
 21
102.205455
 31
0.0
  0
LINE
  8
0
  6
CONTINUOUS
 62
     7
  5
911
 10
533.329712
 20
103.739599
 30
0.0
 11
533.329712
 21
102.205455
 31
0.0
  0
LINE
  8
0
  6
CONTINUOUS
 62
     7
  5
912
 10
532.929712
 20
103.739599
 30
0.0
 11
533.329712
 21
103.739599
 31
0.0
  0
LINE
  8
0
  6
CONTINUOUS
 62
     7
  5
913
 10
532.929712
 20
103.739599
 30
0.0
 11
532.929712
 21
124.842394
 31
0.0
  0
LINE
  8
0
  6
CONTINUOUS
 62
     7
  5
914
 10
579.929712
 20
101.905455
 30
0.0
 11
582.529712
 21
101.905455
 31
0.0
  0
LINE
  8
0
  6
CONTINUOUS
 62
     7
  5
915
 10
579.929712
 20
102.205455
 30
0.0
 11
579.929712
 21
101.905455
 31
0.0
  0
LINE
  8
0
  6
CONTINUOUS
 62
     7
  5
916
 10
582.529712
 20
101.905455
 30
0.0
 11
582.529712
 21
102.205455
 31
0.0
  0
LINE
  8
0
  6
CONTINUOUS
 62
     7
  5
917
 10
533.329712
 20
101.905455
 30
0.0
 11
535.929712
 21
101.905455
 31
0.0
  0
LINE
  8
0
  6
CONTINUOUS
 62
     7
  5
918
 10
535.929712
 20
101.905455
 30
0.0
 11
535.929712
 21
102.205455
 31
0.0
  0
LINE
  8
0
  6
CONTINUOUS
 62
     7
  5
919
 10
533.329712
 20
102.205455
 30
0.0
 11
533.329712
 21
101.905455
 31
0.0
  0
LINE
  8
0
  6
CONTINUOUS
 62
     7
  5
91A
 10
576.929712
 20
101.905455
 30
0.0
 11
576.929712
 21
102.205455
 31
0.0
  0
LINE
  8
0
  6
CONTINUOUS
 62
     7
  5
91B
 10
579.929712
 20
101.905455
 30
0.0
 11
576.929712
 21
101.905455
 31
0.0
  0
LINE
  8
0
  6
CONTINUOUS
 62
     7
  5
91C
 10
576.929712
 20
105.363213
 30
0.0
 11
538.929712
 21
105.363213
 31
0.0
  0
LINE
  8
0
  6
CONTINUOUS
 62
     7
  5
91D
 10
538.929712
 20
105.605455
 30
0.0
 11
576.929712
 21
105.605455
 31
0.0
  0
LINE
  8
0
  6
CONTINUOUS
 62
     7
  5
91E
 10
538.929712
 20
102.205455
 30
0.0
 11
538.929712
 21
101.905455
 31
0.0
  0
LINE
  8
0
  6
CONTINUOUS
 62
     7
  5
91F
 10
538.929712
 20
101.905455
 30
0.0
 11
535.929712
 21
101.905455
 31
0.0
  0
LINE
  8
0
  6
CONTINUOUS
 62
     7
  5
920
 10
576.929712
 20
102.205455
 30
0.0
 11
538.929712
 21
102.205455
 31
0.0
  0
LINE
  8
0
  6
CONTINUOUS
 62
     7
  5
921
 10
556.929712
 20
127.205455
 30
0.0
 11
538.929712
 21
127.205455
 31
0.0
  0
LINE
  8
0
  6
CONTINUOUS
 62
     7
  5
922
 10
556.929712
 20
126.405455
 30
0.0
 11
556.929712
 21
127.205455
 31
0.0
  0
LINE
  8
0
  6
CONTINUOUS
 62
     7
  5
923
 10
538.929712
 20
126.405455
 30
0.0
 11
556.929712
 21
126.405455
 31
0.0
  0
LINE
  8
0
  6
CONTINUOUS
 62
     7
  5
924
 10
557.929712
 20
124.896054
 30
0.0
 11
561.929712
 21
127.205455
 31
0.0
  0
LINE
  8
0
  6
CONTINUOUS
 62
     7
  5
925
 10
554.929712
 20
124.096054
 30
0.0
 11
554.929712
 21
124.896054
 31
0.0
  0
LINE
  8
0
  6
CONTINUOUS
 62
     7
  5
926
 10
558.144071
 20
124.096054
 30
0.0
 11
554.929712
 21
124.096054
 31
0.0
  0
LINE
  8
0
  6
CONTINUOUS
 62
     7
  5
927
 10
561.929712
 20
127.205455
 30
0.0
 11
576.929712
 21
127.205455
 31
0.0
  0
LINE
  8
0
  6
CONTINUOUS
 62
     7
  5
928
 10
576.929712
 20
126.405455
 30
0.0
 11
562.144071
 21
126.405455
 31
0.0
  0
LINE
  8
0
  6
CONTINUOUS
 62
     7
  5
929
 10
562.144071
 20
126.405455
 30
0.0
 11
558.144071
 21
124.096054
 31
0.0
  0
LINE
  8
0
  6
CONTINUOUS
 62
     7
  5
92A
 10
554.929712
 20
124.896054
 30
0.0
 11
557.929712
 21
124.896054
 31
0.0
  0
LINE
  8
0
  6
CONTINUOUS
 62
     7
  5
92B
 10
522.929712
 20
113.205455
 30
0.0
 11
513.329712
 21
113.205455
 31
0.0
  0
LINE
  8
0
  6
CONTINUOUS
 62
     7
  5
92C
 10
513.329712
 20
108.205455
 30
0.0
 11
522.929712
 21
108.205455
 31
0.0
  0
LINE
  8
0
  6
CONTINUOUS
 62
     7
  5
92D
 10
513.329712
 20
113.205455
 30
0.0
 11
512.929712
 21
112.805455
 31
0.0
  0
LINE
  8
0
  6
CONTINUOUS
 62
     7
  5
92E
 10
512.929712
 20
108.605455
 30
0.0
 11
513.329712
 21
108.205455
 31
0.0
  0
LINE
  8
0
  6
CONTINUOUS
 62
     7
  5
92F
 10
533.329712
 20
212.940661
 30
0.0
 11
532.929712
 21
212.940661
 31
0.0
  0
LINE
  8
0
  6
CONTINUOUS
 62
     7
  5
930
 10
582.929712
 20
212.940661
 30
0.0
 11
582.529712
 21
212.940661
 31
0.0
  0
LINE
  8
0
  6
CONTINUOUS
 62
     7
  5
931
 10
582.529712
 20
202.940661
 30
0.0
 11
582.929712
 21
202.940661
 31
0.0
  0
LINE
  8
0
  6
CONTINUOUS
 62
     7
  5
932
 10
532.929712
 20
202.940661
 30
0.0
 11
533.329712
 21
202.940661
 31
0.0
  0
LINE
  8
0
  6
CONTINUOUS
 62
     7
  5
933
 10
533.329712
 20
171.388674
 30
0.0
 11
532.929712
 21
171.388674
 31
0.0
  0
LINE
  8
0
  6
CONTINUOUS
 62
     7
  5
934
 10
582.929712
 20
171.388674
 30
0.0
 11
582.529712
 21
171.388674
 31
0.0
  0
LINE
  8
0
  6
CONTINUOUS
 62
     7
  5
935
 10
576.929712
 20
118.434418
 30
0.0
 11
579.929712
 21
118.434418
 31
0.0
  0
LINE
  8
0
  6
CONTINUOUS
 62
     7
  5
936
 10
535.929712
 20
118.434418
 30
0.0
 11
538.929712
 21
118.434418
 31
0.0
  0
LINE
  8
0
  6
CONTINUOUS
 62
     7
  5
937
 10
582.929712
 20
201.049289
 30
0.0
 11
579.929712
 21
201.049289
 31
0.0
  0
LINE
  8
0
  6
CONTINUOUS
 62
     7
  5
938
 10
535.929712
 20
201.049289
 30
0.0
 11
532.929712
 21
201.049289
 31
0.0
  0
LINE
  8
0
  6
CONTINUOUS
 62
     7
  5
939
 10
582.529712
 20
153.888674
 30
0.0
 11
582.929712
 21
153.888674
 31
0.0
  0
LINE
  8
0
  6
CONTINUOUS
 62
     7
  5
93A
 10
532.929712
 20
153.888674
 30
0.0
 11
533.329712
 21
153.888674
 31
0.0
  0
LINE
  8
0
  6
CONTINUOUS
 62
     7
  5
93B
 10
533.329712
 20
193.549289
 30
0.0
 11
532.929712
 21
193.549289
 31
0.0
  0
LINE
  8
0
  6
CONTINUOUS
 62
     7
  5
93C
 10
582.929712
 20
193.549289
 30
0.0
 11
582.529712
 21
193.549289
 31
0.0
  0
LINE
  8
0
  6
CONTINUOUS
 62
     7
  5
93D
 10
532.929712
 20
183.549289
 30
0.0
 11
533.329712
 21
183.549289
 31
0.0
  0
LINE
  8
0
  6
CONTINUOUS
 62
     7
  5
93E
 10
582.529712
 20
183.549289
 30
0.0
 11
582.929712
 21
183.549289
 31
0.0
  0
LINE
  8
0
  6
CONTINUOUS
 62
     7
  5
93F
 10
535.929712
 20
220.440661
 30
0.0
 11
532.929712
 21
220.440661
 31
0.0
  0
LINE
  8
0
  6
CONTINUOUS
 62
     7
  5
940
 10
582.929712
 20
220.440661
 30
0.0
 11
579.929712
 21
220.440661
 31
0.0
  0
LINE
  8
0
  6
CONTINUOUS
 62
     7
  5
941
 10
533.329712
 20
143.434418
 30
0.0
 11
532.929712
 21
143.434418
 31
0.0
  0
LINE
  8
0
  6
CONTINUOUS
 62
     7
  5
942
 10
582.929712
 20
143.434418
 30
0.0
 11
582.529712
 21
143.434418
 31
0.0
  0
LINE
  8
0
  6
CONTINUOUS
 62
     7
  5
943
 10
576.929712
 20
102.205455
 30
0.0
 11
579.929712
 21
102.205455
 31
0.0
  0
LINE
  8
0
  6
CONTINUOUS
 62
     7
  5
944
 10
535.929712
 20
102.205455
 30
0.0
 11
538.929712
 21
102.205455
 31
0.0
  0
ENDBLK
  8
0
  5
945
  0
ENDSEC
  0
SECTION
  2
ENTITIES
  0
INSERT
  8
0
  5
17D
  2
AID3
 10
0.0
 20
0.0
 30
0.0
  0
INSERT
  8
0
  5
398
  2
AID691
 10
0.0
 20
0.0
 30
0.0
  0
INSERT
  8
0
  5
506
  2
AID1765
 10
0.0
 20
0.0
 30
0.0
  0
INSERT
  8
0
  5
772
  2
AID2493
 10
0.0
 20
0.0
 30
0.0
  0
INSERT
  8
0
  5
946
  2
AID3729
 10
0.0
 20
0.0
 30
0.0
  0
ENDSEC
  0
EOF
