  0
SECTION
  2
HEADER
  9
$ACADVER
  1
AC1009
  9
$DWGCODEPAGE
  3
ansi_1252
  9
$INSBASE
 10
0.0
 20
0.0
 30
0.0
  9
$EXTMIN
 10
-173.600549
 20
-151.146701
 30
0.0
  9
$EXTMAX
 10
553.112905
 20
454.478476
 30
5.0
  9
$LIMMIN
 10
-173.600549
 20
-151.146701
  9
$LIMMAX
 10
553.112905
 20
454.478476
  9
$ORTHOMODE
 70
     0
  9
$REGENMODE
 70
     1
  9
$FILLMODE
 70
     1
  9
$QTEXTMODE
 70
     0
  9
$MIRRTEXT
 70
     1
  9
$DRAGMODE
 70
     2
  9
$LTSCALE
 40
10.0
  9
$OSMODE
 70
     0
  9
$ATTMODE
 70
     1
  9
$TEXTSIZE
 40
0.2
  9
$TRACEWID
 40
0.05
  9
$TEXTSTYLE
  7
STANDARD
  9
$CLAYER
  8
0
  9
$CELTYPE
  6
CONTINUOUS
  9
$CECOLOR
 62
   256
  9
$DIMSCALE
 40
1.0
  9
$DIMASZ
 40
1.25
  9
$DIMEXO
 40
1.0
  9
$DIMDLI
 40
0.38
  9
$DIMRND
 40
0.0
  9
$DIMDLE
 40
0.0
  9
$DIMEXE
 40
0.75
  9
$DIMTP
 40
0.0
  9
$DIMTM
 40
0.0
  9
$DIMTXT
 40
2.5
  9
$DIMCEN
 40
0.09
  9
$DIMTSZ
 40
0.0
  9
$DIMTOL
 70
     0
  9
$DIMLIM
 70
     0
  9
$DIMTIH
 70
     0
  9
$DIMTOH
 70
     0
  9
$DIMSE1
 70
     0
  9
$DIMSE2
 70
     0
  9
$DIMTAD
 70
     1
  9
$DIMZIN
 70
     0
  9
$DIMBLK
  1

  9
$DIMASO
 70
     1
  9
$DIMSHO
 70
     1
  9
$DIMPOST
  1

  9
$DIMAPOST
  1

  9
$DIMALT
 70
     0
  9
$DIMALTD
 70
     2
  9
$DIMALTF
 40
25.4
  9
$DIMLFAC
 40
1.0
  9
$DIMTOFL
 70
     0
  9
$DIMTVP
 40
0.0
  9
$DIMTIX
 70
     0
  9
$DIMSOXD
 70
     0
  9
$DIMSAH
 70
     0
  9
$DIMBLK1
  1

  9
$DIMBLK2
  1

  9
$DIMSTYLE
  2
STANDARD
  9
$DIMCLRD
 70
     7
  9
$DIMCLRE
 70
     7
  9
$DIMCLRT
 70
     7
  9
$DIMTFAC
 40
0.8
  9
$DIMGAP
 40
1.25
  9
$LUNITS
 70
     2
  9
$LUPREC
 70
     4
  9
$AXISMODE
 70
     0
  9
$AXISUNIT
 10
0.0
 20
0.0
  9
$SKETCHINC
 40
0.1
  9
$FILLETRAD
 40
0.0
  9
$AUNITS
 70
     0
  9
$AUPREC
 70
     0
  9
$MENU
  1
acad
  9
$ELEVATION
 40
0.0
  9
$PELEVATION
 40
0.0
  9
$THICKNESS
 40
0.0
  9
$LIMCHECK
 70
     0
  9
$BLIPMODE
 70
     1
  9
$CHAMFERA
 40
0.0
  9
$CHAMFERB
 40
0.0
  9
$SKPOLY
 70
     0
  9
$TDCREATE
 40
2454334.703634259
  9
$TDUPDATE
 40
2454334.619965278
  9
$TDINDWG
 40
0.0000000000
  9
$TDUSRTIMER
 40
0.0000000000
  9
$USRTIMER
 70
     1
  9
$ANGBASE
 50
0.0
  9
$ANGDIR
 70
     0
  9
$PDMODE
 70
     0
  9
$PDSIZE
 40
0.0
  9
$PLINEWID
 40
0.0
  9
$COORDS
 70
     0
  9
$SPLFRAME
 70
     0
  9
$SPLINETYPE
 70
     6
  9
$SPLINESEGS
 70
     8
  9
$ATTDIA
 70
     0
  9
$ATTREQ
 70
     1
  9
$HANDLING
 70
     1
  9
$HANDSEED
  5
9FC
  9
$SURFTAB1
 70
     6
  9
$SURFTAB2
 70
     6
  9
$SURFTYPE
 70
     6
  9
$SURFU
 70
     6
  9
$SURFV
 70
     6
  9
$UCSNAME
  2

  9
$UCSORG
 10
0.0
 20
0.0
 30
0.0
  9
$UCSXDIR
 10
1.0
 20
0.0
 30
0.0
  9
$UCSYDIR
 10
0.0
 20
1.0
 30
0.0
  9
$PUCSNAME
  2

  9
$PUCSORG
 10
0.0
 20
0.0
 30
0.0
  9
$PUCSXDIR
 10
1.0
 20
0.0
 30
0.0
  9
$PUCSYDIR
 10
0.0
 20
1.0
 30
0.0
  9
$USERI1
 70
     0
  9
$USERI2
 70
     0
  9
$USERI3
 70
     0
  9
$USERI4
 70
     0
  9
$USERI5
 70
     0
  9
$USERR1
 40
0.0
  9
$USERR2
 40
0.0
  9
$USERR3
 40
0.0
  9
$USERR4
 40
0.0
  9
$USERR5
 40
0.0
  9
$WORLDVIEW
 70
     1
  9
$SHADEDGE
 70
     3
  9
$SHADEDIF
 70
    70
  9
$TILEMODE
 70
     1
  9
$MAXACTVP
 70
    16
  9
$PINSBASE
 10
0.0
 20
0.0
 30
0.0
  9
$PLIMCHECK
 70
     0
  9
$PEXTMIN
 10
1.000000E+20
 20
1.000000E+20
 30
1.000000E+20
  9
$PEXTMAX
 10
-1.000000E+20
 20
-1.000000E+20
 30
-1.000000E+20
  9
$PLIMMIN
 10
0.0
 20
0.0
  9
$PLIMMAX
 10
12.0
 20
9.0
  9
$UNITMODE
 70
     0
  9
$VISRETAIN
 70
     0
  9
$PLINEGEN
 70
     1
  9
$PSLTSCALE
 70
     0
  9
$TREEDEPTH
 70
  3020
  0
ENDSEC
  0
SECTION
  2
TABLES
  0
TABLE
  2
VPORT
 70
     1
  0
VPORT
  2
*ACTIVE
 70
     0
 10
0.0
 20
0.0
 11
1.0
 21
1.0
 12
6.591288
 22
4.579184
 13
0.0
 23
0.0
 14
1.0
 24
1.0
 15
0.0
 25
0.0
 16
0.0
 26
0.0
 36
1.0
 17
0.0
 27
0.0
 37
0.0
 40
9.158369
 41
0.688564
 42
50.0
 43
0.0
 44
0.0
 50
0.0
 51
0.0
 71
     0
 72
   100
 73
     1
 74
     1
 75
     0
 76
     0
 77
     0
 78
     0
  0
ENDTAB
  0
TABLE
  2
LTYPE
 70
     1
  0
LTYPE
  2
CONTINUOUS
 70
    64
  3
Solid line
 72
    65
 73
     0
 40
0.0
  0
ENDTAB
  0
TABLE
  2
LAYER
 70
     1
  0
LAYER
  2
0
 70
     0
 62
     7
  6
CONTINUOUS
  0
ENDTAB
  0
TABLE
  2
STYLE
 70
     1
  0
STYLE
  2
STANDARD
 70
     0
 40
0.0
 41
1.0
 50
0.0
 71
     0
 42
0.0
  3
IsonormD
  4

  0
ENDTAB
  0
TABLE
  2
VIEW
 70
     0
  0
ENDTAB
  0
TABLE
  2
UCS
 70
     0
  0
ENDTAB
  0
TABLE
  2
APPID
 70
     2
  0
APPID
  2
ACAD
 70
     0
  0
APPID
  2
TopSolid_Draft
 70
     0
  0
ENDTAB
  0
TABLE
  2
DIMSTYLE
 70
     1
  0
DIMSTYLE
  2
STANDARD
 70
     0
  3

  4

  5

  6

  7

 40
1.0
 41
1.25
 42
1.0
 43
0.38
 44
0.75
 45
0.0
 46
0.0
 47
0.0
 48
0.0
 71
     0
 72
     0
 73
     0
 74
     0
 75
     0
 76
     0
 77
     1
 78
     0
140
2.5
141
0.09
142
0.0
143
25.4
144
1.0
145
0.0
146
0.8
147
1.25
170
     0
171
     2
172
     0
173
     0
174
     0
175
     0
176
     7
177
     7
178
     7
  0
ENDTAB
  0
ENDSEC
  0
SECTION
  2
BLOCKS
  0
BLOCK
  8
0
  5
25
  2
AID3
 70
     0
 10
0.0
 20
0.0
 30
0.0
  3
#draft view
  0
ARC
  8
0
  6
CONTINUOUS
 62
     7
  5
26
 10
202.631006
 20
78.398282
 30
0.0
 40
5.0
 50
180.0
 51
360.0
210
0.0
220
0.0
230
1.0
  0
ARC
  8
0
  6
CONTINUOUS
 62
     7
  5
27
 10
202.631006
 20
78.398282
 30
0.0
 40
5.0
 50
0.0
 51
180.0
210
0.0
220
0.0
230
1.0
  0
LINE
  8
0
  6
CONTINUOUS
 62
     7
  5
28
 10
166.131006
 20
67.432426
 30
0.0
 11
166.131006
 21
89.364138
 31
0.0
  0
ARC
  8
0
  6
CONTINUOUS
 62
     7
  5
29
 10
172.131006
 20
78.398282
 30
0.0
 40
12.5
 50
118.685402
 51
241.314598
210
0.0
220
0.0
230
1.0
  0
LINE
  8
0
  6
CONTINUOUS
 62
     7
  5
2A
 10
194.281006
 20
91.198282
 30
0.0
 11
194.281006
 21
88.0997
 31
0.0
  0
LINE
  8
0
  6
CONTINUOUS
 62
     7
  5
2B
 10
194.281006
 20
65.598282
 30
0.0
 11
172.131006
 21
65.598282
 31
0.0
  0
LINE
  8
0
  6
CONTINUOUS
 62
     7
  5
2C
 10
172.131006
 20
65.598282
 30
0.0
 11
172.131006
 21
65.898282
 31
0.0
  0
LINE
  8
0
  6
CONTINUOUS
 62
     7
  5
2D
 10
172.131006
 20
90.898282
 30
0.0
 11
172.131006
 21
91.198282
 31
0.0
  0
ARC
  8
0
  6
CONTINUOUS
 62
     7
  5
2E
 10
202.631006
 20
78.398282
 30
0.0
 40
12.8
 50
180.0
 51
229.281455
210
0.0
220
0.0
230
1.0
  0
ARC
  8
0
  6
CONTINUOUS
 62
     7
  5
2F
 10
202.631006
 20
78.398282
 30
0.0
 40
12.8
 50
130.718545
 51
180.0
210
0.0
220
0.0
230
1.0
  0
LINE
  8
0
  6
CONTINUOUS
 62
     7
  5
30
 10
172.131006
 20
91.198282
 30
0.0
 11
194.281006
 21
91.198282
 31
0.0
  0
LINE
  8
0
  6
CONTINUOUS
 62
     7
  5
31
 10
194.281006
 20
68.696865
 30
0.0
 11
194.281006
 21
65.598282
 31
0.0
  0
ARC
  8
0
  6
CONTINUOUS
 62
     7
  5
32
 10
172.131006
 20
78.398282
 30
0.0
 40
12.5
 50
241.314598
 51
270.0
210
0.0
220
0.0
230
1.0
  0
ARC
  8
0
  6
CONTINUOUS
 62
     7
  5
33
 10
172.131006
 20
78.398282
 30
0.0
 40
12.5
 50
90.0
 51
118.685402
210
0.0
220
0.0
230
1.0
  0
LINE
  8
0
  6
CONTINUOUS
 62
     7
  5
34
 10
202.631006
 20
65.598282
 30
0.0
 11
194.281006
 21
65.598282
 31
0.0
  0
LINE
  8
0
  6
CONTINUOUS
 62
     7
  5
35
 10
194.281006
 20
91.198282
 30
0.0
 11
202.631006
 21
91.198282
 31
0.0
  0
ARC
  8
0
  6
CONTINUOUS
 62
     7
  5
36
 10
202.631006
 20
228.398282
 30
0.0
 40
12.5
 50
298.685402
 51
61.314598
210
0.0
220
0.0
230
1.0
  0
LINE
  8
0
  6
CONTINUOUS
 62
     7
  5
37
 10
208.631006
 20
239.364138
 30
0.0
 11
208.631006
 21
217.432426
 31
0.0
  0
ARC
  8
0
  6
CONTINUOUS
 62
     7
  5
38
 10
172.131006
 20
228.398282
 30
0.0
 40
5.0
 50
0.0
 51
180.0
210
0.0
220
0.0
230
1.0
  0
ARC
  8
0
  6
CONTINUOUS
 62
     7
  5
39
 10
172.131006
 20
228.398282
 30
0.0
 40
5.0
 50
180.0
 51
0.0
210
0.0
220
0.0
230
1.0
  0
LINE
  8
0
  6
CONTINUOUS
 62
     7
  5
3A
 10
202.631006
 20
215.598282
 30
0.0
 11
180.481006
 21
215.598282
 31
0.0
  0
LINE
  8
0
  6
CONTINUOUS
 62
     7
  5
3B
 10
180.481006
 20
215.598282
 30
0.0
 11
180.481006
 21
218.696865
 31
0.0
  0
ARC
  8
0
  6
CONTINUOUS
 62
     7
  5
3C
 10
172.131006
 20
228.398282
 30
0.0
 40
12.8
 50
310.718545
 51
360.0
210
0.0
220
0.0
230
1.0
  0
ARC
  8
0
  6
CONTINUOUS
 62
     7
  5
3D
 10
172.131006
 20
228.398282
 30
0.0
 40
12.8
 50
0.0
 51
49.281455
210
0.0
220
0.0
230
1.0
  0
LINE
  8
0
  6
CONTINUOUS
 62
     7
  5
3E
 10
180.481006
 20
238.0997
 30
0.0
 11
180.481006
 21
241.198282
 31
0.0
  0
LINE
  8
0
  6
CONTINUOUS
 62
     7
  5
3F
 10
180.481006
 20
241.198282
 30
0.0
 11
202.631006
 21
241.198282
 31
0.0
  0
LINE
  8
0
  6
CONTINUOUS
 62
     7
  5
40
 10
202.631006
 20
241.198282
 30
0.0
 11
202.631006
 21
240.898282
 31
0.0
  0
LINE
  8
0
  6
CONTINUOUS
 62
     7
  5
41
 10
202.631006
 20
215.898282
 30
0.0
 11
202.631006
 21
215.598282
 31
0.0
  0
ARC
  8
0
  6
CONTINUOUS
 62
     7
  5
42
 10
202.631006
 20
228.398282
 30
0.0
 40
12.5
 50
61.314598
 51
90.0
210
0.0
220
0.0
230
1.0
  0
ARC
  8
0
  6
CONTINUOUS
 62
     7
  5
43
 10
202.631006
 20
228.398282
 30
0.0
 40
12.5
 50
270.0
 51
298.685402
210
0.0
220
0.0
230
1.0
  0
LINE
  8
0
  6
CONTINUOUS
 62
     7
  5
44
 10
180.481006
 20
215.598282
 30
0.0
 11
172.131006
 21
215.598282
 31
0.0
  0
LINE
  8
0
  6
CONTINUOUS
 62
     7
  5
45
 10
172.131006
 20
241.198282
 30
0.0
 11
180.481006
 21
241.198282
 31
0.0
  0
LINE
  8
0
  6
CONTINUOUS
 62
     7
  5
46
 10
300.131006
 20
239.364138
 30
0.0
 11
300.131006
 21
217.432426
 31
0.0
  0
ARC
  8
0
  6
CONTINUOUS
 62
     7
  5
47
 10
294.131006
 20
228.398282
 30
0.0
 40
12.5
 50
298.685402
 51
61.314598
210
0.0
220
0.0
230
1.0
  0
ARC
  8
0
  6
CONTINUOUS
 62
     7
  5
48
 10
263.631006
 20
228.398282
 30
0.0
 40
5.0
 50
180.0
 51
360.0
210
0.0
220
0.0
230
1.0
  0
ARC
  8
0
  6
CONTINUOUS
 62
     7
  5
49
 10
263.631006
 20
228.398282
 30
0.0
 40
5.0
 50
0.0
 51
180.0
210
0.0
220
0.0
230
1.0
  0
LINE
  8
0
  6
CONTINUOUS
 62
     7
  5
4A
 10
294.131006
 20
215.598282
 30
0.0
 11
271.981006
 21
215.598282
 31
0.0
  0
LINE
  8
0
  6
CONTINUOUS
 62
     7
  5
4B
 10
271.981006
 20
215.598282
 30
0.0
 11
271.981006
 21
218.696865
 31
0.0
  0
ARC
  8
0
  6
CONTINUOUS
 62
     7
  5
4C
 10
263.631006
 20
228.398282
 30
0.0
 40
12.8
 50
310.718545
 51
360.0
210
0.0
220
0.0
230
1.0
  0
ARC
  8
0
  6
CONTINUOUS
 62
     7
  5
4D
 10
263.631006
 20
228.398282
 30
0.0
 40
12.8
 50
0.0
 51
49.281455
210
0.0
220
0.0
230
1.0
  0
LINE
  8
0
  6
CONTINUOUS
 62
     7
  5
4E
 10
271.981006
 20
238.0997
 30
0.0
 11
271.981006
 21
241.198282
 31
0.0
  0
LINE
  8
0
  6
CONTINUOUS
 62
     7
  5
4F
 10
271.981006
 20
241.198282
 30
0.0
 11
294.131006
 21
241.198282
 31
0.0
  0
LINE
  8
0
  6
CONTINUOUS
 62
     7
  5
50
 10
294.131006
 20
241.198282
 30
0.0
 11
294.131006
 21
240.898282
 31
0.0
  0
LINE
  8
0
  6
CONTINUOUS
 62
     7
  5
51
 10
294.131006
 20
215.898282
 30
0.0
 11
294.131006
 21
215.598282
 31
0.0
  0
ARC
  8
0
  6
CONTINUOUS
 62
     7
  5
52
 10
294.131006
 20
228.398282
 30
0.0
 40
12.5
 50
61.314598
 51
90.0
210
0.0
220
0.0
230
1.0
  0
ARC
  8
0
  6
CONTINUOUS
 62
     7
  5
53
 10
294.131006
 20
228.398282
 30
0.0
 40
12.5
 50
270.0
 51
298.685402
210
0.0
220
0.0
230
1.0
  0
LINE
  8
0
  6
CONTINUOUS
 62
     7
  5
54
 10
271.981006
 20
215.598282
 30
0.0
 11
263.631006
 21
215.598282
 31
0.0
  0
LINE
  8
0
  6
CONTINUOUS
 62
     7
  5
55
 10
263.631006
 20
241.198282
 30
0.0
 11
271.981006
 21
241.198282
 31
0.0
  0
ARC
  8
0
  6
CONTINUOUS
 62
     7
  5
56
 10
263.631006
 20
228.398282
 30
0.0
 40
12.5
 50
298.685402
 51
61.314598
210
0.0
220
0.0
230
1.0
  0
LINE
  8
0
  6
CONTINUOUS
 62
     7
  5
57
 10
269.631006
 20
239.364138
 30
0.0
 11
269.631006
 21
217.432426
 31
0.0
  0
ARC
  8
0
  6
CONTINUOUS
 62
     7
  5
58
 10
233.131006
 20
228.398282
 30
0.0
 40
5.0
 50
180.0
 51
360.0
210
0.0
220
0.0
230
1.0
  0
ARC
  8
0
  6
CONTINUOUS
 62
     7
  5
59
 10
233.131006
 20
228.398282
 30
0.0
 40
5.0
 50
0.0
 51
180.0
210
0.0
220
0.0
230
1.0
  0
LINE
  8
0
  6
CONTINUOUS
 62
     7
  5
5A
 10
263.631006
 20
215.598282
 30
0.0
 11
241.481006
 21
215.598282
 31
0.0
  0
LINE
  8
0
  6
CONTINUOUS
 62
     7
  5
5B
 10
241.481006
 20
215.598282
 30
0.0
 11
241.481006
 21
218.696865
 31
0.0
  0
ARC
  8
0
  6
CONTINUOUS
 62
     7
  5
5C
 10
233.131006
 20
228.398282
 30
0.0
 40
12.8
 50
310.718545
 51
360.0
210
0.0
220
0.0
230
1.0
  0
ARC
  8
0
  6
CONTINUOUS
 62
     7
  5
5D
 10
233.131006
 20
228.398282
 30
0.0
 40
12.8
 50
0.0
 51
49.281455
210
0.0
220
0.0
230
1.0
  0
LINE
  8
0
  6
CONTINUOUS
 62
     7
  5
5E
 10
241.481006
 20
238.0997
 30
0.0
 11
241.481006
 21
241.198282
 31
0.0
  0
LINE
  8
0
  6
CONTINUOUS
 62
     7
  5
5F
 10
241.481006
 20
241.198282
 30
0.0
 11
263.631006
 21
241.198282
 31
0.0
  0
LINE
  8
0
  6
CONTINUOUS
 62
     7
  5
60
 10
263.631006
 20
241.198282
 30
0.0
 11
263.631006
 21
240.898282
 31
0.0
  0
LINE
  8
0
  6
CONTINUOUS
 62
     7
  5
61
 10
263.631006
 20
215.898282
 30
0.0
 11
263.631006
 21
215.598282
 31
0.0
  0
ARC
  8
0
  6
CONTINUOUS
 62
     7
  5
62
 10
263.631006
 20
228.398282
 30
0.0
 40
12.5
 50
61.314598
 51
90.0
210
0.0
220
0.0
230
1.0
  0
ARC
  8
0
  6
CONTINUOUS
 62
     7
  5
63
 10
263.631006
 20
228.398282
 30
0.0
 40
12.5
 50
270.0
 51
298.685402
210
0.0
220
0.0
230
1.0
  0
LINE
  8
0
  6
CONTINUOUS
 62
     7
  5
64
 10
241.481006
 20
215.598282
 30
0.0
 11
233.131006
 21
215.598282
 31
0.0
  0
LINE
  8
0
  6
CONTINUOUS
 62
     7
  5
65
 10
233.131006
 20
241.198282
 30
0.0
 11
241.481006
 21
241.198282
 31
0.0
  0
ARC
  8
0
  6
CONTINUOUS
 62
     7
  5
66
 10
233.131006
 20
228.398282
 30
0.0
 40
12.5
 50
298.685402
 51
61.314598
210
0.0
220
0.0
230
1.0
  0
LINE
  8
0
  6
CONTINUOUS
 62
     7
  5
67
 10
239.131006
 20
239.364138
 30
0.0
 11
239.131006
 21
217.432426
 31
0.0
  0
ARC
  8
0
  6
CONTINUOUS
 62
     7
  5
68
 10
202.631006
 20
228.398282
 30
0.0
 40
5.0
 50
0.0
 51
180.0
210
0.0
220
0.0
230
1.0
  0
ARC
  8
0
  6
CONTINUOUS
 62
     7
  5
69
 10
202.631006
 20
228.398282
 30
0.0
 40
5.0
 50
180.0
 51
0.0
210
0.0
220
0.0
230
1.0
  0
LINE
  8
0
  6
CONTINUOUS
 62
     7
  5
6A
 10
233.131006
 20
215.598282
 30
0.0
 11
210.981006
 21
215.598282
 31
0.0
  0
LINE
  8
0
  6
CONTINUOUS
 62
     7
  5
6B
 10
210.981006
 20
215.598282
 30
0.0
 11
210.981006
 21
218.696865
 31
0.0
  0
ARC
  8
0
  6
CONTINUOUS
 62
     7
  5
6C
 10
202.631006
 20
228.398282
 30
0.0
 40
12.8
 50
310.718545
 51
360.0
210
0.0
220
0.0
230
1.0
  0
ARC
  8
0
  6
CONTINUOUS
 62
     7
  5
6D
 10
202.631006
 20
228.398282
 30
0.0
 40
12.8
 50
0.0
 51
49.281455
210
0.0
220
0.0
230
1.0
  0
LINE
  8
0
  6
CONTINUOUS
 62
     7
  5
6E
 10
210.981006
 20
238.0997
 30
0.0
 11
210.981006
 21
241.198282
 31
0.0
  0
LINE
  8
0
  6
CONTINUOUS
 62
     7
  5
6F
 10
210.981006
 20
241.198282
 30
0.0
 11
233.131006
 21
241.198282
 31
0.0
  0
LINE
  8
0
  6
CONTINUOUS
 62
     7
  5
70
 10
233.131006
 20
241.198282
 30
0.0
 11
233.131006
 21
240.898282
 31
0.0
  0
LINE
  8
0
  6
CONTINUOUS
 62
     7
  5
71
 10
233.131006
 20
215.898282
 30
0.0
 11
233.131006
 21
215.598282
 31
0.0
  0
ARC
  8
0
  6
CONTINUOUS
 62
     7
  5
72
 10
233.131006
 20
228.398282
 30
0.0
 40
12.5
 50
61.314598
 51
90.0
210
0.0
220
0.0
230
1.0
  0
ARC
  8
0
  6
CONTINUOUS
 62
     7
  5
73
 10
233.131006
 20
228.398282
 30
0.0
 40
12.5
 50
270.0
 51
298.685402
210
0.0
220
0.0
230
1.0
  0
LINE
  8
0
  6
CONTINUOUS
 62
     7
  5
74
 10
202.631006
 20
241.198282
 30
0.0
 11
210.981006
 21
241.198282
 31
0.0
  0
LINE
  8
0
  6
CONTINUOUS
 62
     7
  5
75
 10
210.981006
 20
215.598282
 30
0.0
 11
202.631006
 21
215.598282
 31
0.0
  0
LINE
  8
0
  6
CONTINUOUS
 62
     7
  5
76
 10
178.131006
 20
239.364138
 30
0.0
 11
178.131006
 21
217.432426
 31
0.0
  0
ARC
  8
0
  6
CONTINUOUS
 62
     7
  5
77
 10
172.131006
 20
228.398282
 30
0.0
 40
12.5
 50
298.685402
 51
61.314598
210
0.0
220
0.0
230
1.0
  0
ARC
  8
0
  6
CONTINUOUS
 62
     7
  5
78
 10
141.631006
 20
228.398282
 30
0.0
 40
5.0
 50
0.0
 51
180.0
210
0.0
220
0.0
230
1.0
  0
ARC
  8
0
  6
CONTINUOUS
 62
     7
  5
79
 10
141.631006
 20
228.398282
 30
0.0
 40
5.0
 50
180.0
 51
0.0
210
0.0
220
0.0
230
1.0
  0
LINE
  8
0
  6
CONTINUOUS
 62
     7
  5
7A
 10
172.131006
 20
215.598282
 30
0.0
 11
149.981006
 21
215.598282
 31
0.0
  0
LINE
  8
0
  6
CONTINUOUS
 62
     7
  5
7B
 10
149.981006
 20
215.598282
 30
0.0
 11
149.981006
 21
218.696865
 31
0.0
  0
ARC
  8
0
  6
CONTINUOUS
 62
     7
  5
7C
 10
141.631006
 20
228.398282
 30
0.0
 40
12.8
 50
310.718545
 51
360.0
210
0.0
220
0.0
230
1.0
  0
ARC
  8
0
  6
CONTINUOUS
 62
     7
  5
7D
 10
141.631006
 20
228.398282
 30
0.0
 40
12.8
 50
0.0
 51
49.281455
210
0.0
220
0.0
230
1.0
  0
LINE
  8
0
  6
CONTINUOUS
 62
     7
  5
7E
 10
149.981006
 20
238.0997
 30
0.0
 11
149.981006
 21
241.198282
 31
0.0
  0
LINE
  8
0
  6
CONTINUOUS
 62
     7
  5
7F
 10
149.981006
 20
241.198282
 30
0.0
 11
172.131006
 21
241.198282
 31
0.0
  0
LINE
  8
0
  6
CONTINUOUS
 62
     7
  5
80
 10
172.131006
 20
241.198282
 30
0.0
 11
172.131006
 21
240.898282
 31
0.0
  0
LINE
  8
0
  6
CONTINUOUS
 62
     7
  5
81
 10
172.131006
 20
215.898282
 30
0.0
 11
172.131006
 21
215.598282
 31
0.0
  0
ARC
  8
0
  6
CONTINUOUS
 62
     7
  5
82
 10
172.131006
 20
228.398282
 30
0.0
 40
12.5
 50
61.314598
 51
90.0
210
0.0
220
0.0
230
1.0
  0
ARC
  8
0
  6
CONTINUOUS
 62
     7
  5
83
 10
172.131006
 20
228.398282
 30
0.0
 40
12.5
 50
270.0
 51
298.685402
210
0.0
220
0.0
230
1.0
  0
LINE
  8
0
  6
CONTINUOUS
 62
     7
  5
84
 10
141.631006
 20
241.095368
 30
0.0
 11
141.631006
 21
241.198282
 31
0.0
  0
LINE
  8
0
  6
CONTINUOUS
 62
     7
  5
85
 10
141.631006
 20
241.198282
 30
0.0
 11
149.981006
 21
241.198282
 31
0.0
  0
LINE
  8
0
  6
CONTINUOUS
 62
     7
  5
86
 10
149.981006
 20
215.598282
 30
0.0
 11
143.32496
 21
215.598282
 31
0.0
  0
ARC
  8
0
  6
CONTINUOUS
 62
     7
  5
87
 10
113.476506
 20
90.127482
 30
0.0
 40
5.0
 50
317.166302
 51
137.166302
210
0.0
220
0.0
230
1.0
  0
ARC
  8
0
  6
CONTINUOUS
 62
     7
  5
88
 10
113.476506
 20
90.127482
 30
0.0
 40
5.0
 50
137.166302
 51
317.166302
210
0.0
220
0.0
230
1.0
  0
ARC
  8
0
  6
CONTINUOUS
 62
     7
  5
89
 10
91.109937
 20
110.8636
 30
0.0
 40
12.5
 50
75.851704
 51
198.4809
210
0.0
220
0.0
230
1.0
  0
LINE
  8
0
  6
CONTINUOUS
 62
     7
  5
8A
 10
79.25457
 20
106.901244
 30
0.0
 11
94.165343
 21
122.984429
 31
0.0
  0
ARC
  8
0
  6
CONTINUOUS
 62
     7
  5
8B
 10
113.476506
 20
90.127482
 30
0.0
 40
12.8
 50
87.884847
 51
137.166302
210
0.0
220
0.0
230
1.0
  0
ARC
  8
0
  6
CONTINUOUS
 62
     7
  5
8C
 10
113.476506
 20
90.127482
 30
0.0
 40
12.8
 50
137.166302
 51
186.447758
210
0.0
220
0.0
230
1.0
  0
LINE
  8
0
  6
CONTINUOUS
 62
     7
  5
8D
 10
100.757471
 20
88.690078
 30
0.0
 11
98.650829
 21
86.417794
 31
0.0
  0
LINE
  8
0
  6
CONTINUOUS
 62
     7
  5
8E
 10
98.650829
 20
86.417794
 30
0.0
 11
82.407566
 21
101.476974
 31
0.0
  0
LINE
  8
0
  6
CONTINUOUS
 62
     7
  5
8F
 10
82.407566
 20
101.476974
 30
0.0
 11
82.611528
 21
101.696973
 31
0.0
  0
LINE
  8
0
  6
CONTINUOUS
 62
     7
  5
90
 10
99.608346
 20
120.030227
 30
0.0
 11
99.812308
 21
120.250226
 31
0.0
  0
LINE
  8
0
  6
CONTINUOUS
 62
     7
  5
91
 10
116.055571
 20
105.191045
 30
0.0
 11
113.948929
 21
102.918761
 31
0.0
  0
LINE
  8
0
  6
CONTINUOUS
 62
     7
  5
92
 10
99.812308
 20
120.250226
 30
0.0
 11
116.055571
 21
105.191045
 31
0.0
  0
ARC
  8
0
  6
CONTINUOUS
 62
     7
  5
93
 10
91.109937
 20
110.8636
 30
0.0
 40
12.5
 50
198.4809
 51
227.166302
210
0.0
220
0.0
230
1.0
  0
ARC
  8
0
  6
CONTINUOUS
 62
     7
  5
94
 10
91.109937
 20
110.8636
 30
0.0
 40
12.5
 50
47.166302
 51
75.851704
210
0.0
220
0.0
230
1.0
  0
LINE
  8
0
  6
CONTINUOUS
 62
     7
  5
95
 10
104.978097
 20
80.960855
 30
0.0
 11
104.774136
 21
80.740856
 31
0.0
  0
LINE
  8
0
  6
CONTINUOUS
 62
     7
  5
96
 10
104.774136
 20
80.740856
 30
0.0
 11
98.650829
 21
86.417794
 31
0.0
  0
LINE
  8
0
  6
CONTINUOUS
 62
     7
  5
97
 10
116.055571
 20
105.191045
 30
0.0
 11
120.505425
 21
101.06557
 31
0.0
  0
ARC
  8
0
  6
CONTINUOUS
 62
     7
  5
98
 10
91.109937
 20
110.8636
 30
0.0
 40
5.0
 50
113.702399
 51
293.702399
210
0.0
220
0.0
230
1.0
  0
ARC
  8
0
  6
CONTINUOUS
 62
     7
  5
99
 10
91.109937
 20
110.8636
 30
0.0
 40
5.0
 50
293.702399
 51
113.702399
210
0.0
220
0.0
230
1.0
  0
LINE
  8
0
  6
CONTINUOUS
 62
     7
  5
9A
 10
66.396604
 20
139.876548
 30
0.0
 11
86.478283
 21
148.692792
 31
0.0
  0
ARC
  8
0
  6
CONTINUOUS
 62
     7
  5
9B
 10
78.849361
 20
138.790796
 30
0.0
 40
12.5
 50
52.387802
 51
175.016997
210
0.0
220
0.0
230
1.0
  0
LINE
  8
0
  6
CONTINUOUS
 62
     7
  5
9C
 10
99.473619
 20
123.654665
 30
0.0
 11
96.636415
 21
122.409077
 31
0.0
  0
ARC
  8
0
  6
CONTINUOUS
 62
     7
  5
9D
 10
91.109937
 20
110.8636
 30
0.0
 40
12.8
 50
64.420944
 51
113.702399
210
0.0
220
0.0
230
1.0
  0
ARC
  8
0
  6
CONTINUOUS
 62
     7
  5
9E
 10
91.109937
 20
110.8636
 30
0.0
 40
12.8
 50
113.702399
 51
162.983855
210
0.0
220
0.0
230
1.0
  0
LINE
  8
0
  6
CONTINUOUS
 62
     7
  5
9F
 10
78.870291
 20
114.609407
 30
0.0
 11
76.033087
 21
113.36382
 31
0.0
  0
LINE
  8
0
  6
CONTINUOUS
 62
     7
  5
A0
 10
76.033087
 20
113.36382
 30
0.0
 11
67.129095
 21
133.645373
 31
0.0
  0
LINE
  8
0
  6
CONTINUOUS
 62
     7
  5
A1
 10
67.129095
 20
133.645373
 30
0.0
 11
67.403789
 21
133.765969
 31
0.0
  0
LINE
  8
0
  6
CONTINUOUS
 62
     7
  5
A2
 10
90.294933
 20
143.815622
 30
0.0
 11
90.569626
 21
143.936218
 31
0.0
  0
LINE
  8
0
  6
CONTINUOUS
 62
     7
  5
A3
 10
90.569626
 20
143.936218
 30
0.0
 11
99.473619
 21
123.654665
 31
0.0
  0
ARC
  8
0
  6
CONTINUOUS
 62
     7
  5
A4
 10
78.849361
 20
138.790796
 30
0.0
 40
12.5
 50
175.016997
 51
203.702399
210
0.0
220
0.0
230
1.0
  0
ARC
  8
0
  6
CONTINUOUS
 62
     7
  5
A5
 10
78.849361
 20
138.790796
 30
0.0
 40
12.5
 50
23.702399
 51
52.387802
210
0.0
220
0.0
230
1.0
  0
LINE
  8
0
  6
CONTINUOUS
 62
     7
  5
A6
 10
79.664365
 20
105.838773
 30
0.0
 11
79.389672
 21
105.718178
 31
0.0
  0
LINE
  8
0
  6
CONTINUOUS
 62
     7
  5
A7
 10
79.389672
 20
105.718178
 30
0.0
 11
76.033087
 21
113.36382
 31
0.0
  0
LINE
  8
0
  6
CONTINUOUS
 62
     7
  5
A8
 10
99.473619
 20
123.654665
 30
0.0
 11
101.761645
 21
118.44299
 31
0.0
  0
LINE
  8
0
  6
CONTINUOUS
 62
     7
  5
A9
 10
67.731667
 20
175.244834
 30
0.0
 11
89.663189
 21
175.336125
 31
0.0
  0
ARC
  8
0
  6
CONTINUOUS
 62
     7
  5
AA
 10
78.722403
 20
169.290531
 30
0.0
 40
12.5
 50
28.923899
 51
151.553095
210
0.0
220
0.0
230
0.9999999999999999
  0
ARC
  8
0
  6
CONTINUOUS
 62
     7
  5
AB
 10
78.849361
 20
138.790796
 30
0.0
 40
5.0
 50
90.238497
 51
270.238497
210
0.0
220
0.0
230
1.0
  0
ARC
  8
0
  6
CONTINUOUS
 62
     7
  5
AC
 10
78.849361
 20
138.790796
 30
0.0
 40
5.0
 50
270.238497
 51
90.238497
210
0.0
220
0.0
230
1.0
  0
LINE
  8
0
  6
CONTINUOUS
 62
     7
  5
AD
 10
91.522292
 20
169.343812
 30
0.0
 11
91.614492
 21
147.194004
 31
0.0
  0
LINE
  8
0
  6
CONTINUOUS
 62
     7
  5
AE
 10
91.614492
 20
147.194004
 30
0.0
 11
88.515937
 21
147.181106
 31
0.0
  0
ARC
  8
0
  6
CONTINUOUS
 62
     7
  5
AF
 10
78.849361
 20
138.790796
 30
0.0
 40
12.8
 50
40.957041
 51
90.238497
210
0.0
220
0.0
230
1.0
  0
ARC
  8
0
  6
CONTINUOUS
 62
     7
  5
B0
 10
78.849361
 20
138.790796
 30
0.0
 40
12.8
 50
90.238497
 51
139.519952
210
0.0
220
0.0
230
0.9999999999999999
  0
LINE
  8
0
  6
CONTINUOUS
 62
     7
  5
B1
 10
69.11327
 20
147.100341
 30
0.0
 11
66.014714
 21
147.087443
 31
0.0
  0
LINE
  8
0
  6
CONTINUOUS
 62
     7
  5
B2
 10
66.014714
 20
147.087443
 30
0.0
 11
65.922514
 21
169.237251
 31
0.0
  0
LINE
  8
0
  6
CONTINUOUS
 62
     7
  5
B3
 10
65.922514
 20
169.237251
 30
0.0
 11
66.222511
 21
169.2385
 31
0.0
  0
LINE
  8
0
  6
CONTINUOUS
 62
     7
  5
B4
 10
91.222295
 20
169.342563
 30
0.0
 11
91.522292
 21
169.343812
 31
0.0
  0
ARC
  8
0
  6
CONTINUOUS
 62
     7
  5
B5
 10
78.722403
 20
169.290531
 30
0.0
 40
12.5
 50
151.553095
 51
180.238497
210
0.0
220
0.0
230
1.0
  0
ARC
  8
0
  6
CONTINUOUS
 62
     7
  5
B6
 10
78.722403
 20
169.290531
 30
0.0
 40
12.5
 50
0.238497
 51
28.923899
210
0.0
220
0.0
230
1.0
  0
LINE
  8
0
  6
CONTINUOUS
 62
     7
  5
B7
 10
66.349469
 20
138.738764
 30
0.0
 11
66.049471
 21
138.737515
 31
0.0
  0
LINE
  8
0
  6
CONTINUOUS
 62
     7
  5
B8
 10
66.049471
 20
138.737515
 30
0.0
 11
66.014714
 21
147.087443
 31
0.0
  0
LINE
  8
0
  6
CONTINUOUS
 62
     7
  5
B9
 10
91.614492
 20
147.194004
 30
0.0
 11
91.638185
 21
141.502251
 31
0.0
  0
ARC
  8
0
  6
CONTINUOUS
 62
     7
  5
BA
 10
90.750061
 20
197.318829
 30
0.0
 40
12.5
 50
5.459996
 51
128.089192
210
0.0
220
0.0
230
1.0
  0
LINE
  8
0
  6
CONTINUOUS
 62
     7
  5
BB
 10
83.038968
 20
207.156971
 30
0.0
 11
103.193347
 21
198.508213
 31
0.0
  0
ARC
  8
0
  6
CONTINUOUS
 62
     7
  5
BC
 10
78.722403
 20
169.290531
 30
0.0
 40
5.0
 50
246.774594
 51
66.774594
210
0.0
220
0.0
230
1.0
  0
ARC
  8
0
  6
CONTINUOUS
 62
     7
  5
BD
 10
78.722403
 20
169.290531
 30
0.0
 40
5.0
 50
66.774594
 51
246.774594
210
0.0
220
0.0
230
1.0
  0
LINE
  8
0
  6
CONTINUOUS
 62
     7
  5
BE
 10
102.512756
 20
192.271156
 30
0.0
 11
93.777916
 21
171.91618
 31
0.0
  0
LINE
  8
0
  6
CONTINUOUS
 62
     7
  5
BF
 10
93.777916
 20
171.91618
 30
0.0
 11
90.930441
 21
173.138104
 31
0.0
  0
ARC
  8
0
  6
CONTINUOUS
 62
     7
  5
C0
 10
78.722403
 20
169.290531
 30
0.0
 40
12.8
 50
17.493139
 51
66.774594
210
0.0
220
0.0
230
0.9999999999999999
  0
ARC
  8
0
  6
CONTINUOUS
 62
     7
  5
C1
 10
78.722403
 20
169.290531
 30
0.0
 40
12.8
 50
66.774594
 51
116.05605
210
0.0
220
0.0
230
1.0
  0
LINE
  8
0
  6
CONTINUOUS
 62
     7
  5
C2
 10
73.100001
 20
180.789601
 30
0.0
 11
70.252525
 21
182.011525
 31
0.0
  0
LINE
  8
0
  6
CONTINUOUS
 62
     7
  5
C3
 10
70.252525
 20
182.011525
 30
0.0
 11
78.987365
 21
202.366502
 31
0.0
  0
LINE
  8
0
  6
CONTINUOUS
 62
     7
  5
C4
 10
78.987365
 20
202.366502
 30
0.0
 11
79.263054
 21
202.248197
 31
0.0
  0
LINE
  8
0
  6
CONTINUOUS
 62
     7
  5
C5
 10
102.237068
 20
192.389461
 30
0.0
 11
102.512756
 21
192.271156
 31
0.0
  0
ARC
  8
0
  6
CONTINUOUS
 62
     7
  5
C6
 10
90.750061
 20
197.318829
 30
0.0
 40
12.5
 50
128.089192
 51
156.774594
210
0.0
220
0.0
230
1.0
  0
ARC
  8
0
  6
CONTINUOUS
 62
     7
  5
C7
 10
90.750061
 20
197.318829
 30
0.0
 40
12.5
 50
336.774594
 51
5.459996
210
0.0
220
0.0
230
1.0
  0
LINE
  8
0
  6
CONTINUOUS
 62
     7
  5
C8
 10
67.235396
 20
174.219899
 30
0.0
 11
66.959708
 21
174.338204
 31
0.0
  0
LINE
  8
0
  6
CONTINUOUS
 62
     7
  5
C9
 10
66.959708
 20
174.338204
 30
0.0
 11
70.252525
 21
182.011525
 31
0.0
  0
LINE
  8
0
  6
CONTINUOUS
 62
     7
  5
CA
 10
93.777916
 20
171.91618
 30
0.0
 11
91.533357
 21
166.685637
 31
0.0
  0
LINE
  8
0
  6
CONTINUOUS
 62
     7
  5
CB
 10
109.78702
 20
230.335403
 30
0.0
 11
124.831169
 21
214.376907
 31
0.0
  0
ARC
  8
0
  6
CONTINUOUS
 62
     7
  5
CC
 10
112.943226
 20
218.24043
 30
0.0
 40
12.5
 50
341.996093
 51
104.625289
210
0.0
220
0.0
230
1.0
  0
ARC
  8
0
  6
CONTINUOUS
 62
     7
  5
CD
 10
90.750061
 20
197.318829
 30
0.0
 40
5.0
 50
43.310691
 51
223.310691
210
0.0
220
0.0
230
1.0
  0
ARC
  8
0
  6
CONTINUOUS
 62
     7
  5
CE
 10
90.750061
 20
197.318829
 30
0.0
 40
5.0
 50
223.310691
 51
43.310691
210
0.0
220
0.0
230
1.0
  0
LINE
  8
0
  6
CONTINUOUS
 62
     7
  5
CF
 10
121.723439
 20
208.926577
 30
0.0
 11
105.606108
 21
193.732693
 31
0.0
  0
LINE
  8
0
  6
CONTINUOUS
 62
     7
  5
D0
 10
105.606108
 20
193.732693
 30
0.0
 11
103.480622
 21
195.98736
 31
0.0
  0
ARC
  8
0
  6
CONTINUOUS
 62
     7
  5
D1
 10
90.750061
 20
197.318829
 30
0.0
 40
12.8
 50
354.029236
 51
43.310691
210
0.0
220
0.0
230
1.0
  0
ARC
  8
0
  6
CONTINUOUS
 62
     7
  5
D2
 10
90.750061
 20
197.318829
 30
0.0
 40
12.8
 50
43.310691
 51
92.592147
210
0.0
220
0.0
230
1.0
  0
LINE
  8
0
  6
CONTINUOUS
 62
     7
  5
D3
 10
90.171167
 20
210.105732
 30
0.0
 11
88.045681
 21
212.360399
 31
0.0
  0
LINE
  8
0
  6
CONTINUOUS
 62
     7
  5
D4
 10
88.045681
 20
212.360399
 30
0.0
 11
104.163013
 21
227.554283
 31
0.0
  0
LINE
  8
0
  6
CONTINUOUS
 62
     7
  5
D5
 10
104.163013
 20
227.554283
 30
0.0
 11
104.368799
 21
227.33599
 31
0.0
  0
LINE
  8
0
  6
CONTINUOUS
 62
     7
  5
D6
 10
121.517653
 20
209.144871
 30
0.0
 11
121.723439
 21
208.926577
 31
0.0
  0
ARC
  8
0
  6
CONTINUOUS
 62
     7
  5
D7
 10
112.943226
 20
218.24043
 30
0.0
 40
12.5
 50
104.625289
 51
133.310691
210
0.0
220
0.0
230
1.0
  0
ARC
  8
0
  6
CONTINUOUS
 62
     7
  5
D8
 10
112.943226
 20
218.24043
 30
0.0
 40
12.5
 50
313.310691
 51
341.996093
210
0.0
220
0.0
230
1.0
  0
LINE
  8
0
  6
CONTINUOUS
 62
     7
  5
D9
 10
82.175634
 20
206.414388
 30
0.0
 11
81.969848
 21
206.632682
 31
0.0
  0
LINE
  8
0
  6
CONTINUOUS
 62
     7
  5
DA
 10
81.969848
 20
206.632682
 30
0.0
 11
88.045681
 21
212.360399
 31
0.0
  0
LINE
  8
0
  6
CONTINUOUS
 62
     7
  5
DB
 10
105.606108
 20
193.732693
 30
0.0
 11
101.464497
 21
189.828377
 31
0.0
  0
ARC
  8
0
  6
CONTINUOUS
 62
     7
  5
DC
 10
141.631643
 20
228.595368
 30
0.0
 40
12.5
 50
318.532191
 51
81.161387
210
0.0
220
0.0
230
1.0
  0
LINE
  8
0
  6
CONTINUOUS
 62
     7
  5
DD
 10
143.552291
 20
240.946931
 30
0.0
 11
150.998242
 21
220.317878
 31
0.0
  0
ARC
  8
0
  6
CONTINUOUS
 62
     7
  5
DE
 10
112.943226
 20
218.24043
 30
0.0
 40
5.0
 50
19.846789
 51
199.846789
210
0.0
220
0.0
230
1.0
  0
ARC
  8
0
  6
CONTINUOUS
 62
     7
  5
DF
 10
112.943226
 20
218.24043
 30
0.0
 40
5.0
 50
199.846789
 51
19.846789
210
0.0
220
0.0
230
1.0
  0
ARC
  8
0
  6
CONTINUOUS
 62
     7
  5
E0
 10
141.631643
 20
228.595368
 30
0.0
 40
5.0
 50
19.846789
 51
180.943993
210
0.0
220
0.0
230
1.0
  0
ARC
  8
0
  6
CONTINUOUS
 62
     7
  5
E1
 10
141.631643
 20
228.595368
 30
0.0
 40
5.0
 50
358.685751
 51
19.846789
210
0.0
220
0.0
230
1.0
  0
LINE
  8
0
  6
CONTINUOUS
 62
     7
  5
E2
 10
145.977322
 20
216.555639
 30
0.0
 11
125.142947
 21
209.035577
 31
0.0
  0
LINE
  8
0
  6
CONTINUOUS
 62
     7
  5
E3
 10
125.142947
 20
209.035577
 30
0.0
 11
124.090959
 21
211.950116
 31
0.0
  0
ARC
  8
0
  6
CONTINUOUS
 62
     7
  5
E4
 10
112.943226
 20
218.24043
 30
0.0
 40
12.8
 50
330.565333
 51
19.846789
210
0.0
220
0.0
230
1.0
  0
ARC
  8
0
  6
CONTINUOUS
 62
     7
  5
E5
 10
112.943226
 20
218.24043
 30
0.0
 40
12.8
 50
19.846789
 51
69.128244
210
0.0
220
0.0
230
1.0
  0
LINE
  8
0
  6
CONTINUOUS
 62
     7
  5
E6
 10
117.503577
 20
230.200497
 30
0.0
 11
116.451589
 21
233.115036
 31
0.0
  0
LINE
  8
0
  6
CONTINUOUS
 62
     7
  5
E7
 10
116.451589
 20
233.115036
 30
0.0
 11
137.285964
 21
240.635097
 31
0.0
  0
LINE
  8
0
  6
CONTINUOUS
 62
     7
  5
E8
 10
137.285964
 20
240.635097
 30
0.0
 11
137.387816
 21
240.352916
 31
0.0
  0
LINE
  8
0
  6
CONTINUOUS
 62
     7
  5
E9
 10
145.87547
 20
216.83782
 30
0.0
 11
145.977322
 21
216.555639
 31
0.0
  0
ARC
  8
0
  6
CONTINUOUS
 62
     7
  5
EA
 10
141.631643
 20
228.595368
 30
0.0
 40
12.5
 50
81.161387
 51
109.846789
210
0.0
220
0.0
230
1.0
  0
ARC
  8
0
  6
CONTINUOUS
 62
     7
  5
EB
 10
141.631643
 20
228.595368
 30
0.0
 40
12.5
 50
289.846789
 51
318.532191
210
0.0
220
0.0
230
1.0
  0
LINE
  8
0
  6
CONTINUOUS
 62
     7
  5
EC
 10
108.699399
 20
229.997978
 30
0.0
 11
108.597547
 21
230.280159
 31
0.0
  0
LINE
  8
0
  6
CONTINUOUS
 62
     7
  5
ED
 10
108.597547
 20
230.280159
 30
0.0
 11
116.451589
 21
233.115036
 31
0.0
  0
LINE
  8
0
  6
CONTINUOUS
 62
     7
  5
EE
 10
125.142947
 20
209.035577
 30
0.0
 11
119.789216
 21
207.103176
 31
0.0
  0
ARC
  8
0
  6
CONTINUOUS
 62
     7
  5
EF
 10
141.631006
 20
78.398282
 30
0.0
 40
5.0
 50
157.383329
 51
337.383329
210
0.0
220
0.0
230
0.9999999999999999
  0
ARC
  8
0
  6
CONTINUOUS
 62
     7
  5
F0
 10
141.631006
 20
78.398282
 30
0.0
 40
5.0
 50
337.383329
 51
157.383329
210
0.0
220
0.0
230
1.0
  0
LINE
  8
0
  6
CONTINUOUS
 62
     7
  5
F1
 10
103.720843
 20
82.312302
 30
0.0
 11
112.154989
 21
102.557429
 31
0.0
  0
ARC
  8
0
  6
CONTINUOUS
 62
     7
  5
F2
 10
113.476506
 20
90.127482
 30
0.0
 40
12.5
 50
96.068731
 51
218.697927
210
0.0
220
0.0
230
1.0
  0
LINE
  8
0
  6
CONTINUOUS
 62
     7
  5
F3
 10
118.398925
 20
101.943141
 30
0.0
 11
138.845553
 21
93.42505
 31
0.0
  0
LINE
  8
0
  6
CONTINUOUS
 62
     7
  5
F4
 10
138.845553
 20
93.42505
 30
0.0
 11
137.65395
 21
90.564753
 31
0.0
  0
ARC
  8
0
  6
CONTINUOUS
 62
     7
  5
F5
 10
141.631006
 20
78.398282
 30
0.0
 40
12.8
 50
108.101873
 51
157.383329
210
0.0
220
0.0
230
1.0
  0
ARC
  8
0
  6
CONTINUOUS
 62
     7
  5
F6
 10
141.631006
 20
78.398282
 30
0.0
 40
12.8
 50
157.383329
 51
206.664784
210
0.0
220
0.0
230
1.0
  0
LINE
  8
0
  6
CONTINUOUS
 62
     7
  5
F7
 10
130.19232
 20
72.654028
 30
0.0
 11
129.000717
 21
69.793732
 31
0.0
  0
LINE
  8
0
  6
CONTINUOUS
 62
     7
  5
F8
 10
129.000717
 20
69.793732
 30
0.0
 11
108.554088
 21
78.311823
 31
0.0
  0
LINE
  8
0
  6
CONTINUOUS
 62
     7
  5
F9
 10
108.554088
 20
78.311823
 30
0.0
 11
108.669457
 21
78.588753
 31
0.0
  0
LINE
  8
0
  6
CONTINUOUS
 62
     7
  5
FA
 10
118.283556
 20
101.666212
 30
0.0
 11
118.398925
 21
101.943141
 31
0.0
  0
ARC
  8
0
  6
CONTINUOUS
 62
     7
  5
FB
 10
113.476506
 20
90.127482
 30
0.0
 40
12.5
 50
218.697927
 51
247.383329
210
0.0
220
0.0
230
1.0
  0
ARC
  8
0
  6
CONTINUOUS
 62
     7
  5
FC
 10
113.476506
 20
90.127482
 30
0.0
 40
12.5
 50
67.383329
 51
96.068731
210
0.0
220
0.0
230
1.0
  0
LINE
  8
0
  6
CONTINUOUS
 62
     7
  5
FD
 10
136.823957
 20
66.859553
 30
0.0
 11
136.708588
 21
66.582623
 31
0.0
  0
LINE
  8
0
  6
CONTINUOUS
 62
     7
  5
FE
 10
136.708588
 20
66.582623
 30
0.0
 11
129.000717
 21
69.793732
 31
0.0
  0
LINE
  8
0
  6
CONTINUOUS
 62
     7
  5
FF
 10
138.845553
 20
93.42505
 30
0.0
 11
144.190635
 21
91.198282
 31
0.0
  0
ARC
  8
0
  6
CONTINUOUS
 62
     7
  5
100
 10
172.131006
 20
78.398282
 30
0.0
 40
5.0
 50
0.0
 51
180.0
210
0.0
220
0.0
230
1.0
  0
ARC
  8
0
  6
CONTINUOUS
 62
     7
  5
101
 10
172.131006
 20
78.398282
 30
0.0
 40
5.0
 50
180.0
 51
0.0
210
0.0
220
0.0
230
1.0
  0
LINE
  8
0
  6
CONTINUOUS
 62
     7
  5
102
 10
135.631006
 20
67.432426
 30
0.0
 11
135.631006
 21
89.364138
 31
0.0
  0
ARC
  8
0
  6
CONTINUOUS
 62
     7
  5
103
 10
141.631006
 20
78.398282
 30
0.0
 40
12.5
 50
118.685402
 51
241.314598
210
0.0
220
0.0
230
1.0
  0
LINE
  8
0
  6
CONTINUOUS
 62
     7
  5
104
 10
141.631006
 20
65.598282
 30
0.0
 11
141.631006
 21
65.898282
 31
0.0
  0
LINE
  8
0
  6
CONTINUOUS
 62
     7
  5
105
 10
141.631006
 20
90.898282
 30
0.0
 11
141.631006
 21
91.198282
 31
0.0
  0
LINE
  8
0
  6
CONTINUOUS
 62
     7
  5
106
 10
163.781006
 20
91.198282
 30
0.0
 11
163.781006
 21
88.0997
 31
0.0
  0
LINE
  8
0
  6
CONTINUOUS
 62
     7
  5
107
 10
163.781006
 20
65.598282
 30
0.0
 11
141.631006
 21
65.598282
 31
0.0
  0
ARC
  8
0
  6
CONTINUOUS
 62
     7
  5
108
 10
172.131006
 20
78.398282
 30
0.0
 40
12.8
 50
130.718545
 51
180.0
210
0.0
220
0.0
230
1.0
  0
ARC
  8
0
  6
CONTINUOUS
 62
     7
  5
109
 10
172.131006
 20
78.398282
 30
0.0
 40
12.8
 50
180.0
 51
229.281455
210
0.0
220
0.0
230
1.0
  0
LINE
  8
0
  6
CONTINUOUS
 62
     7
  5
10A
 10
141.631006
 20
91.198282
 30
0.0
 11
163.781006
 21
91.198282
 31
0.0
  0
LINE
  8
0
  6
CONTINUOUS
 62
     7
  5
10B
 10
163.781006
 20
68.696865
 30
0.0
 11
163.781006
 21
65.598282
 31
0.0
  0
ARC
  8
0
  6
CONTINUOUS
 62
     7
  5
10C
 10
141.631006
 20
78.398282
 30
0.0
 40
12.5
 50
241.314598
 51
270.0
210
0.0
220
0.0
230
1.0
  0
ARC
  8
0
  6
CONTINUOUS
 62
     7
  5
10D
 10
141.631006
 20
78.398282
 30
0.0
 40
12.5
 50
90.0
 51
118.685402
210
0.0
220
0.0
230
1.0
  0
LINE
  8
0
  6
CONTINUOUS
 62
     7
  5
10E
 10
172.131006
 20
65.598282
 30
0.0
 11
163.781006
 21
65.598282
 31
0.0
  0
LINE
  8
0
  6
CONTINUOUS
 62
     7
  5
10F
 10
163.781006
 20
91.198282
 30
0.0
 11
172.131006
 21
91.198282
 31
0.0
  0
ARC
  8
0
  6
CONTINUOUS
 62
     7
  5
110
 10
233.131006
 20
78.398282
 30
0.0
 40
5.0
 50
180.0
 51
360.0
210
0.0
220
0.0
230
1.0
  0
ARC
  8
0
  6
CONTINUOUS
 62
     7
  5
111
 10
233.131006
 20
78.398282
 30
0.0
 40
5.0
 50
0.0
 51
180.0
210
0.0
220
0.0
230
1.0
  0
LINE
  8
0
  6
CONTINUOUS
 62
     7
  5
112
 10
196.631006
 20
67.432426
 30
0.0
 11
196.631006
 21
89.364138
 31
0.0
  0
ARC
  8
0
  6
CONTINUOUS
 62
     7
  5
113
 10
202.631006
 20
78.398282
 30
0.0
 40
12.5
 50
118.685402
 51
241.314598
210
0.0
220
0.0
230
1.0
  0
LINE
  8
0
  6
CONTINUOUS
 62
     7
  5
114
 10
224.781006
 20
91.198282
 30
0.0
 11
224.781006
 21
88.0997
 31
0.0
  0
ARC
  8
0
  6
CONTINUOUS
 62
     7
  5
115
 10
233.131006
 20
78.398282
 30
0.0
 40
12.8
 50
130.718545
 51
180.0
210
0.0
220
0.0
230
1.0
  0
LINE
  8
0
  6
CONTINUOUS
 62
     7
  5
116
 10
224.781006
 20
68.696865
 30
0.0
 11
224.781006
 21
65.598282
 31
0.0
  0
LINE
  8
0
  6
CONTINUOUS
 62
     7
  5
117
 10
224.781006
 20
65.598282
 30
0.0
 11
202.631006
 21
65.598282
 31
0.0
  0
LINE
  8
0
  6
CONTINUOUS
 62
     7
  5
118
 10
202.631006
 20
65.598282
 30
0.0
 11
202.631006
 21
65.898282
 31
0.0
  0
LINE
  8
0
  6
CONTINUOUS
 62
     7
  5
119
 10
202.631006
 20
90.898282
 30
0.0
 11
202.631006
 21
91.198282
 31
0.0
  0
LINE
  8
0
  6
CONTINUOUS
 62
     7
  5
11A
 10
202.631006
 20
91.198282
 30
0.0
 11
224.781006
 21
91.198282
 31
0.0
  0
ARC
  8
0
  6
CONTINUOUS
 62
     7
  5
11B
 10
233.131006
 20
78.398282
 30
0.0
 40
12.8
 50
180.0
 51
229.281455
210
0.0
220
0.0
230
1.0
  0
ARC
  8
0
  6
CONTINUOUS
 62
     7
  5
11C
 10
202.631006
 20
78.398282
 30
0.0
 40
12.5
 50
241.314598
 51
270.0
210
0.0
220
0.0
230
1.0
  0
ARC
  8
0
  6
CONTINUOUS
 62
     7
  5
11D
 10
202.631006
 20
78.398282
 30
0.0
 40
12.5
 50
90.0
 51
118.685402
210
0.0
220
0.0
230
1.0
  0
LINE
  8
0
  6
CONTINUOUS
 62
     7
  5
11E
 10
233.131006
 20
65.598282
 30
0.0
 11
224.781006
 21
65.598282
 31
0.0
  0
LINE
  8
0
  6
CONTINUOUS
 62
     7
  5
11F
 10
224.781006
 20
91.198282
 30
0.0
 11
233.131006
 21
91.198282
 31
0.0
  0
ARC
  8
0
  6
CONTINUOUS
 62
     7
  5
120
 10
263.631006
 20
78.398282
 30
0.0
 40
5.0
 50
180.0
 51
0.0
210
0.0
220
0.0
230
1.0
  0
ARC
  8
0
  6
CONTINUOUS
 62
     7
  5
121
 10
263.631006
 20
78.398282
 30
0.0
 40
5.0
 50
0.0
 51
180.0
210
0.0
220
0.0
230
1.0
  0
ARC
  8
0
  6
CONTINUOUS
 62
     7
  5
122
 10
233.131006
 20
78.398282
 30
0.0
 40
12.5
 50
118.685402
 51
241.314598
210
0.0
220
0.0
230
1.0
  0
LINE
  8
0
  6
CONTINUOUS
 62
     7
  5
123
 10
227.131006
 20
67.432426
 30
0.0
 11
227.131006
 21
89.364138
 31
0.0
  0
LINE
  8
0
  6
CONTINUOUS
 62
     7
  5
124
 10
233.131006
 20
91.198282
 30
0.0
 11
255.281006
 21
91.198282
 31
0.0
  0
LINE
  8
0
  6
CONTINUOUS
 62
     7
  5
125
 10
255.281006
 20
91.198282
 30
0.0
 11
255.281006
 21
88.0997
 31
0.0
  0
ARC
  8
0
  6
CONTINUOUS
 62
     7
  5
126
 10
263.631006
 20
78.398282
 30
0.0
 40
12.8
 50
180.0
 51
229.281455
210
0.0
220
0.0
230
1.0
  0
LINE
  8
0
  6
CONTINUOUS
 62
     7
  5
127
 10
255.281006
 20
68.696865
 30
0.0
 11
255.281006
 21
65.598282
 31
0.0
  0
LINE
  8
0
  6
CONTINUOUS
 62
     7
  5
128
 10
233.131006
 20
65.598282
 30
0.0
 11
233.131006
 21
65.898282
 31
0.0
  0
LINE
  8
0
  6
CONTINUOUS
 62
     7
  5
129
 10
233.131006
 20
90.898282
 30
0.0
 11
233.131006
 21
91.198282
 31
0.0
  0
LINE
  8
0
  6
CONTINUOUS
 62
     7
  5
12A
 10
255.281006
 20
65.598282
 30
0.0
 11
233.131006
 21
65.598282
 31
0.0
  0
ARC
  8
0
  6
CONTINUOUS
 62
     7
  5
12B
 10
263.631006
 20
78.398282
 30
0.0
 40
12.8
 50
130.718545
 51
180.0
210
0.0
220
0.0
230
1.0
  0
ARC
  8
0
  6
CONTINUOUS
 62
     7
  5
12C
 10
233.131006
 20
78.398282
 30
0.0
 40
12.5
 50
241.314598
 51
270.0
210
0.0
220
0.0
230
1.0
  0
ARC
  8
0
  6
CONTINUOUS
 62
     7
  5
12D
 10
233.131006
 20
78.398282
 30
0.0
 40
12.5
 50
90.0
 51
118.685402
210
0.0
220
0.0
230
1.0
  0
LINE
  8
0
  6
CONTINUOUS
 62
     7
  5
12E
 10
255.281006
 20
91.198282
 30
0.0
 11
263.631006
 21
91.198282
 31
0.0
  0
LINE
  8
0
  6
CONTINUOUS
 62
     7
  5
12F
 10
263.631006
 20
65.598282
 30
0.0
 11
255.281006
 21
65.598282
 31
0.0
  0
ARC
  8
0
  6
CONTINUOUS
 62
     7
  5
130
 10
294.131006
 20
78.398282
 30
0.0
 40
5.0
 50
0.0
 51
90.0
210
0.0
220
0.0
230
1.0
  0
ARC
  8
0
  6
CONTINUOUS
 62
     7
  5
131
 10
294.131006
 20
78.398282
 30
0.0
 40
5.0
 50
90.0
 51
180.0
210
0.0
220
0.0
230
1.0
  0
ARC
  8
0
  6
CONTINUOUS
 62
     7
  5
132
 10
294.131006
 20
78.398282
 30
0.0
 40
5.0
 50
180.0
 51
360.0
210
0.0
220
0.0
230
1.0
  0
ARC
  8
0
  6
CONTINUOUS
 62
     7
  5
133
 10
263.631006
 20
78.398282
 30
0.0
 40
12.5
 50
118.685402
 51
241.314598
210
0.0
220
0.0
230
1.0
  0
LINE
  8
0
  6
CONTINUOUS
 62
     7
  5
134
 10
257.631006
 20
67.432426
 30
0.0
 11
257.631006
 21
89.364138
 31
0.0
  0
LINE
  8
0
  6
CONTINUOUS
 62
     7
  5
135
 10
263.631006
 20
91.198282
 30
0.0
 11
285.781006
 21
91.198282
 31
0.0
  0
LINE
  8
0
  6
CONTINUOUS
 62
     7
  5
136
 10
285.781006
 20
91.198282
 30
0.0
 11
285.781006
 21
88.0997
 31
0.0
  0
ARC
  8
0
  6
CONTINUOUS
 62
     7
  5
137
 10
294.131006
 20
78.398282
 30
0.0
 40
12.8
 50
130.718545
 51
180.0
210
0.0
220
0.0
230
1.0
  0
ARC
  8
0
  6
CONTINUOUS
 62
     7
  5
138
 10
294.131006
 20
78.398282
 30
0.0
 40
12.8
 50
180.0
 51
229.281455
210
0.0
220
0.0
230
1.0
  0
LINE
  8
0
  6
CONTINUOUS
 62
     7
  5
139
 10
285.781006
 20
68.696865
 30
0.0
 11
285.781006
 21
65.598282
 31
0.0
  0
LINE
  8
0
  6
CONTINUOUS
 62
     7
  5
13A
 10
285.781006
 20
65.598282
 30
0.0
 11
263.631006
 21
65.598282
 31
0.0
  0
LINE
  8
0
  6
CONTINUOUS
 62
     7
  5
13B
 10
263.631006
 20
65.598282
 30
0.0
 11
263.631006
 21
65.898282
 31
0.0
  0
LINE
  8
0
  6
CONTINUOUS
 62
     7
  5
13C
 10
263.631006
 20
90.898282
 30
0.0
 11
263.631006
 21
91.198282
 31
0.0
  0
ARC
  8
0
  6
CONTINUOUS
 62
     7
  5
13D
 10
263.631006
 20
78.398282
 30
0.0
 40
12.5
 50
241.314598
 51
270.0
210
0.0
220
0.0
230
1.0
  0
ARC
  8
0
  6
CONTINUOUS
 62
     7
  5
13E
 10
263.631006
 20
78.398282
 30
0.0
 40
12.5
 50
90.0
 51
118.685402
210
0.0
220
0.0
230
1.0
  0
LINE
  8
0
  6
CONTINUOUS
 62
     7
  5
13F
 10
294.131006
 20
65.898282
 30
0.0
 11
294.131006
 21
65.598282
 31
0.0
  0
LINE
  8
0
  6
CONTINUOUS
 62
     7
  5
140
 10
294.131006
 20
91.198282
 30
0.0
 11
294.131006
 21
90.898282
 31
0.0
  0
LINE
  8
0
  6
CONTINUOUS
 62
     7
  5
141
 10
294.131006
 20
65.598282
 30
0.0
 11
285.781006
 21
65.598282
 31
0.0
  0
LINE
  8
0
  6
CONTINUOUS
 62
     7
  5
142
 10
285.781006
 20
91.198282
 30
0.0
 11
294.131006
 21
91.198282
 31
0.0
  0
LINE
  8
0
  6
CONTINUOUS
 62
     7
  5
143
 10
300.131006
 20
240.898282
 30
0.0
 11
332.131006
 21
240.898282
 31
0.0
  0
ARC
  8
0
  6
CONTINUOUS
 62
     7
  5
144
 10
294.131006
 20
228.398282
 30
0.0
 40
12.7
 50
350.990954
 51
0.0
210
0.0
220
0.0
230
1.0
  0
ARC
  8
0
  6
CONTINUOUS
 62
     7
  5
145
 10
294.131006
 20
228.398282
 30
0.0
 40
12.7
 50
0.0
 51
61.807139
210
0.0
220
0.0
230
1.0
  0
LINE
  8
0
  6
CONTINUOUS
 62
     7
  5
146
 10
300.131006
 20
239.591584
 30
0.0
 11
300.131006
 21
240.898282
 31
0.0
  0
LINE
  8
0
  6
CONTINUOUS
 62
     7
  5
147
 10
332.131006
 20
230.898282
 30
0.0
 11
306.674334
 21
226.409584
 31
0.0
  0
LINE
  8
0
  6
CONTINUOUS
 62
     7
  5
148
 10
332.131006
 20
240.898282
 30
0.0
 11
332.131006
 21
230.898282
 31
0.0
  0
ARC
  8
0
  6
CONTINUOUS
 62
     7
  5
149
 10
294.131006
 20
228.398282
 30
0.0
 40
5.0
 50
180.0
 51
360.0
210
0.0
220
0.0
230
1.0
  0
ARC
  8
0
  6
CONTINUOUS
 62
     7
  5
14A
 10
294.131006
 20
228.398282
 30
0.0
 40
5.0
 50
0.0
 51
180.0
210
0.0
220
0.0
230
1.0
  0
LINE
  8
0
  6
CONTINUOUS
 62
     7
  5
14B
 10
313.131006
 20
240.898282
 30
0.0
 11
313.131006
 21
246.898282
 31
0.0
  0
LINE
  8
0
  6
CONTINUOUS
 62
     7
  5
14C
 10
313.131006
 20
246.898282
 30
0.0
 11
328.131006
 21
246.898282
 31
0.0
  0
LINE
  8
0
  6
CONTINUOUS
 62
     7
  5
14D
 10
328.131006
 20
246.898282
 30
0.0
 11
328.131006
 21
240.898282
 31
0.0
  0
LINE
  8
0
  6
CONTINUOUS
 62
     7
  5
14E
 10
300.131006
 20
240.898282
 30
0.0
 11
294.131006
 21
240.898282
 31
0.0
  0
LINE
  8
0
  6
CONTINUOUS
 62
     7
  5
14F
 10
306.465814
 20
226.372816
 30
0.0
 11
306.674334
 21
226.409584
 31
0.0
  0
LINE
  8
0
  6
CONTINUOUS
 62
     7
  5
150
 10
334.131006
 20
238.898282
 30
0.0
 11
334.131006
 21
240.898282
 31
0.0
  0
LINE
  8
0
  6
CONTINUOUS
 62
     7
  5
151
 10
349.131006
 20
234.898282
 30
0.0
 11
349.131006
 21
238.898282
 31
0.0
  0
LINE
  8
0
  6
CONTINUOUS
 62
     7
  5
152
 10
349.131006
 20
238.898282
 30
0.0
 11
334.131006
 21
238.898282
 31
0.0
  0
LINE
  8
0
  6
CONTINUOUS
 62
     7
  5
153
 10
332.131006
 20
234.898282
 30
0.0
 11
349.131006
 21
234.898282
 31
0.0
  0
LINE
  8
0
  6
CONTINUOUS
 62
     7
  5
154
 10
334.131006
 20
240.898282
 30
0.0
 11
332.131006
 21
240.898282
 31
0.0
  0
LINE
  8
0
  6
CONTINUOUS
 62
     7
  5
155
 10
313.131006
 20
156.898282
 30
0.0
 11
328.131006
 21
156.898282
 31
0.0
  0
LINE
  8
0
  6
CONTINUOUS
 62
     7
  5
156
 10
313.131006
 20
227.548069
 30
0.0
 11
313.131006
 21
156.898282
 31
0.0
  0
LINE
  8
0
  6
CONTINUOUS
 62
     7
  5
157
 10
328.131006
 20
230.192974
 30
0.0
 11
328.131006
 21
156.898282
 31
0.0
  0
LINE
  8
0
  6
CONTINUOUS
 62
     7
  5
158
 10
325.631006
 20
252.898282
 30
0.0
 11
315.631006
 21
252.898282
 31
0.0
  0
LINE
  8
0
  6
CONTINUOUS
 62
     7
  5
159
 10
317.631006
 20
149.398282
 30
0.0
 11
323.631006
 21
149.398282
 31
0.0
  0
LINE
  8
0
  6
CONTINUOUS
 62
     7
  5
15A
 10
323.131006
 20
148.898282
 30
0.0
 11
318.131006
 21
148.898282
 31
0.0
  0
ARC
  8
0
  6
CONTINUOUS
 62
     7
  5
15B
 10
294.131006
 20
78.398282
 30
0.0
 40
5.0
 50
360.0
 51
90.0
210
0.0
220
0.0
230
1.0
  0
ARC
  8
0
  6
CONTINUOUS
 62
     7
  5
15C
 10
294.131006
 20
78.398282
 30
0.0
 40
5.0
 50
180.0
 51
360.0
210
0.0
220
0.0
230
1.0
  0
ARC
  8
0
  6
CONTINUOUS
 62
     7
  5
15D
 10
294.131006
 20
78.398282
 30
0.0
 40
5.0
 50
90.0
 51
180.0
210
0.0
220
0.0
230
1.0
  0
LINE
  8
0
  6
CONTINUOUS
 62
     7
  5
15E
 10
294.131006
 20
65.898282
 30
0.0
 11
332.131006
 21
65.898282
 31
0.0
  0
LINE
  8
0
  6
CONTINUOUS
 62
     7
  5
15F
 10
332.131006
 20
75.898282
 30
0.0
 11
306.465814
 21
80.423748
 31
0.0
  0
ARC
  8
0
  6
CONTINUOUS
 62
     7
  5
160
 10
294.131006
 20
78.398282
 30
0.0
 40
12.5
 50
9.325166
 51
270.0
210
0.0
220
0.0
230
0.9999999999999999
  0
LINE
  8
0
  6
CONTINUOUS
 62
     7
  5
161
 10
332.131006
 20
65.898282
 30
0.0
 11
332.131006
 21
75.898282
 31
0.0
  0
LINE
  8
0
  6
CONTINUOUS
 62
     7
  5
162
 10
132.131006
 20
65.898282
 30
0.0
 11
132.131006
 21
62.898282
 31
0.0
  0
LINE
  8
0
  6
CONTINUOUS
 62
     7
  5
163
 10
127.131006
 20
62.898282
 30
0.0
 11
127.131006
 21
65.898282
 31
0.0
  0
LINE
  8
0
  6
CONTINUOUS
 62
     7
  5
164
 10
127.131006
 20
65.898282
 30
0.0
 11
132.131006
 21
65.898282
 31
0.0
  0
LINE
  8
0
  6
CONTINUOUS
 62
     7
  5
165
 10
132.131006
 20
62.898282
 30
0.0
 11
127.131006
 21
62.898282
 31
0.0
  0
LINE
  8
0
  6
CONTINUOUS
 62
     7
  5
166
 10
329.131006
 20
62.898282
 30
0.0
 11
329.131006
 21
65.898282
 31
0.0
  0
LINE
  8
0
  6
CONTINUOUS
 62
     7
  5
167
 10
132.131006
 20
65.898282
 30
0.0
 11
141.631006
 21
65.898282
 31
0.0
  0
LINE
  8
0
  6
CONTINUOUS
 62
     7
  5
168
 10
132.131006
 20
62.898282
 30
0.0
 11
329.131006
 21
62.898282
 31
0.0
  0
LINE
  8
0
  6
CONTINUOUS
 62
     7
  5
169
 10
334.131006
 20
65.898282
 30
0.0
 11
334.131006
 21
62.898282
 31
0.0
  0
LINE
  8
0
  6
CONTINUOUS
 62
     7
  5
16A
 10
334.131006
 20
62.898282
 30
0.0
 11
329.131006
 21
62.898282
 31
0.0
  0
LINE
  8
0
  6
CONTINUOUS
 62
     7
  5
16B
 10
334.131006
 20
67.898282
 30
0.0
 11
334.131006
 21
65.898282
 31
0.0
  0
LINE
  8
0
  6
CONTINUOUS
 62
     7
  5
16C
 10
349.131006
 20
67.898282
 30
0.0
 11
334.131006
 21
67.898282
 31
0.0
  0
LINE
  8
0
  6
CONTINUOUS
 62
     7
  5
16D
 10
349.131006
 20
71.898282
 30
0.0
 11
349.131006
 21
67.898282
 31
0.0
  0
LINE
  8
0
  6
CONTINUOUS
 62
     7
  5
16E
 10
332.131006
 20
71.898282
 30
0.0
 11
349.131006
 21
71.898282
 31
0.0
  0
LINE
  8
0
  6
CONTINUOUS
 62
     7
  5
16F
 10
334.131006
 20
65.898282
 30
0.0
 11
332.131006
 21
65.898282
 31
0.0
  0
LINE
  8
0
  6
CONTINUOUS
 62
     7
  5
170
 10
327.131006
 20
88.671785
 30
0.0
 11
322.131006
 21
85.785033
 31
0.0
  0
LINE
  8
0
  6
CONTINUOUS
 62
     7
  5
171
 10
332.131006
 20
85.785033
 30
0.0
 11
327.131006
 21
88.671785
 31
0.0
  0
LINE
  8
0
  6
CONTINUOUS
 62
     7
  5
172
 10
332.131006
 20
80.011531
 30
0.0
 11
332.131006
 21
85.785033
 31
0.0
  0
LINE
  8
0
  6
CONTINUOUS
 62
     7
  5
173
 10
327.131006
 20
77.124779
 30
0.0
 11
332.131006
 21
80.011531
 31
0.0
  0
LINE
  8
0
  6
CONTINUOUS
 62
     7
  5
174
 10
322.131006
 20
80.011531
 30
0.0
 11
327.131006
 21
77.124779
 31
0.0
  0
LINE
  8
0
  6
CONTINUOUS
 62
     7
  5
175
 10
322.131006
 20
85.785033
 30
0.0
 11
322.131006
 21
80.011531
 31
0.0
  0
LINE
  8
0
  6
CONTINUOUS
 62
     7
  5
176
 10
140.109995
 20
92.898282
 30
0.0
 11
334.131006
 21
92.898282
 31
0.0
  0
LINE
  8
0
  6
CONTINUOUS
 62
     7
  5
177
 10
127.131006
 20
70.572656
 30
0.0
 11
127.131006
 21
65.898282
 31
0.0
  0
LINE
  8
0
  6
CONTINUOUS
 62
     7
  5
178
 10
334.131006
 20
92.898282
 30
0.0
 11
334.131006
 21
71.898282
 31
0.0
  0
LINE
  8
0
  6
CONTINUOUS
 62
     7
  5
179
 10
325.631006
 20
246.898282
 30
0.0
 11
325.631006
 21
252.898282
 31
0.0
  0
LINE
  8
0
  6
CONTINUOUS
 62
     7
  5
17A
 10
315.631006
 20
252.898282
 30
0.0
 11
315.631006
 21
246.898282
 31
0.0
  0
LINE
  8
0
  6
CONTINUOUS
 62
     7
  5
17B
 10
317.631006
 20
156.898282
 30
0.0
 11
317.631006
 21
149.398282
 31
0.0
  0
LINE
  8
0
  6
CONTINUOUS
 62
     7
  5
17C
 10
323.631006
 20
149.398282
 30
0.0
 11
323.631006
 21
156.898282
 31
0.0
  0
LINE
  8
0
  6
CONTINUOUS
 62
     7
  5
17D
 10
317.631006
 20
149.398282
 30
0.0
 11
318.131006
 21
148.898282
 31
0.0
  0
LINE
  8
0
  6
CONTINUOUS
 62
     7
  5
17E
 10
323.131006
 20
148.898282
 30
0.0
 11
323.631006
 21
149.398282
 31
0.0
  0
ENDBLK
  8
0
  5
17F
  0
BLOCK
  8
0
  5
182
  2
AID697
 70
     0
 10
0.0
 20
0.0
 30
0.0
  3
#auxiliary draft view
  0
LINE
  8
0
  6
CONTINUOUS
 62
     7
  5
183
 10
-111.600549
 20
226.409584
 30
0.0
 11
-111.600549
 21
217.432426
 31
0.0
  0
LINE
  8
0
  6
CONTINUOUS
 62
     7
  5
184
 10
-112.000549
 20
217.432426
 30
0.0
 11
-111.600549
 21
217.432426
 31
0.0
  0
LINE
  8
0
  6
CONTINUOUS
 62
     7
  5
185
 10
-112.000549
 20
215.898282
 30
0.0
 11
-112.000549
 21
217.432426
 31
0.0
  0
LINE
  8
0
  6
CONTINUOUS
 62
     7
  5
186
 10
-112.000549
 20
215.898282
 30
0.0
 11
-114.600549
 21
215.898282
 31
0.0
  0
LINE
  8
0
  6
CONTINUOUS
 62
     7
  5
187
 10
-114.600549
 20
216.412979
 30
0.0
 11
-114.600549
 21
215.898282
 31
0.0
  0
LINE
  8
0
  6
CONTINUOUS
 62
     7
  5
188
 10
-114.605549
 20
216.412979
 30
0.0
 11
-114.600549
 21
216.412979
 31
0.0
  0
LINE
  8
0
  6
CONTINUOUS
 62
     7
  5
189
 10
-173.600549
 20
217.432426
 30
0.0
 11
-173.200549
 21
217.432426
 31
0.0
  0
LINE
  8
0
  6
CONTINUOUS
 62
     7
  5
18A
 10
-173.600549
 20
226.409584
 30
0.0
 11
-173.600549
 21
217.432426
 31
0.0
  0
LINE
  8
0
  6
CONTINUOUS
 62
     7
  5
18B
 10
-170.600549
 20
216.412979
 30
0.0
 11
-170.595549
 21
216.412979
 31
0.0
  0
LINE
  8
0
  6
CONTINUOUS
 62
     7
  5
18C
 10
-170.600549
 20
215.898282
 30
0.0
 11
-170.600549
 21
216.412979
 31
0.0
  0
LINE
  8
0
  6
CONTINUOUS
 62
     7
  5
18D
 10
-170.600549
 20
215.898282
 30
0.0
 11
-173.200549
 21
215.898282
 31
0.0
  0
LINE
  8
0
  6
CONTINUOUS
 62
     7
  5
18E
 10
-173.200549
 20
217.432426
 30
0.0
 11
-173.200549
 21
215.898282
 31
0.0
  0
LINE
  8
0
  6
CONTINUOUS
 62
     7
  5
18F
 10
-112.000549
 20
215.598282
 30
0.0
 11
-114.600549
 21
215.598282
 31
0.0
  0
LINE
  8
0
  6
CONTINUOUS
 62
     7
  5
190
 10
-114.600549
 20
215.898282
 30
0.0
 11
-114.600549
 21
215.598282
 31
0.0
  0
LINE
  8
0
  6
CONTINUOUS
 62
     7
  5
191
 10
-112.000549
 20
215.598282
 30
0.0
 11
-112.000549
 21
215.898282
 31
0.0
  0
LINE
  8
0
  6
CONTINUOUS
 62
     7
  5
192
 10
-172.600549
 20
241.198282
 30
0.0
 11
-173.200549
 21
241.198282
 31
0.0
  0
LINE
  8
0
  6
CONTINUOUS
 62
     7
  5
193
 10
-173.200549
 20
241.198282
 30
0.0
 11
-173.200549
 21
240.898282
 31
0.0
  0
LINE
  8
0
  6
CONTINUOUS
 62
     7
  5
194
 10
-170.600549
 20
215.598282
 30
0.0
 11
-173.200549
 21
215.598282
 31
0.0
  0
LINE
  8
0
  6
CONTINUOUS
 62
     7
  5
195
 10
-170.600549
 20
215.598282
 30
0.0
 11
-170.600549
 21
215.898282
 31
0.0
  0
LINE
  8
0
  6
CONTINUOUS
 62
     7
  5
196
 10
-173.200549
 20
215.898282
 30
0.0
 11
-173.200549
 21
215.598282
 31
0.0
  0
LINE
  8
0
  6
CONTINUOUS
 62
     7
  5
197
 10
-167.600549
 20
237.740525
 30
0.0
 11
-161.600549
 21
237.740525
 31
0.0
  0
LINE
  8
0
  6
CONTINUOUS
 62
     7
  5
198
 10
-123.600549
 20
237.740525
 30
0.0
 11
-117.600549
 21
237.740525
 31
0.0
  0
LINE
  8
0
  6
CONTINUOUS
 62
     7
  5
199
 10
-117.600549
 20
237.498282
 30
0.0
 11
-123.600549
 21
237.498282
 31
0.0
  0
LINE
  8
0
  6
CONTINUOUS
 62
     7
  5
19A
 10
-161.600549
 20
237.498282
 30
0.0
 11
-167.600549
 21
237.498282
 31
0.0
  0
LINE
  8
0
  6
CONTINUOUS
 62
     7
  5
19B
 10
-117.600549
 20
215.598282
 30
0.0
 11
-117.600549
 21
215.898282
 31
0.0
  0
LINE
  8
0
  6
CONTINUOUS
 62
     7
  5
19C
 10
-114.600549
 20
215.598282
 30
0.0
 11
-117.600549
 21
215.598282
 31
0.0
  0
LINE
  8
0
  6
CONTINUOUS
 62
     7
  5
19D
 10
-167.600549
 20
215.898282
 30
0.0
 11
-167.600549
 21
215.598282
 31
0.0
  0
LINE
  8
0
  6
CONTINUOUS
 62
     7
  5
19E
 10
-167.600549
 20
215.598282
 30
0.0
 11
-170.600549
 21
215.598282
 31
0.0
  0
LINE
  8
0
  6
CONTINUOUS
 62
     7
  5
19F
 10
-117.600549
 20
216.698282
 30
0.0
 11
-141.600549
 21
216.698282
 31
0.0
  0
LINE
  8
0
  6
CONTINUOUS
 62
     7
  5
1A0
 10
-141.600549
 20
215.898282
 30
0.0
 11
-117.600549
 21
215.898282
 31
0.0
  0
LINE
  8
0
  6
CONTINUOUS
 62
     7
  5
1A1
 10
-141.600549
 20
216.698282
 30
0.0
 11
-141.600549
 21
215.898282
 31
0.0
  0
LINE
  8
0
  6
CONTINUOUS
 62
     7
  5
1A2
 10
-167.600549
 20
216.698282
 30
0.0
 11
-146.814908
 21
216.698282
 31
0.0
  0
LINE
  8
0
  6
CONTINUOUS
 62
     7
  5
1A3
 10
-146.814908
 20
216.698282
 30
0.0
 11
-142.814908
 21
219.007683
 31
0.0
  0
LINE
  8
0
  6
CONTINUOUS
 62
     7
  5
1A4
 10
-139.600549
 20
218.207683
 30
0.0
 11
-142.600549
 21
218.207683
 31
0.0
  0
LINE
  8
0
  6
CONTINUOUS
 62
     7
  5
1A5
 10
-142.600549
 20
218.207683
 30
0.0
 11
-146.600549
 21
215.898282
 31
0.0
  0
LINE
  8
0
  6
CONTINUOUS
 62
     7
  5
1A6
 10
-146.600549
 20
215.898282
 30
0.0
 11
-167.600549
 21
215.898282
 31
0.0
  0
LINE
  8
0
  6
CONTINUOUS
 62
     7
  5
1A7
 10
-139.600549
 20
219.007683
 30
0.0
 11
-139.600549
 21
218.207683
 31
0.0
  0
LINE
  8
0
  6
CONTINUOUS
 62
     7
  5
1A8
 10
-142.814908
 20
219.007683
 30
0.0
 11
-139.600549
 21
219.007683
 31
0.0
  0
LINE
  8
0
  6
CONTINUOUS
 62
     7
  5
1A9
 10
-114.600549
 20
99.294109
 30
0.0
 11
-117.600549
 21
99.294109
 31
0.0
  0
LINE
  8
0
  6
CONTINUOUS
 62
     7
  5
1AA
 10
-117.600549
 20
99.294109
 30
0.0
 11
-117.600549
 21
98.732032
 31
0.0
  0
LINE
  8
0
  6
CONTINUOUS
 62
     7
  5
1AB
 10
-167.600549
 20
98.732032
 30
0.0
 11
-167.600549
 21
99.294109
 31
0.0
  0
LINE
  8
0
  6
CONTINUOUS
 62
     7
  5
1AC
 10
-167.600549
 20
99.294109
 30
0.0
 11
-170.600549
 21
99.294109
 31
0.0
  0
LINE
  8
0
  6
CONTINUOUS
 62
     7
  5
1AD
 10
-114.600549
 20
105.191045
 30
0.0
 11
-112.000549
 21
105.191045
 31
0.0
  0
LINE
  8
0
  6
CONTINUOUS
 62
     7
  5
1AE
 10
-114.600549
 20
99.514108
 30
0.0
 11
-117.600549
 21
99.514108
 31
0.0
  0
LINE
  8
0
  6
CONTINUOUS
 62
     7
  5
1AF
 10
-114.600549
 20
114.573289
 30
0.0
 11
-117.600549
 21
114.573289
 31
0.0
  0
LINE
  8
0
  6
CONTINUOUS
 62
     7
  5
1B0
 10
-114.600549
 20
118.44299
 30
0.0
 11
-114.600549
 21
114.573289
 31
0.0
  0
LINE
  8
0
  6
CONTINUOUS
 62
     7
  5
1B1
 10
-112.000549
 20
120.250226
 30
0.0
 11
-114.600549
 21
120.250226
 31
0.0
  0
LINE
  8
0
  6
CONTINUOUS
 62
     7
  5
1B2
 10
-112.000549
 20
105.191045
 30
0.0
 11
-112.000549
 21
120.250226
 31
0.0
  0
LINE
  8
0
  6
CONTINUOUS
 62
     7
  5
1B3
 10
-117.600549
 20
114.573289
 30
0.0
 11
-117.600549
 21
99.514108
 31
0.0
  0
LINE
  8
0
  6
CONTINUOUS
 62
     7
  5
1B4
 10
-114.600549
 20
101.06557
 30
0.0
 11
-114.600549
 21
105.191045
 31
0.0
  0
LINE
  8
0
  6
CONTINUOUS
 62
     7
  5
1B5
 10
-117.600549
 20
99.514108
 30
0.0
 11
-117.600549
 21
99.294109
 31
0.0
  0
LINE
  8
0
  6
CONTINUOUS
 62
     7
  5
1B6
 10
-170.600549
 20
120.250226
 30
0.0
 11
-173.200549
 21
120.250226
 31
0.0
  0
LINE
  8
0
  6
CONTINUOUS
 62
     7
  5
1B7
 10
-170.600549
 20
114.573289
 30
0.0
 11
-170.600549
 21
118.44299
 31
0.0
  0
LINE
  8
0
  6
CONTINUOUS
 62
     7
  5
1B8
 10
-167.600549
 20
114.573289
 30
0.0
 11
-170.600549
 21
114.573289
 31
0.0
  0
LINE
  8
0
  6
CONTINUOUS
 62
     7
  5
1B9
 10
-167.600549
 20
99.514108
 30
0.0
 11
-170.600549
 21
99.514108
 31
0.0
  0
LINE
  8
0
  6
CONTINUOUS
 62
     7
  5
1BA
 10
-173.200549
 20
105.191045
 30
0.0
 11
-170.600549
 21
105.191045
 31
0.0
  0
LINE
  8
0
  6
CONTINUOUS
 62
     7
  5
1BB
 10
-173.200549
 20
120.250226
 30
0.0
 11
-173.200549
 21
105.191045
 31
0.0
  0
LINE
  8
0
  6
CONTINUOUS
 62
     7
  5
1BC
 10
-170.600549
 20
105.191045
 30
0.0
 11
-170.600549
 21
101.06557
 31
0.0
  0
LINE
  8
0
  6
CONTINUOUS
 62
     7
  5
1BD
 10
-167.600549
 20
99.514108
 30
0.0
 11
-167.600549
 21
114.573289
 31
0.0
  0
LINE
  8
0
  6
CONTINUOUS
 62
     7
  5
1BE
 10
-167.600549
 20
99.294109
 30
0.0
 11
-167.600549
 21
99.514108
 31
0.0
  0
LINE
  8
0
  6
CONTINUOUS
 62
     7
  5
1BF
 10
-111.600549
 20
95.127482
 30
0.0
 11
-111.600549
 21
90.898282
 31
0.0
  0
LINE
  8
0
  6
CONTINUOUS
 62
     7
  5
1C0
 10
-173.600549
 20
90.898282
 30
0.0
 11
-173.600549
 21
95.127482
 31
0.0
  0
LINE
  8
0
  6
CONTINUOUS
 62
     7
  5
1C1
 10
-114.600549
 20
102.918761
 30
0.0
 11
-112.000549
 21
102.918761
 31
0.0
  0
LINE
  8
0
  6
CONTINUOUS
 62
     7
  5
1C2
 10
-112.000549
 20
102.918761
 30
0.0
 11
-112.000549
 21
105.191045
 31
0.0
  0
LINE
  8
0
  6
CONTINUOUS
 62
     7
  5
1C3
 10
-170.600549
 20
102.918761
 30
0.0
 11
-173.200549
 21
102.918761
 31
0.0
  0
LINE
  8
0
  6
CONTINUOUS
 62
     7
  5
1C4
 10
-173.200549
 20
105.191045
 30
0.0
 11
-173.200549
 21
102.918761
 31
0.0
  0
LINE
  8
0
  6
CONTINUOUS
 62
     7
  5
1C5
 10
-112.000549
 20
102.918761
 30
0.0
 11
-112.000549
 21
102.627482
 31
0.0
  0
LINE
  8
0
  6
CONTINUOUS
 62
     7
  5
1C6
 10
-173.200549
 20
102.627482
 30
0.0
 11
-173.200549
 21
102.918761
 31
0.0
  0
LINE
  8
0
  6
CONTINUOUS
 62
     7
  5
1C7
 10
-117.600549
 20
107.62255
 30
0.0
 11
-141.600549
 21
107.62255
 31
0.0
  0
LINE
  8
0
  6
CONTINUOUS
 62
     7
  5
1C8
 10
-141.600549
 20
107.035885
 30
0.0
 11
-117.600549
 21
107.035885
 31
0.0
  0
LINE
  8
0
  6
CONTINUOUS
 62
     7
  5
1C9
 10
-141.600549
 20
107.62255
 30
0.0
 11
-141.600549
 21
107.035885
 31
0.0
  0
LINE
  8
0
  6
CONTINUOUS
 62
     7
  5
1CA
 10
-141.600549
 20
111.701786
 30
0.0
 11
-117.600549
 21
111.701786
 31
0.0
  0
LINE
  8
0
  6
CONTINUOUS
 62
     7
  5
1CB
 10
-141.600549
 20
111.701786
 30
0.0
 11
-141.600549
 21
107.62255
 31
0.0
  0
LINE
  8
0
  6
CONTINUOUS
 62
     7
  5
1CC
 10
-142.600549
 20
105.928996
 30
0.0
 11
-142.600549
 21
110.008232
 31
0.0
  0
LINE
  8
0
  6
CONTINUOUS
 62
     7
  5
1CD
 10
-146.600549
 20
107.62255
 30
0.0
 11
-142.600549
 21
105.928996
 31
0.0
  0
LINE
  8
0
  6
CONTINUOUS
 62
     7
  5
1CE
 10
-146.600549
 20
107.62255
 30
0.0
 11
-146.600549
 21
111.701786
 31
0.0
  0
LINE
  8
0
  6
CONTINUOUS
 62
     7
  5
1CF
 10
-142.600549
 20
110.008232
 30
0.0
 11
-146.600549
 21
111.701786
 31
0.0
  0
LINE
  8
0
  6
CONTINUOUS
 62
     7
  5
1D0
 10
-142.600549
 20
105.928996
 30
0.0
 11
-139.600549
 21
105.928996
 31
0.0
  0
LINE
  8
0
  6
CONTINUOUS
 62
     7
  5
1D1
 10
-139.600549
 20
105.928996
 30
0.0
 11
-139.600549
 21
105.342332
 31
0.0
  0
LINE
  8
0
  6
CONTINUOUS
 62
     7
  5
1D2
 10
-139.600549
 20
105.342332
 30
0.0
 11
-142.814908
 21
105.342332
 31
0.0
  0
LINE
  8
0
  6
CONTINUOUS
 62
     7
  5
1D3
 10
-142.814908
 20
105.342332
 30
0.0
 11
-146.814908
 21
107.035885
 31
0.0
  0
LINE
  8
0
  6
CONTINUOUS
 62
     7
  5
1D4
 10
-146.814908
 20
107.035885
 30
0.0
 11
-167.600549
 21
107.035885
 31
0.0
  0
LINE
  8
0
  6
CONTINUOUS
 62
     7
  5
1D5
 10
-167.600549
 20
107.62255
 30
0.0
 11
-146.600549
 21
107.62255
 31
0.0
  0
LINE
  8
0
  6
CONTINUOUS
 62
     7
  5
1D6
 10
-146.600549
 20
111.701786
 30
0.0
 11
-167.600549
 21
111.701786
 31
0.0
  0
LINE
  8
0
  6
CONTINUOUS
 62
     7
  5
1D7
 10
-139.600549
 20
105.928996
 30
0.0
 11
-139.600549
 21
107.035885
 31
0.0
  0
LINE
  8
0
  6
CONTINUOUS
 62
     7
  5
1D8
 10
-141.600549
 20
110.008232
 30
0.0
 11
-142.600549
 21
110.008232
 31
0.0
  0
LINE
  8
0
  6
CONTINUOUS
 62
     7
  5
1D9
 10
-167.600549
 20
89.403064
 30
0.0
 11
-145.610756
 21
89.403064
 31
0.0
  0
LINE
  8
0
  6
CONTINUOUS
 62
     7
  5
1DA
 10
-144.010756
 20
89.403064
 30
0.0
 11
-117.600549
 21
89.403064
 31
0.0
  0
LINE
  8
0
  6
CONTINUOUS
 62
     7
  5
1DB
 10
-167.600549
 20
86.909742
 30
0.0
 11
-117.600549
 21
86.909742
 31
0.0
  0
LINE
  8
0
  6
CONTINUOUS
 62
     7
  5
1DC
 10
-117.600549
 20
98.070308
 30
0.0
 11
-167.600549
 21
98.070308
 31
0.0
  0
LINE
  8
0
  6
CONTINUOUS
 62
     7
  5
1DD
 10
-111.600549
 20
123.3636
 30
0.0
 11
-111.600549
 21
122.984429
 31
0.0
  0
LINE
  8
0
  6
CONTINUOUS
 62
     7
  5
1DE
 10
-112.000549
 20
122.984429
 30
0.0
 11
-111.600549
 21
122.984429
 31
0.0
  0
LINE
  8
0
  6
CONTINUOUS
 62
     7
  5
1DF
 10
-112.000549
 20
120.250226
 30
0.0
 11
-112.000549
 21
122.409077
 31
0.0
  0
LINE
  8
0
  6
CONTINUOUS
 62
     7
  5
1E0
 10
-173.600549
 20
123.3636
 30
0.0
 11
-173.600549
 21
122.984429
 31
0.0
  0
LINE
  8
0
  6
CONTINUOUS
 62
     7
  5
1E1
 10
-173.600549
 20
122.984429
 30
0.0
 11
-173.200549
 21
122.984429
 31
0.0
  0
LINE
  8
0
  6
CONTINUOUS
 62
     7
  5
1E2
 10
-173.200549
 20
122.409077
 30
0.0
 11
-173.200549
 21
120.250226
 31
0.0
  0
LINE
  8
0
  6
CONTINUOUS
 62
     7
  5
1E3
 10
-111.600549
 20
122.984429
 30
0.0
 11
-111.600549
 21
115.8636
 31
0.0
  0
LINE
  8
0
  6
CONTINUOUS
 62
     7
  5
1E4
 10
-173.600549
 20
115.8636
 30
0.0
 11
-173.600549
 21
122.984429
 31
0.0
  0
LINE
  8
0
  6
CONTINUOUS
 62
     7
  5
1E5
 10
-117.600549
 20
115.888427
 30
0.0
 11
-117.600549
 21
114.573289
 31
0.0
  0
LINE
  8
0
  6
CONTINUOUS
 62
     7
  5
1E6
 10
-114.600549
 20
115.888427
 30
0.0
 11
-117.600549
 21
115.888427
 31
0.0
  0
LINE
  8
0
  6
CONTINUOUS
 62
     7
  5
1E7
 10
-167.600549
 20
114.573289
 30
0.0
 11
-167.600549
 21
115.888427
 31
0.0
  0
LINE
  8
0
  6
CONTINUOUS
 62
     7
  5
1E8
 10
-167.600549
 20
115.888427
 30
0.0
 11
-170.600549
 21
115.888427
 31
0.0
  0
LINE
  8
0
  6
CONTINUOUS
 62
     7
  5
1E9
 10
-114.600549
 20
123.654665
 30
0.0
 11
-112.000549
 21
123.654665
 31
0.0
  0
LINE
  8
0
  6
CONTINUOUS
 62
     7
  5
1EA
 10
-114.600549
 20
116.009022
 30
0.0
 11
-117.600549
 21
116.009022
 31
0.0
  0
LINE
  8
0
  6
CONTINUOUS
 62
     7
  5
1EB
 10
-114.600549
 20
136.290576
 30
0.0
 11
-117.600549
 21
136.290576
 31
0.0
  0
LINE
  8
0
  6
CONTINUOUS
 62
     7
  5
1EC
 10
-114.600549
 20
141.502251
 30
0.0
 11
-114.600549
 21
136.290576
 31
0.0
  0
LINE
  8
0
  6
CONTINUOUS
 62
     7
  5
1ED
 10
-112.000549
 20
143.936218
 30
0.0
 11
-114.600549
 21
143.936218
 31
0.0
  0
LINE
  8
0
  6
CONTINUOUS
 62
     7
  5
1EE
 10
-112.000549
 20
123.654665
 30
0.0
 11
-112.000549
 21
143.936218
 31
0.0
  0
LINE
  8
0
  6
CONTINUOUS
 62
     7
  5
1EF
 10
-117.600549
 20
136.290576
 30
0.0
 11
-117.600549
 21
116.009022
 31
0.0
  0
LINE
  8
0
  6
CONTINUOUS
 62
     7
  5
1F0
 10
-114.600549
 20
118.44299
 30
0.0
 11
-114.600549
 21
123.654665
 31
0.0
  0
LINE
  8
0
  6
CONTINUOUS
 62
     7
  5
1F1
 10
-117.600549
 20
116.009022
 30
0.0
 11
-117.600549
 21
115.888427
 31
0.0
  0
LINE
  8
0
  6
CONTINUOUS
 62
     7
  5
1F2
 10
-170.600549
 20
143.936218
 30
0.0
 11
-173.200549
 21
143.936218
 31
0.0
  0
LINE
  8
0
  6
CONTINUOUS
 62
     7
  5
1F3
 10
-170.600549
 20
136.290576
 30
0.0
 11
-170.600549
 21
141.502251
 31
0.0
  0
LINE
  8
0
  6
CONTINUOUS
 62
     7
  5
1F4
 10
-167.600549
 20
136.290576
 30
0.0
 11
-170.600549
 21
136.290576
 31
0.0
  0
LINE
  8
0
  6
CONTINUOUS
 62
     7
  5
1F5
 10
-167.600549
 20
116.009022
 30
0.0
 11
-170.600549
 21
116.009022
 31
0.0
  0
LINE
  8
0
  6
CONTINUOUS
 62
     7
  5
1F6
 10
-173.200549
 20
123.654665
 30
0.0
 11
-170.600549
 21
123.654665
 31
0.0
  0
LINE
  8
0
  6
CONTINUOUS
 62
     7
  5
1F7
 10
-173.200549
 20
143.936218
 30
0.0
 11
-173.200549
 21
123.654665
 31
0.0
  0
LINE
  8
0
  6
CONTINUOUS
 62
     7
  5
1F8
 10
-170.600549
 20
123.654665
 30
0.0
 11
-170.600549
 21
118.44299
 31
0.0
  0
LINE
  8
0
  6
CONTINUOUS
 62
     7
  5
1F9
 10
-167.600549
 20
116.009022
 30
0.0
 11
-167.600549
 21
136.290576
 31
0.0
  0
LINE
  8
0
  6
CONTINUOUS
 62
     7
  5
1FA
 10
-167.600549
 20
115.888427
 30
0.0
 11
-167.600549
 21
116.009022
 31
0.0
  0
LINE
  8
0
  6
CONTINUOUS
 62
     7
  5
1FB
 10
-114.600549
 20
122.409077
 30
0.0
 11
-112.000549
 21
122.409077
 31
0.0
  0
LINE
  8
0
  6
CONTINUOUS
 62
     7
  5
1FC
 10
-112.000549
 20
122.409077
 30
0.0
 11
-112.000549
 21
123.654665
 31
0.0
  0
LINE
  8
0
  6
CONTINUOUS
 62
     7
  5
1FD
 10
-170.600549
 20
122.409077
 30
0.0
 11
-173.200549
 21
122.409077
 31
0.0
  0
LINE
  8
0
  6
CONTINUOUS
 62
     7
  5
1FE
 10
-173.200549
 20
123.654665
 30
0.0
 11
-173.200549
 21
122.409077
 31
0.0
  0
LINE
  8
0
  6
CONTINUOUS
 62
     7
  5
1FF
 10
-117.600549
 20
127.105087
 30
0.0
 11
-141.600549
 21
127.105087
 31
0.0
  0
LINE
  8
0
  6
CONTINUOUS
 62
     7
  5
200
 10
-141.600549
 20
126.783498
 30
0.0
 11
-117.600549
 21
126.783498
 31
0.0
  0
LINE
  8
0
  6
CONTINUOUS
 62
     7
  5
201
 10
-141.600549
 20
127.105087
 30
0.0
 11
-141.600549
 21
126.783498
 31
0.0
  0
LINE
  8
0
  6
CONTINUOUS
 62
     7
  5
202
 10
-141.600549
 20
132.598962
 30
0.0
 11
-117.600549
 21
132.598962
 31
0.0
  0
LINE
  8
0
  6
CONTINUOUS
 62
     7
  5
203
 10
-141.600549
 20
132.598962
 30
0.0
 11
-141.600549
 21
127.105087
 31
0.0
  0
LINE
  8
0
  6
CONTINUOUS
 62
     7
  5
204
 10
-146.600549
 20
127.105087
 30
0.0
 11
-142.600549
 21
126.17674
 31
0.0
  0
LINE
  8
0
  6
CONTINUOUS
 62
     7
  5
205
 10
-142.600549
 20
126.17674
 30
0.0
 11
-139.600549
 21
126.17674
 31
0.0
  0
LINE
  8
0
  6
CONTINUOUS
 62
     7
  5
206
 10
-139.600549
 20
126.17674
 30
0.0
 11
-139.600549
 21
125.855151
 31
0.0
  0
LINE
  8
0
  6
CONTINUOUS
 62
     7
  5
207
 10
-139.600549
 20
125.855151
 30
0.0
 11
-142.814908
 21
125.855151
 31
0.0
  0
LINE
  8
0
  6
CONTINUOUS
 62
     7
  5
208
 10
-142.814908
 20
125.855151
 30
0.0
 11
-146.814908
 21
126.783498
 31
0.0
  0
LINE
  8
0
  6
CONTINUOUS
 62
     7
  5
209
 10
-146.814908
 20
126.783498
 30
0.0
 11
-167.600549
 21
126.783498
 31
0.0
  0
LINE
  8
0
  6
CONTINUOUS
 62
     7
  5
20A
 10
-167.600549
 20
127.105087
 30
0.0
 11
-146.600549
 21
127.105087
 31
0.0
  0
LINE
  8
0
  6
CONTINUOUS
 62
     7
  5
20B
 10
-146.600549
 20
127.105087
 30
0.0
 11
-146.600549
 21
132.598962
 31
0.0
  0
LINE
  8
0
  6
CONTINUOUS
 62
     7
  5
20C
 10
-146.600549
 20
132.598962
 30
0.0
 11
-167.600549
 21
132.598962
 31
0.0
  0
LINE
  8
0
  6
CONTINUOUS
 62
     7
  5
20D
 10
-142.600549
 20
126.17674
 30
0.0
 11
-142.600549
 21
131.670614
 31
0.0
  0
LINE
  8
0
  6
CONTINUOUS
 62
     7
  5
20E
 10
-142.600549
 20
131.670614
 30
0.0
 11
-146.600549
 21
132.598962
 31
0.0
  0
LINE
  8
0
  6
CONTINUOUS
 62
     7
  5
20F
 10
-111.600549
 20
115.8636
 30
0.0
 11
-111.600549
 21
106.285371
 31
0.0
  0
LINE
  8
0
  6
CONTINUOUS
 62
     9
  5
210
 10
-111.600549
 20
106.285371
 30
0.0
 11
-112.000549
 21
106.285371
 31
0.0
  0
LINE
  8
0
  6
CONTINUOUS
 62
     7
  5
211
 10
-173.600549
 20
106.285371
 30
0.0
 11
-173.600549
 21
115.8636
 31
0.0
  0
LINE
  8
0
  6
CONTINUOUS
 62
     9
  5
212
 10
-173.200549
 20
106.285371
 30
0.0
 11
-173.600549
 21
106.285371
 31
0.0
  0
LINE
  8
0
  6
CONTINUOUS
 62
     7
  5
213
 10
-139.600549
 20
126.17674
 30
0.0
 11
-139.600549
 21
126.783498
 31
0.0
  0
LINE
  8
0
  6
CONTINUOUS
 62
     7
  5
214
 10
-141.600549
 20
131.670614
 30
0.0
 11
-142.600549
 21
131.670614
 31
0.0
  0
LINE
  8
0
  6
CONTINUOUS
 62
     7
  5
215
 10
-111.600549
 20
106.285371
 30
0.0
 11
-111.600549
 21
105.8636
 31
0.0
  0
LINE
  8
0
  6
CONTINUOUS
 62
     7
  5
216
 10
-173.600549
 20
105.8636
 30
0.0
 11
-173.600549
 21
106.285371
 31
0.0
  0
LINE
  8
0
  6
CONTINUOUS
 62
     7
  5
217
 10
-111.600549
 20
151.290796
 30
0.0
 11
-111.600549
 21
148.692792
 31
0.0
  0
LINE
  8
0
  6
CONTINUOUS
 62
     7
  5
218
 10
-112.000549
 20
148.692792
 30
0.0
 11
-111.600549
 21
148.692792
 31
0.0
  0
LINE
  8
0
  6
CONTINUOUS
 62
     7
  5
219
 10
-112.000549
 20
143.936218
 30
0.0
 11
-112.000549
 21
147.181106
 31
0.0
  0
LINE
  8
0
  6
CONTINUOUS
 62
     7
  5
21A
 10
-173.600549
 20
151.290796
 30
0.0
 11
-173.600549
 21
148.692792
 31
0.0
  0
LINE
  8
0
  6
CONTINUOUS
 62
     7
  5
21B
 10
-173.600549
 20
148.692792
 30
0.0
 11
-173.200549
 21
148.692792
 31
0.0
  0
LINE
  8
0
  6
CONTINUOUS
 62
     7
  5
21C
 10
-173.200549
 20
147.181106
 30
0.0
 11
-173.200549
 21
143.936218
 31
0.0
  0
LINE
  8
0
  6
CONTINUOUS
 62
     7
  5
21D
 10
-111.600549
 20
148.692792
 30
0.0
 11
-111.600549
 21
143.790752
 31
0.0
  0
LINE
  8
0
  6
CONTINUOUS
 62
     7
  5
21E
 10
-173.600549
 20
143.790752
 30
0.0
 11
-173.600549
 21
148.692792
 31
0.0
  0
LINE
  8
0
  6
CONTINUOUS
 62
     7
  5
21F
 10
-167.600549
 20
115.217427
 30
0.0
 11
-117.600549
 21
115.217427
 31
0.0
  0
LINE
  8
0
  6
CONTINUOUS
 62
     7
  5
220
 10
-167.600549
 20
113.850674
 30
0.0
 11
-117.600549
 21
113.850674
 31
0.0
  0
LINE
  8
0
  6
CONTINUOUS
 62
     7
  5
221
 10
-114.600549
 20
147.194004
 30
0.0
 11
-112.000549
 21
147.194004
 31
0.0
  0
LINE
  8
0
  6
CONTINUOUS
 62
     7
  5
222
 10
-114.600549
 20
141.502251
 30
0.0
 11
-114.600549
 21
147.194004
 31
0.0
  0
LINE
  8
0
  6
CONTINUOUS
 62
     7
  5
223
 10
-114.600549
 20
138.844076
 30
0.0
 11
-117.600549
 21
138.844076
 31
0.0
  0
LINE
  8
0
  6
CONTINUOUS
 62
     7
  5
224
 10
-114.600549
 20
160.993884
 30
0.0
 11
-117.600549
 21
160.993884
 31
0.0
  0
LINE
  8
0
  6
CONTINUOUS
 62
     7
  5
225
 10
-114.600549
 20
166.685637
 30
0.0
 11
-114.600549
 21
160.993884
 31
0.0
  0
LINE
  8
0
  6
CONTINUOUS
 62
     7
  5
226
 10
-112.000549
 20
169.343812
 30
0.0
 11
-114.600549
 21
169.343812
 31
0.0
  0
LINE
  8
0
  6
CONTINUOUS
 62
     7
  5
227
 10
-112.000549
 20
147.194004
 30
0.0
 11
-112.000549
 21
169.343812
 31
0.0
  0
LINE
  8
0
  6
CONTINUOUS
 62
     7
  5
228
 10
-117.600549
 20
160.993884
 30
0.0
 11
-117.600549
 21
138.844076
 31
0.0
  0
LINE
  8
0
  6
CONTINUOUS
 62
     7
  5
229
 10
-114.600549
 20
138.842827
 30
0.0
 11
-117.600549
 21
138.842827
 31
0.0
  0
LINE
  8
0
  6
CONTINUOUS
 62
     7
  5
22A
 10
-117.600549
 20
138.844076
 30
0.0
 11
-117.600549
 21
138.842827
 31
0.0
  0
LINE
  8
0
  6
CONTINUOUS
 62
     7
  5
22B
 10
-167.600549
 20
138.844076
 30
0.0
 11
-170.600549
 21
138.844076
 31
0.0
  0
LINE
  8
0
  6
CONTINUOUS
 62
     7
  5
22C
 10
-167.600549
 20
138.842827
 30
0.0
 11
-170.600549
 21
138.842827
 31
0.0
  0
LINE
  8
0
  6
CONTINUOUS
 62
     7
  5
22D
 10
-167.600549
 20
138.842827
 30
0.0
 11
-167.600549
 21
138.844076
 31
0.0
  0
LINE
  8
0
  6
CONTINUOUS
 62
     7
  5
22E
 10
-170.600549
 20
169.343812
 30
0.0
 11
-173.200549
 21
169.343812
 31
0.0
  0
LINE
  8
0
  6
CONTINUOUS
 62
     7
  5
22F
 10
-170.600549
 20
160.993884
 30
0.0
 11
-170.600549
 21
166.685637
 31
0.0
  0
LINE
  8
0
  6
CONTINUOUS
 62
     7
  5
230
 10
-167.600549
 20
160.993884
 30
0.0
 11
-170.600549
 21
160.993884
 31
0.0
  0
LINE
  8
0
  6
CONTINUOUS
 62
     7
  5
231
 10
-173.200549
 20
147.194004
 30
0.0
 11
-170.600549
 21
147.194004
 31
0.0
  0
LINE
  8
0
  6
CONTINUOUS
 62
     7
  5
232
 10
-173.200549
 20
169.343812
 30
0.0
 11
-173.200549
 21
147.194004
 31
0.0
  0
LINE
  8
0
  6
CONTINUOUS
 62
     7
  5
233
 10
-170.600549
 20
147.194004
 30
0.0
 11
-170.600549
 21
141.502251
 31
0.0
  0
LINE
  8
0
  6
CONTINUOUS
 62
     7
  5
234
 10
-167.600549
 20
138.844076
 30
0.0
 11
-167.600549
 21
160.993884
 31
0.0
  0
LINE
  8
0
  6
CONTINUOUS
 62
     7
  5
235
 10
-114.600549
 20
147.181106
 30
0.0
 11
-112.000549
 21
147.181106
 31
0.0
  0
LINE
  8
0
  6
CONTINUOUS
 62
     7
  5
236
 10
-112.000549
 20
147.181106
 30
0.0
 11
-112.000549
 21
147.194004
 31
0.0
  0
LINE
  8
0
  6
CONTINUOUS
 62
     7
  5
237
 10
-170.600549
 20
147.181106
 30
0.0
 11
-173.200549
 21
147.181106
 31
0.0
  0
LINE
  8
0
  6
CONTINUOUS
 62
     7
  5
238
 10
-173.200549
 20
147.194004
 30
0.0
 11
-173.200549
 21
147.181106
 31
0.0
  0
LINE
  8
0
  6
CONTINUOUS
 62
     7
  5
239
 10
-117.600549
 20
138.842827
 30
0.0
 11
-117.600549
 21
136.290576
 31
0.0
  0
LINE
  8
0
  6
CONTINUOUS
 62
     7
  5
23A
 10
-167.600549
 20
136.290576
 30
0.0
 11
-167.600549
 21
138.842827
 31
0.0
  0
LINE
  8
0
  6
CONTINUOUS
 62
     7
  5
23B
 10
-141.600549
 20
157.092669
 30
0.0
 11
-117.600549
 21
157.092669
 31
0.0
  0
LINE
  8
0
  6
CONTINUOUS
 62
     7
  5
23C
 10
-117.600549
 20
151.092721
 30
0.0
 11
-141.600549
 21
151.092721
 31
0.0
  0
LINE
  8
0
  6
CONTINUOUS
 62
     7
  5
23D
 10
-141.600549
 20
157.092669
 30
0.0
 11
-141.600549
 21
151.092721
 31
0.0
  0
LINE
  8
0
  6
CONTINUOUS
 62
     7
  5
23E
 10
-141.600549
 20
151.089391
 30
0.0
 11
-117.600549
 21
151.089391
 31
0.0
  0
LINE
  8
0
  6
CONTINUOUS
 62
     7
  5
23F
 10
-141.600549
 20
151.092721
 30
0.0
 11
-141.600549
 21
151.089391
 31
0.0
  0
LINE
  8
0
  6
CONTINUOUS
 62
     7
  5
240
 10
-142.600549
 20
151.083108
 30
0.0
 11
-142.600549
 21
157.083056
 31
0.0
  0
LINE
  8
0
  6
CONTINUOUS
 62
     7
  5
241
 10
-146.600549
 20
151.092721
 30
0.0
 11
-142.600549
 21
151.083108
 31
0.0
  0
LINE
  8
0
  6
CONTINUOUS
 62
     7
  5
242
 10
-146.600549
 20
151.092721
 30
0.0
 11
-146.600549
 21
157.092669
 31
0.0
  0
LINE
  8
0
  6
CONTINUOUS
 62
     7
  5
243
 10
-142.600549
 20
157.083056
 30
0.0
 11
-146.600549
 21
157.092669
 31
0.0
  0
LINE
  8
0
  6
CONTINUOUS
 62
     7
  5
244
 10
-167.600549
 20
151.092721
 30
0.0
 11
-146.600549
 21
151.092721
 31
0.0
  0
LINE
  8
0
  6
CONTINUOUS
 62
     7
  5
245
 10
-146.600549
 20
157.092669
 30
0.0
 11
-167.600549
 21
157.092669
 31
0.0
  0
LINE
  8
0
  6
CONTINUOUS
 62
     7
  5
246
 10
-142.600549
 20
151.083108
 30
0.0
 11
-139.600549
 21
151.083108
 31
0.0
  0
LINE
  8
0
  6
CONTINUOUS
 62
     7
  5
247
 10
-139.600549
 20
151.083108
 30
0.0
 11
-139.600549
 21
151.079778
 31
0.0
  0
LINE
  8
0
  6
CONTINUOUS
 62
     7
  5
248
 10
-139.600549
 20
151.079778
 30
0.0
 11
-142.814908
 21
151.079778
 31
0.0
  0
LINE
  8
0
  6
CONTINUOUS
 62
     7
  5
249
 10
-142.814908
 20
151.079778
 30
0.0
 11
-146.814908
 21
151.089391
 31
0.0
  0
LINE
  8
0
  6
CONTINUOUS
 62
     7
  5
24A
 10
-146.814908
 20
151.089391
 30
0.0
 11
-167.600549
 21
151.089391
 31
0.0
  0
LINE
  8
0
  6
CONTINUOUS
 62
     7
  5
24B
 10
-111.600549
 20
181.790531
 30
0.0
 11
-111.600549
 21
175.336125
 31
0.0
  0
LINE
  8
0
  6
CONTINUOUS
 62
     7
  5
24C
 10
-112.000549
 20
175.336125
 30
0.0
 11
-111.600549
 21
175.336125
 31
0.0
  0
LINE
  8
0
  6
CONTINUOUS
 62
     7
  5
24D
 10
-111.600549
 20
175.244834
 30
0.0
 11
-112.000549
 21
175.244834
 31
0.0
  0
LINE
  8
0
  6
CONTINUOUS
 62
     7
  5
24E
 10
-112.000549
 20
169.342563
 30
0.0
 11
-112.000549
 21
171.91618
 31
0.0
  0
LINE
  8
0
  6
CONTINUOUS
 62
     7
  5
24F
 10
-173.600549
 20
181.790531
 30
0.0
 11
-173.600549
 21
175.336125
 31
0.0
  0
LINE
  8
0
  6
CONTINUOUS
 62
     7
  5
250
 10
-173.600549
 20
175.336125
 30
0.0
 11
-173.200549
 21
175.336125
 31
0.0
  0
LINE
  8
0
  6
CONTINUOUS
 62
     7
  5
251
 10
-173.200549
 20
175.244834
 30
0.0
 11
-173.600549
 21
175.244834
 31
0.0
  0
LINE
  8
0
  6
CONTINUOUS
 62
     7
  5
252
 10
-173.200549
 20
171.91618
 30
0.0
 11
-173.200549
 21
169.342563
 31
0.0
  0
LINE
  8
0
  6
CONTINUOUS
 62
     7
  5
253
 10
-111.600549
 20
175.336125
 30
0.0
 11
-111.600549
 21
175.244834
 31
0.0
  0
LINE
  8
0
  6
CONTINUOUS
 62
     7
  5
254
 10
-173.600549
 20
175.244834
 30
0.0
 11
-173.600549
 21
175.336125
 31
0.0
  0
LINE
  8
0
  6
CONTINUOUS
 62
     7
  5
255
 10
-139.600549
 20
151.083108
 30
0.0
 11
-139.600549
 21
151.089391
 31
0.0
  0
LINE
  8
0
  6
CONTINUOUS
 62
     7
  5
256
 10
-141.600549
 20
157.083056
 30
0.0
 11
-142.600549
 21
157.083056
 31
0.0
  0
LINE
  8
0
  6
CONTINUOUS
 62
     7
  5
257
 10
-112.000549
 20
143.790752
 30
0.0
 11
-111.600549
 21
143.790752
 31
0.0
  0
LINE
  8
0
  6
CONTINUOUS
 62
     7
  5
258
 10
-111.600549
 20
133.790839
 30
0.0
 11
-112.000549
 21
133.790839
 31
0.0
  0
LINE
  8
0
  6
CONTINUOUS
 62
     7
  5
259
 10
-111.600549
 20
143.790796
 30
0.0
 11
-111.600549
 21
133.790839
 31
0.0
  0
LINE
  8
0
  6
CONTINUOUS
 62
     7
  5
25A
 10
-173.600549
 20
133.790839
 30
0.0
 11
-173.600549
 21
143.790796
 31
0.0
  0
LINE
  8
0
  6
CONTINUOUS
 62
     7
  5
25B
 10
-173.600549
 20
143.790752
 30
0.0
 11
-173.200549
 21
143.790752
 31
0.0
  0
LINE
  8
0
  6
CONTINUOUS
 62
     7
  5
25C
 10
-173.200549
 20
133.790839
 30
0.0
 11
-173.600549
 21
133.790839
 31
0.0
  0
LINE
  8
0
  6
CONTINUOUS
 62
     7
  5
25D
 10
-167.600549
 20
160.50172
 30
0.0
 11
-117.600549
 21
160.50172
 31
0.0
  0
LINE
  8
0
  6
CONTINUOUS
 62
     7
  5
25E
 10
-117.600549
 20
160.251064
 30
0.0
 11
-167.600549
 21
160.251064
 31
0.0
  0
LINE
  8
0
  6
CONTINUOUS
 62
     7
  5
25F
 10
-167.600549
 20
147.502841
 30
0.0
 11
-117.600549
 21
147.502841
 31
0.0
  0
LINE
  8
0
  6
CONTINUOUS
 62
     7
  5
260
 10
-167.600549
 20
147.488688
 30
0.0
 11
-117.600549
 21
147.488688
 31
0.0
  0
LINE
  8
0
  6
CONTINUOUS
 62
     7
  5
261
 10
-111.600549
 20
209.818829
 30
0.0
 11
-111.600549
 21
198.508213
 31
0.0
  0
LINE
  8
0
  6
CONTINUOUS
 62
     7
  5
262
 10
-112.000549
 20
198.508213
 30
0.0
 11
-111.600549
 21
198.508213
 31
0.0
  0
LINE
  8
0
  6
CONTINUOUS
 62
     7
  5
263
 10
-112.000549
 20
192.389461
 30
0.0
 11
-114.600549
 21
192.389461
 31
0.0
  0
LINE
  8
0
  6
CONTINUOUS
 62
     7
  5
264
 10
-112.000549
 20
192.389461
 30
0.0
 11
-112.000549
 21
193.732693
 31
0.0
  0
LINE
  8
0
  6
CONTINUOUS
 62
     7
  5
265
 10
-173.600549
 20
209.818829
 30
0.0
 11
-173.600549
 21
198.508213
 31
0.0
  0
LINE
  8
0
  6
CONTINUOUS
 62
     7
  5
266
 10
-173.600549
 20
198.508213
 30
0.0
 11
-173.200549
 21
198.508213
 31
0.0
  0
LINE
  8
0
  6
CONTINUOUS
 62
     7
  5
267
 10
-170.600549
 20
192.389461
 30
0.0
 11
-173.200549
 21
192.389461
 31
0.0
  0
LINE
  8
0
  6
CONTINUOUS
 62
     7
  5
268
 10
-173.200549
 20
193.732693
 30
0.0
 11
-173.200549
 21
192.389461
 31
0.0
  0
LINE
  8
0
  6
CONTINUOUS
 62
     7
  5
269
 10
-114.600549
 20
171.91618
 30
0.0
 11
-112.000549
 21
171.91618
 31
0.0
  0
LINE
  8
0
  6
CONTINUOUS
 62
     7
  5
26A
 10
-114.600549
 20
166.685637
 30
0.0
 11
-114.600549
 21
171.91618
 31
0.0
  0
LINE
  8
0
  6
CONTINUOUS
 62
     7
  5
26B
 10
-114.600549
 20
164.242859
 30
0.0
 11
-117.600549
 21
164.242859
 31
0.0
  0
LINE
  8
0
  6
CONTINUOUS
 62
     7
  5
26C
 10
-117.600549
 20
184.597835
 30
0.0
 11
-117.600549
 21
164.242859
 31
0.0
  0
LINE
  8
0
  6
CONTINUOUS
 62
     7
  5
26D
 10
-114.600549
 20
184.597835
 30
0.0
 11
-117.600549
 21
184.597835
 31
0.0
  0
LINE
  8
0
  6
CONTINUOUS
 62
     7
  5
26E
 10
-112.000549
 20
192.271156
 30
0.0
 11
-114.600549
 21
192.271156
 31
0.0
  0
LINE
  8
0
  6
CONTINUOUS
 62
     7
  5
26F
 10
-114.600549
 20
189.828377
 30
0.0
 11
-114.600549
 21
184.597835
 31
0.0
  0
LINE
  8
0
  6
CONTINUOUS
 62
     7
  5
270
 10
-112.000549
 20
171.91618
 30
0.0
 11
-112.000549
 21
192.271156
 31
0.0
  0
LINE
  8
0
  6
CONTINUOUS
 62
     7
  5
271
 10
-112.000549
 20
192.271156
 30
0.0
 11
-112.000549
 21
192.389461
 31
0.0
  0
LINE
  8
0
  6
CONTINUOUS
 62
     7
  5
272
 10
-170.600549
 20
192.271156
 30
0.0
 11
-173.200549
 21
192.271156
 31
0.0
  0
LINE
  8
0
  6
CONTINUOUS
 62
     7
  5
273
 10
-167.600549
 20
184.597835
 30
0.0
 11
-170.600549
 21
184.597835
 31
0.0
  0
LINE
  8
0
  6
CONTINUOUS
 62
     7
  5
274
 10
-167.600549
 20
164.242859
 30
0.0
 11
-167.600549
 21
184.597835
 31
0.0
  0
LINE
  8
0
  6
CONTINUOUS
 62
     7
  5
275
 10
-167.600549
 20
164.242859
 30
0.0
 11
-170.600549
 21
164.242859
 31
0.0
  0
LINE
  8
0
  6
CONTINUOUS
 62
     7
  5
276
 10
-170.600549
 20
171.91618
 30
0.0
 11
-170.600549
 21
166.685637
 31
0.0
  0
LINE
  8
0
  6
CONTINUOUS
 62
     7
  5
277
 10
-173.200549
 20
171.91618
 30
0.0
 11
-170.600549
 21
171.91618
 31
0.0
  0
LINE
  8
0
  6
CONTINUOUS
 62
     7
  5
278
 10
-170.600549
 20
184.597835
 30
0.0
 11
-170.600549
 21
189.828377
 31
0.0
  0
LINE
  8
0
  6
CONTINUOUS
 62
     7
  5
279
 10
-173.200549
 20
192.271156
 30
0.0
 11
-173.200549
 21
171.91618
 31
0.0
  0
LINE
  8
0
  6
CONTINUOUS
 62
     7
  5
27A
 10
-173.200549
 20
192.389461
 30
0.0
 11
-173.200549
 21
192.271156
 31
0.0
  0
LINE
  8
0
  6
CONTINUOUS
 62
     7
  5
27B
 10
-117.600549
 20
184.597835
 30
0.0
 11
-117.600549
 21
185.81976
 31
0.0
  0
LINE
  8
0
  6
CONTINUOUS
 62
     7
  5
27C
 10
-117.600549
 20
185.81976
 30
0.0
 11
-114.605549
 21
185.81976
 31
0.0
  0
LINE
  8
0
  6
CONTINUOUS
 62
     7
  5
27D
 10
-114.605549
 20
185.81976
 30
0.0
 11
-114.605549
 21
188.004976
 31
0.0
  0
LINE
  8
0
  6
CONTINUOUS
 62
     7
  5
27E
 10
-170.595549
 20
185.81976
 30
0.0
 11
-167.600549
 21
185.81976
 31
0.0
  0
LINE
  8
0
  6
CONTINUOUS
 62
     7
  5
27F
 10
-167.600549
 20
185.81976
 30
0.0
 11
-167.600549
 21
184.597835
 31
0.0
  0
LINE
  8
0
  6
CONTINUOUS
 62
     7
  5
280
 10
-117.600549
 20
181.447674
 30
0.0
 11
-141.600549
 21
181.447674
 31
0.0
  0
LINE
  8
0
  6
CONTINUOUS
 62
     7
  5
281
 10
-141.600549
 20
181.132194
 30
0.0
 11
-117.600549
 21
181.132194
 31
0.0
  0
LINE
  8
0
  6
CONTINUOUS
 62
     7
  5
282
 10
-141.600549
 20
181.447674
 30
0.0
 11
-141.600549
 21
181.132194
 31
0.0
  0
LINE
  8
0
  6
CONTINUOUS
 62
     7
  5
283
 10
-117.600549
 20
175.618431
 30
0.0
 11
-141.600549
 21
175.618431
 31
0.0
  0
LINE
  8
0
  6
CONTINUOUS
 62
     7
  5
284
 10
-141.600549
 20
181.132194
 30
0.0
 11
-141.600549
 21
175.618431
 31
0.0
  0
LINE
  8
0
  6
CONTINUOUS
 62
     7
  5
285
 10
-142.600549
 20
176.529142
 30
0.0
 11
-142.600549
 21
182.042905
 31
0.0
  0
LINE
  8
0
  6
CONTINUOUS
 62
     7
  5
286
 10
-146.600549
 20
175.618431
 30
0.0
 11
-142.600549
 21
176.529142
 31
0.0
  0
LINE
  8
0
  6
CONTINUOUS
 62
     7
  5
287
 10
-146.600549
 20
175.618431
 30
0.0
 11
-146.600549
 21
181.132194
 31
0.0
  0
LINE
  8
0
  6
CONTINUOUS
 62
     7
  5
288
 10
-142.600549
 20
182.042905
 30
0.0
 11
-146.600549
 21
181.132194
 31
0.0
  0
LINE
  8
0
  6
CONTINUOUS
 62
     7
  5
289
 10
-167.600549
 20
175.618431
 30
0.0
 11
-146.600549
 21
175.618431
 31
0.0
  0
LINE
  8
0
  6
CONTINUOUS
 62
     7
  5
28A
 10
-146.600549
 20
181.132194
 30
0.0
 11
-167.600549
 21
181.132194
 31
0.0
  0
LINE
  8
0
  6
CONTINUOUS
 62
     7
  5
28B
 10
-167.600549
 20
181.447674
 30
0.0
 11
-146.814908
 21
181.447674
 31
0.0
  0
LINE
  8
0
  6
CONTINUOUS
 62
     7
  5
28C
 10
-146.814908
 20
181.447674
 30
0.0
 11
-142.814908
 21
182.358385
 31
0.0
  0
LINE
  8
0
  6
CONTINUOUS
 62
     7
  5
28D
 10
-142.814908
 20
182.358385
 30
0.0
 11
-139.600549
 21
182.358385
 31
0.0
  0
LINE
  8
0
  6
CONTINUOUS
 62
     7
  5
28E
 10
-139.600549
 20
182.358385
 30
0.0
 11
-139.600549
 21
182.042905
 31
0.0
  0
LINE
  8
0
  6
CONTINUOUS
 62
     7
  5
28F
 10
-139.600549
 20
182.042905
 30
0.0
 11
-142.600549
 21
182.042905
 31
0.0
  0
LINE
  8
0
  6
CONTINUOUS
 62
     7
  5
290
 10
-142.600549
 20
176.529142
 30
0.0
 11
-141.600549
 21
176.529142
 31
0.0
  0
LINE
  8
0
  6
CONTINUOUS
 62
     7
  5
291
 10
-139.600549
 20
181.447674
 30
0.0
 11
-139.600549
 21
182.042905
 31
0.0
  0
LINE
  8
0
  6
CONTINUOUS
 62
     7
  5
292
 10
-117.600549
 20
164.242859
 30
0.0
 11
-117.600549
 21
160.993884
 31
0.0
  0
LINE
  8
0
  6
CONTINUOUS
 62
     7
  5
293
 10
-167.600549
 20
160.993884
 30
0.0
 11
-167.600549
 21
164.242859
 31
0.0
  0
LINE
  8
0
  6
CONTINUOUS
 62
     7
  5
294
 10
-167.600549
 20
192.962032
 30
0.0
 11
-117.600549
 21
192.962032
 31
0.0
  0
LINE
  8
0
  6
CONTINUOUS
 62
     7
  5
295
 10
-117.600549
 20
192.635232
 30
0.0
 11
-167.600549
 21
192.635232
 31
0.0
  0
LINE
  8
0
  6
CONTINUOUS
 62
     9
  5
296
 10
-112.000549
 20
173.885334
 30
0.0
 11
-111.600549
 21
173.885334
 31
0.0
  0
LINE
  8
0
  6
CONTINUOUS
 62
     7
  5
297
 10
-111.600549
 20
173.885334
 30
0.0
 11
-111.600549
 21
164.290531
 31
0.0
  0
LINE
  8
0
  6
CONTINUOUS
 62
     7
  5
298
 10
-173.600549
 20
164.290531
 30
0.0
 11
-173.600549
 21
173.885334
 31
0.0
  0
LINE
  8
0
  6
CONTINUOUS
 62
     9
  5
299
 10
-173.600549
 20
173.885334
 30
0.0
 11
-173.200549
 21
173.885334
 31
0.0
  0
LINE
  8
0
  6
CONTINUOUS
 62
     7
  5
29A
 10
-111.600549
 20
174.290531
 30
0.0
 11
-111.600549
 21
173.885334
 31
0.0
  0
LINE
  8
0
  6
CONTINUOUS
 62
     7
  5
29B
 10
-173.600549
 20
173.885334
 30
0.0
 11
-173.600549
 21
174.290531
 31
0.0
  0
LINE
  8
0
  6
CONTINUOUS
 62
     7
  5
29C
 10
-167.600549
 20
194.207292
 30
0.0
 11
-117.600549
 21
194.207292
 31
0.0
  0
LINE
  8
0
  6
CONTINUOUS
 62
     7
  5
29D
 10
-111.600549
 20
217.432426
 30
0.0
 11
-111.600549
 21
214.376907
 31
0.0
  0
LINE
  8
0
  6
CONTINUOUS
 62
     7
  5
29E
 10
-112.000549
 20
214.376907
 30
0.0
 11
-111.600549
 21
214.376907
 31
0.0
  0
LINE
  8
0
  6
CONTINUOUS
 62
     7
  5
29F
 10
-173.600549
 20
217.432426
 30
0.0
 11
-173.600549
 21
214.376907
 31
0.0
  0
LINE
  8
0
  6
CONTINUOUS
 62
     7
  5
2A0
 10
-173.600549
 20
214.376907
 30
0.0
 11
-173.200549
 21
214.376907
 31
0.0
  0
LINE
  8
0
  6
CONTINUOUS
 62
     7
  5
2A1
 10
-114.600549
 20
193.732693
 30
0.0
 11
-112.000549
 21
193.732693
 31
0.0
  0
LINE
  8
0
  6
CONTINUOUS
 62
     7
  5
2A2
 10
-114.600549
 20
189.828377
 30
0.0
 11
-114.600549
 21
193.732693
 31
0.0
  0
LINE
  8
0
  6
CONTINUOUS
 62
     7
  5
2A3
 10
-114.600549
 20
188.004976
 30
0.0
 11
-117.600549
 21
188.004976
 31
0.0
  0
LINE
  8
0
  6
CONTINUOUS
 62
     7
  5
2A4
 10
-117.600549
 20
203.19886
 30
0.0
 11
-117.600549
 21
188.004976
 31
0.0
  0
LINE
  8
0
  6
CONTINUOUS
 62
     7
  5
2A5
 10
-114.600549
 20
203.19886
 30
0.0
 11
-117.600549
 21
203.19886
 31
0.0
  0
LINE
  8
0
  6
CONTINUOUS
 62
     7
  5
2A6
 10
-112.000549
 20
208.926577
 30
0.0
 11
-114.600549
 21
208.926577
 31
0.0
  0
LINE
  8
0
  6
CONTINUOUS
 62
     7
  5
2A7
 10
-114.600549
 20
207.103176
 30
0.0
 11
-114.600549
 21
203.19886
 31
0.0
  0
LINE
  8
0
  6
CONTINUOUS
 62
     7
  5
2A8
 10
-112.000549
 20
193.732693
 30
0.0
 11
-112.000549
 21
208.926577
 31
0.0
  0
LINE
  8
0
  6
CONTINUOUS
 62
     7
  5
2A9
 10
-112.000549
 20
208.926577
 30
0.0
 11
-112.000549
 21
209.035577
 31
0.0
  0
LINE
  8
0
  6
CONTINUOUS
 62
     7
  5
2AA
 10
-170.600549
 20
208.926577
 30
0.0
 11
-173.200549
 21
208.926577
 31
0.0
  0
LINE
  8
0
  6
CONTINUOUS
 62
     7
  5
2AB
 10
-173.200549
 20
209.035577
 30
0.0
 11
-173.200549
 21
208.926577
 31
0.0
  0
LINE
  8
0
  6
CONTINUOUS
 62
     7
  5
2AC
 10
-167.600549
 20
203.19886
 30
0.0
 11
-170.600549
 21
203.19886
 31
0.0
  0
LINE
  8
0
  6
CONTINUOUS
 62
     7
  5
2AD
 10
-167.600549
 20
188.004976
 30
0.0
 11
-167.600549
 21
203.19886
 31
0.0
  0
LINE
  8
0
  6
CONTINUOUS
 62
     7
  5
2AE
 10
-167.600549
 20
188.004976
 30
0.0
 11
-170.600549
 21
188.004976
 31
0.0
  0
LINE
  8
0
  6
CONTINUOUS
 62
     7
  5
2AF
 10
-170.600549
 20
193.732693
 30
0.0
 11
-170.600549
 21
189.828377
 31
0.0
  0
LINE
  8
0
  6
CONTINUOUS
 62
     7
  5
2B0
 10
-173.200549
 20
193.732693
 30
0.0
 11
-170.600549
 21
193.732693
 31
0.0
  0
LINE
  8
0
  6
CONTINUOUS
 62
     7
  5
2B1
 10
-170.600549
 20
203.19886
 30
0.0
 11
-170.600549
 21
207.103176
 31
0.0
  0
LINE
  8
0
  6
CONTINUOUS
 62
     7
  5
2B2
 10
-173.200549
 20
208.926577
 30
0.0
 11
-173.200549
 21
193.732693
 31
0.0
  0
LINE
  8
0
  6
CONTINUOUS
 62
     7
  5
2B3
 10
-117.600549
 20
205.453527
 30
0.0
 11
-114.605549
 21
205.453527
 31
0.0
  0
LINE
  8
0
  6
CONTINUOUS
 62
     7
  5
2B4
 10
-117.600549
 20
203.19886
 30
0.0
 11
-117.600549
 21
205.453527
 31
0.0
  0
LINE
  8
0
  6
CONTINUOUS
 62
     7
  5
2B5
 10
-170.595549
 20
205.453527
 30
0.0
 11
-167.600549
 21
205.453527
 31
0.0
  0
LINE
  8
0
  6
CONTINUOUS
 62
     7
  5
2B6
 10
-167.600549
 20
205.453527
 30
0.0
 11
-167.600549
 21
203.19886
 31
0.0
  0
LINE
  8
0
  6
CONTINUOUS
 62
     7
  5
2B7
 10
-117.600549
 20
205.74043
 30
0.0
 11
-117.600549
 21
205.453527
 31
0.0
  0
LINE
  8
0
  6
CONTINUOUS
 62
     7
  5
2B8
 10
-167.600549
 20
205.453527
 30
0.0
 11
-167.600549
 21
205.74043
 31
0.0
  0
LINE
  8
0
  6
CONTINUOUS
 62
     7
  5
2B9
 10
-117.600549
 20
201.324048
 30
0.0
 11
-141.600549
 21
201.324048
 31
0.0
  0
LINE
  8
0
  6
CONTINUOUS
 62
     7
  5
2BA
 10
-141.600549
 20
200.741932
 30
0.0
 11
-117.600549
 21
200.741932
 31
0.0
  0
LINE
  8
0
  6
CONTINUOUS
 62
     7
  5
2BB
 10
-141.600549
 20
201.324048
 30
0.0
 11
-141.600549
 21
200.741932
 31
0.0
  0
LINE
  8
0
  6
CONTINUOUS
 62
     7
  5
2BC
 10
-117.600549
 20
196.626207
 30
0.0
 11
-141.600549
 21
196.626207
 31
0.0
  0
LINE
  8
0
  6
CONTINUOUS
 62
     7
  5
2BD
 10
-141.600549
 20
200.741932
 30
0.0
 11
-141.600549
 21
196.626207
 31
0.0
  0
LINE
  8
0
  6
CONTINUOUS
 62
     7
  5
2BE
 10
-142.600549
 20
198.306631
 30
0.0
 11
-142.600549
 21
202.422356
 31
0.0
  0
LINE
  8
0
  6
CONTINUOUS
 62
     7
  5
2BF
 10
-146.600549
 20
196.626207
 30
0.0
 11
-142.600549
 21
198.306631
 31
0.0
  0
LINE
  8
0
  6
CONTINUOUS
 62
     7
  5
2C0
 10
-146.600549
 20
196.626207
 30
0.0
 11
-146.600549
 21
200.741932
 31
0.0
  0
LINE
  8
0
  6
CONTINUOUS
 62
     7
  5
2C1
 10
-142.600549
 20
202.422356
 30
0.0
 11
-146.600549
 21
200.741932
 31
0.0
  0
LINE
  8
0
  6
CONTINUOUS
 62
     7
  5
2C2
 10
-167.600549
 20
201.324048
 30
0.0
 11
-146.814908
 21
201.324048
 31
0.0
  0
LINE
  8
0
  6
CONTINUOUS
 62
     7
  5
2C3
 10
-146.814908
 20
201.324048
 30
0.0
 11
-142.814908
 21
203.004472
 31
0.0
  0
LINE
  8
0
  6
CONTINUOUS
 62
     7
  5
2C4
 10
-142.814908
 20
203.004472
 30
0.0
 11
-139.600549
 21
203.004472
 31
0.0
  0
LINE
  8
0
  6
CONTINUOUS
 62
     7
  5
2C5
 10
-139.600549
 20
203.004472
 30
0.0
 11
-139.600549
 21
202.422356
 31
0.0
  0
LINE
  8
0
  6
CONTINUOUS
 62
     7
  5
2C6
 10
-139.600549
 20
202.422356
 30
0.0
 11
-142.600549
 21
202.422356
 31
0.0
  0
LINE
  8
0
  6
CONTINUOUS
 62
     7
  5
2C7
 10
-146.600549
 20
200.741932
 30
0.0
 11
-167.600549
 21
200.741932
 31
0.0
  0
LINE
  8
0
  6
CONTINUOUS
 62
     7
  5
2C8
 10
-167.600549
 20
196.626207
 30
0.0
 11
-146.600549
 21
196.626207
 31
0.0
  0
LINE
  8
0
  6
CONTINUOUS
 62
     7
  5
2C9
 10
-142.600549
 20
198.306631
 30
0.0
 11
-141.600549
 21
198.306631
 31
0.0
  0
LINE
  8
0
  6
CONTINUOUS
 62
     7
  5
2CA
 10
-139.600549
 20
201.324048
 30
0.0
 11
-139.600549
 21
202.422356
 31
0.0
  0
LINE
  8
0
  6
CONTINUOUS
 62
     7
  5
2CB
 10
-167.600549
 20
219.036166
 30
0.0
 11
-117.600549
 21
219.036166
 31
0.0
  0
LINE
  8
0
  6
CONTINUOUS
 62
     7
  5
2CC
 10
-117.600549
 20
218.687267
 30
0.0
 11
-139.600549
 21
218.687267
 31
0.0
  0
LINE
  8
0
  6
CONTINUOUS
 62
     7
  5
2CD
 10
-143.369885
 20
218.687267
 30
0.0
 11
-167.600549
 21
218.687267
 31
0.0
  0
LINE
  8
0
  6
CONTINUOUS
 62
     7
  5
2CE
 10
-167.600549
 20
221.333891
 30
0.0
 11
-117.600549
 21
221.333891
 31
0.0
  0
LINE
  8
0
  6
CONTINUOUS
 62
     7
  5
2CF
 10
-167.600549
 20
209.942495
 30
0.0
 11
-117.600549
 21
209.942495
 31
0.0
  0
LINE
  8
0
  6
CONTINUOUS
 62
     7
  5
2D0
 10
-117.600549
 20
188.004976
 30
0.0
 11
-117.600549
 21
185.81976
 31
0.0
  0
LINE
  8
0
  6
CONTINUOUS
 62
     7
  5
2D1
 10
-167.600549
 20
185.81976
 30
0.0
 11
-167.600549
 21
188.004976
 31
0.0
  0
LINE
  8
0
  6
CONTINUOUS
 62
     7
  5
2D2
 10
-111.600549
 20
198.508213
 30
0.0
 11
-111.600549
 21
192.318829
 31
0.0
  0
LINE
  8
0
  6
CONTINUOUS
 62
     7
  5
2D3
 10
-173.600549
 20
192.318829
 30
0.0
 11
-173.600549
 21
198.508213
 31
0.0
  0
LINE
  8
0
  6
CONTINUOUS
 62
     7
  5
2D4
 10
-173.600549
 20
240.946931
 30
0.0
 11
-173.600549
 21
240.898282
 31
0.0
  0
LINE
  8
0
  6
CONTINUOUS
 62
     7
  5
2D5
 10
-173.200549
 20
240.946931
 30
0.0
 11
-173.600549
 21
240.946931
 31
0.0
  0
LINE
  8
0
  6
CONTINUOUS
 62
     7
  5
2D6
 10
-114.600549
 20
209.035577
 30
0.0
 11
-112.000549
 21
209.035577
 31
0.0
  0
LINE
  8
0
  6
CONTINUOUS
 62
     7
  5
2D7
 10
-114.600549
 20
207.103176
 30
0.0
 11
-114.600549
 21
209.035577
 31
0.0
  0
LINE
  8
0
  6
CONTINUOUS
 62
     7
  5
2D8
 10
-114.600549
 20
206.200701
 30
0.0
 11
-117.600549
 21
206.200701
 31
0.0
  0
LINE
  8
0
  6
CONTINUOUS
 62
     7
  5
2D9
 10
-117.600549
 20
213.720762
 30
0.0
 11
-117.600549
 21
206.200701
 31
0.0
  0
LINE
  8
0
  6
CONTINUOUS
 62
     7
  5
2DA
 10
-114.600549
 20
213.720762
 30
0.0
 11
-117.600549
 21
213.720762
 31
0.0
  0
LINE
  8
0
  6
CONTINUOUS
 62
     7
  5
2DB
 10
-114.600549
 20
215.598282
 30
0.0
 11
-114.600549
 21
213.720762
 31
0.0
  0
LINE
  8
0
  6
CONTINUOUS
 62
     7
  5
2DC
 10
-112.000549
 20
209.035577
 30
0.0
 11
-112.000549
 21
215.598282
 31
0.0
  0
LINE
  8
0
  6
CONTINUOUS
 62
     7
  5
2DD
 10
-167.600549
 20
213.720762
 30
0.0
 11
-170.600549
 21
213.720762
 31
0.0
  0
LINE
  8
0
  6
CONTINUOUS
 62
     7
  5
2DE
 10
-167.600549
 20
206.200701
 30
0.0
 11
-167.600549
 21
213.720762
 31
0.0
  0
LINE
  8
0
  6
CONTINUOUS
 62
     7
  5
2DF
 10
-167.600549
 20
206.200701
 30
0.0
 11
-170.600549
 21
206.200701
 31
0.0
  0
LINE
  8
0
  6
CONTINUOUS
 62
     7
  5
2E0
 10
-170.600549
 20
209.035577
 30
0.0
 11
-170.600549
 21
207.103176
 31
0.0
  0
LINE
  8
0
  6
CONTINUOUS
 62
     7
  5
2E1
 10
-173.200549
 20
209.035577
 30
0.0
 11
-170.600549
 21
209.035577
 31
0.0
  0
LINE
  8
0
  6
CONTINUOUS
 62
     7
  5
2E2
 10
-170.600549
 20
213.720762
 30
0.0
 11
-170.600549
 21
215.598282
 31
0.0
  0
LINE
  8
0
  6
CONTINUOUS
 62
     7
  5
2E3
 10
-173.200549
 20
215.598282
 30
0.0
 11
-173.200549
 21
209.035577
 31
0.0
  0
LINE
  8
0
  6
CONTINUOUS
 62
     7
  5
2E4
 10
-117.600549
 20
213.720762
 30
0.0
 11
-117.600549
 21
215.598282
 31
0.0
  0
LINE
  8
0
  6
CONTINUOUS
 62
     7
  5
2E5
 10
-167.600549
 20
215.598282
 30
0.0
 11
-167.600549
 21
213.720762
 31
0.0
  0
LINE
  8
0
  6
CONTINUOUS
 62
     7
  5
2E6
 10
-117.600549
 20
213.431353
 30
0.0
 11
-141.600549
 21
213.431353
 31
0.0
  0
LINE
  8
0
  6
CONTINUOUS
 62
     7
  5
2E7
 10
-141.600549
 20
212.678869
 30
0.0
 11
-117.600549
 21
212.678869
 31
0.0
  0
LINE
  8
0
  6
CONTINUOUS
 62
     7
  5
2E8
 10
-141.600549
 20
213.431353
 30
0.0
 11
-141.600549
 21
212.678869
 31
0.0
  0
LINE
  8
0
  6
CONTINUOUS
 62
     7
  5
2E9
 10
-117.600549
 20
210.641833
 30
0.0
 11
-141.600549
 21
210.641833
 31
0.0
  0
LINE
  8
0
  6
CONTINUOUS
 62
     7
  5
2EA
 10
-141.600549
 20
212.678869
 30
0.0
 11
-141.600549
 21
210.641833
 31
0.0
  0
LINE
  8
0
  6
CONTINUOUS
 62
     7
  5
2EB
 10
-146.600549
 20
210.641833
 30
0.0
 11
-146.600549
 21
212.678869
 31
0.0
  0
LINE
  8
0
  6
CONTINUOUS
 62
     7
  5
2EC
 10
-167.600549
 20
210.641833
 30
0.0
 11
-146.600549
 21
210.641833
 31
0.0
  0
LINE
  8
0
  6
CONTINUOUS
 62
     7
  5
2ED
 10
-146.600549
 20
212.678869
 30
0.0
 11
-167.600549
 21
212.678869
 31
0.0
  0
LINE
  8
0
  6
CONTINUOUS
 62
     7
  5
2EE
 10
-142.600549
 20
212.814064
 30
0.0
 11
-142.600549
 21
214.851101
 31
0.0
  0
LINE
  8
0
  6
CONTINUOUS
 62
     7
  5
2EF
 10
-146.600549
 20
210.641833
 30
0.0
 11
-142.600549
 21
212.814064
 31
0.0
  0
LINE
  8
0
  6
CONTINUOUS
 62
     7
  5
2F0
 10
-142.600549
 20
214.851101
 30
0.0
 11
-146.600549
 21
212.678869
 31
0.0
  0
LINE
  8
0
  6
CONTINUOUS
 62
     7
  5
2F1
 10
-167.600549
 20
213.431353
 30
0.0
 11
-146.814908
 21
213.431353
 31
0.0
  0
LINE
  8
0
  6
CONTINUOUS
 62
     7
  5
2F2
 10
-146.814908
 20
213.431353
 30
0.0
 11
-142.814908
 21
215.603584
 31
0.0
  0
LINE
  8
0
  6
CONTINUOUS
 62
     7
  5
2F3
 10
-142.814908
 20
215.603584
 30
0.0
 11
-139.600549
 21
215.603584
 31
0.0
  0
LINE
  8
0
  6
CONTINUOUS
 62
     7
  5
2F4
 10
-139.600549
 20
215.603584
 30
0.0
 11
-139.600549
 21
214.851101
 31
0.0
  0
LINE
  8
0
  6
CONTINUOUS
 62
     7
  5
2F5
 10
-139.600549
 20
214.851101
 30
0.0
 11
-142.600549
 21
214.851101
 31
0.0
  0
LINE
  8
0
  6
CONTINUOUS
 62
     7
  5
2F6
 10
-142.600549
 20
212.814064
 30
0.0
 11
-141.600549
 21
212.814064
 31
0.0
  0
LINE
  8
0
  6
CONTINUOUS
 62
     7
  5
2F7
 10
-139.600549
 20
213.431353
 30
0.0
 11
-139.600549
 21
214.851101
 31
0.0
  0
LINE
  8
0
  6
CONTINUOUS
 62
     7
  5
2F8
 10
-167.600549
 20
234.412038
 30
0.0
 11
-117.600549
 21
234.412038
 31
0.0
  0
LINE
  8
0
  6
CONTINUOUS
 62
     7
  5
2F9
 10
-117.600549
 20
234.098741
 30
0.0
 11
-167.600549
 21
234.098741
 31
0.0
  0
LINE
  8
0
  6
CONTINUOUS
 62
     7
  5
2FA
 10
-167.600549
 20
237.382237
 30
0.0
 11
-161.600549
 21
237.382237
 31
0.0
  0
LINE
  8
0
  6
CONTINUOUS
 62
     7
  5
2FB
 10
-123.600549
 20
237.382237
 30
0.0
 11
-117.600549
 21
237.382237
 31
0.0
  0
LINE
  8
0
  6
CONTINUOUS
 62
     7
  5
2FC
 10
-167.600549
 20
229.770604
 30
0.0
 11
-117.600549
 21
229.770604
 31
0.0
  0
LINE
  8
0
  6
CONTINUOUS
 62
     7
  5
2FD
 10
-111.600549
 20
214.376907
 30
0.0
 11
-111.600549
 21
213.24043
 31
0.0
  0
LINE
  8
0
  6
CONTINUOUS
 62
     7
  5
2FE
 10
-173.600549
 20
213.24043
 30
0.0
 11
-173.600549
 21
214.376907
 31
0.0
  0
LINE
  8
0
  6
CONTINUOUS
 62
     7
  5
2FF
 10
-117.600549
 20
206.200701
 30
0.0
 11
-117.600549
 21
205.74043
 31
0.0
  0
LINE
  8
0
  6
CONTINUOUS
 62
     7
  5
300
 10
-167.600549
 20
205.74043
 30
0.0
 11
-167.600549
 21
206.200701
 31
0.0
  0
LINE
  8
0
  6
CONTINUOUS
 62
     7
  5
301
 10
-114.600549
 20
93.42505
 30
0.0
 11
-112.000549
 21
93.42505
 31
0.0
  0
LINE
  8
0
  6
CONTINUOUS
 62
     7
  5
302
 10
-114.600549
 20
98.732032
 30
0.0
 11
-117.600549
 21
98.732032
 31
0.0
  0
LINE
  8
0
  6
CONTINUOUS
 62
     7
  5
303
 10
-114.600549
 20
101.06557
 30
0.0
 11
-114.600549
 21
98.732032
 31
0.0
  0
LINE
  8
0
  6
CONTINUOUS
 62
     7
  5
304
 10
-112.000549
 20
101.943141
 30
0.0
 11
-114.600549
 21
101.943141
 31
0.0
  0
LINE
  8
0
  6
CONTINUOUS
 62
     7
  5
305
 10
-112.000549
 20
93.42505
 30
0.0
 11
-112.000549
 21
101.943141
 31
0.0
  0
LINE
  8
0
  6
CONTINUOUS
 62
     7
  5
306
 10
-114.600549
 20
91.198282
 30
0.0
 11
-114.600549
 21
93.42505
 31
0.0
  0
LINE
  8
0
  6
CONTINUOUS
 62
     7
  5
307
 10
-117.600549
 20
98.732032
 30
0.0
 11
-117.600549
 21
91.198282
 31
0.0
  0
LINE
  8
0
  6
CONTINUOUS
 62
     7
  5
308
 10
-170.600549
 20
101.943141
 30
0.0
 11
-173.200549
 21
101.943141
 31
0.0
  0
LINE
  8
0
  6
CONTINUOUS
 62
     7
  5
309
 10
-170.600549
 20
98.732032
 30
0.0
 11
-170.600549
 21
101.06557
 31
0.0
  0
LINE
  8
0
  6
CONTINUOUS
 62
     7
  5
30A
 10
-167.600549
 20
98.732032
 30
0.0
 11
-170.600549
 21
98.732032
 31
0.0
  0
LINE
  8
0
  6
CONTINUOUS
 62
     7
  5
30B
 10
-173.200549
 20
93.42505
 30
0.0
 11
-170.600549
 21
93.42505
 31
0.0
  0
LINE
  8
0
  6
CONTINUOUS
 62
     7
  5
30C
 10
-173.200549
 20
101.943141
 30
0.0
 11
-173.200549
 21
93.42505
 31
0.0
  0
LINE
  8
0
  6
CONTINUOUS
 62
     7
  5
30D
 10
-167.600549
 20
91.198282
 30
0.0
 11
-167.600549
 21
98.732032
 31
0.0
  0
LINE
  8
0
  6
CONTINUOUS
 62
     7
  5
30E
 10
-170.600549
 20
93.42505
 30
0.0
 11
-170.600549
 21
91.198282
 31
0.0
  0
LINE
  8
0
  6
CONTINUOUS
 62
     7
  5
30F
 10
-112.000549
 20
91.198282
 30
0.0
 11
-112.000549
 21
93.42505
 31
0.0
  0
LINE
  8
0
  6
CONTINUOUS
 62
     7
  5
310
 10
-173.200549
 20
93.42505
 30
0.0
 11
-173.200549
 21
91.198282
 31
0.0
  0
LINE
  8
0
  6
CONTINUOUS
 62
     7
  5
311
 10
-141.600549
 20
96.955303
 30
0.0
 11
-117.600549
 21
96.955303
 31
0.0
  0
LINE
  8
0
  6
CONTINUOUS
 62
     7
  5
312
 10
-117.600549
 20
94.64792
 30
0.0
 11
-141.600549
 21
94.64792
 31
0.0
  0
LINE
  8
0
  6
CONTINUOUS
 62
     7
  5
313
 10
-141.600549
 20
96.955303
 30
0.0
 11
-141.600549
 21
94.64792
 31
0.0
  0
LINE
  8
0
  6
CONTINUOUS
 62
     7
  5
314
 10
-141.600549
 20
93.909441
 30
0.0
 11
-117.600549
 21
93.909441
 31
0.0
  0
LINE
  8
0
  6
CONTINUOUS
 62
     7
  5
315
 10
-141.600549
 20
94.64792
 30
0.0
 11
-141.600549
 21
93.909441
 31
0.0
  0
LINE
  8
0
  6
CONTINUOUS
 62
     7
  5
316
 10
-146.600549
 20
94.64792
 30
0.0
 11
-146.600549
 21
96.955303
 31
0.0
  0
LINE
  8
0
  6
CONTINUOUS
 62
     7
  5
317
 10
-167.600549
 20
94.64792
 30
0.0
 11
-146.600549
 21
94.64792
 31
0.0
  0
LINE
  8
0
  6
CONTINUOUS
 62
     7
  5
318
 10
-146.600549
 20
96.955303
 30
0.0
 11
-167.600549
 21
96.955303
 31
0.0
  0
LINE
  8
0
  6
CONTINUOUS
 62
     7
  5
319
 10
-142.600549
 20
92.516115
 30
0.0
 11
-142.600549
 21
94.823499
 31
0.0
  0
LINE
  8
0
  6
CONTINUOUS
 62
     7
  5
31A
 10
-146.600549
 20
94.64792
 30
0.0
 11
-142.600549
 21
92.516115
 31
0.0
  0
LINE
  8
0
  6
CONTINUOUS
 62
     7
  5
31B
 10
-142.600549
 20
94.823499
 30
0.0
 11
-146.600549
 21
96.955303
 31
0.0
  0
LINE
  8
0
  6
CONTINUOUS
 62
     7
  5
31C
 10
-142.600549
 20
92.516115
 30
0.0
 11
-139.600549
 21
92.516115
 31
0.0
  0
LINE
  8
0
  6
CONTINUOUS
 62
     7
  5
31D
 10
-139.600549
 20
92.516115
 30
0.0
 11
-139.600549
 21
91.777637
 31
0.0
  0
LINE
  8
0
  6
CONTINUOUS
 62
     7
  5
31E
 10
-139.600549
 20
91.777637
 30
0.0
 11
-142.814908
 21
91.777637
 31
0.0
  0
LINE
  8
0
  6
CONTINUOUS
 62
     7
  5
31F
 10
-142.814908
 20
91.777637
 30
0.0
 11
-146.814908
 21
93.909441
 31
0.0
  0
LINE
  8
0
  6
CONTINUOUS
 62
     7
  5
320
 10
-146.814908
 20
93.909441
 30
0.0
 11
-167.600549
 21
93.909441
 31
0.0
  0
LINE
  8
0
  6
CONTINUOUS
 62
     7
  5
321
 10
-141.600549
 20
94.823499
 30
0.0
 11
-142.600549
 21
94.823499
 31
0.0
  0
LINE
  8
0
  6
CONTINUOUS
 62
     7
  5
322
 10
-139.600549
 20
92.516115
 30
0.0
 11
-139.600549
 21
93.909441
 31
0.0
  0
LINE
  8
0
  6
CONTINUOUS
 62
     7
  5
323
 10
-167.600549
 20
73.363021
 30
0.0
 11
-117.600549
 21
73.363021
 31
0.0
  0
LINE
  8
0
  6
CONTINUOUS
 62
     7
  5
324
 10
-117.600549
 20
78.265571
 30
0.0
 11
-167.600549
 21
78.265571
 31
0.0
  0
LINE
  8
0
  6
CONTINUOUS
 62
     7
  5
325
 10
-167.600549
 20
70.224487
 30
0.0
 11
-161.600549
 21
70.224487
 31
0.0
  0
LINE
  8
0
  6
CONTINUOUS
 62
     7
  5
326
 10
-123.600549
 20
70.224487
 30
0.0
 11
-117.600549
 21
70.224487
 31
0.0
  0
LINE
  8
0
  6
CONTINUOUS
 62
     7
  5
327
 10
-112.000549
 20
102.557429
 30
0.0
 11
-111.600549
 21
102.557429
 31
0.0
  0
LINE
  8
0
  6
CONTINUOUS
 62
     7
  5
328
 10
-112.000549
 20
101.943141
 30
0.0
 11
-112.000549
 21
102.627482
 31
0.0
  0
LINE
  8
0
  6
CONTINUOUS
 62
     7
  5
329
 10
-173.200549
 20
102.627482
 30
0.0
 11
-173.200549
 21
101.943141
 31
0.0
  0
LINE
  8
0
  6
CONTINUOUS
 62
     7
  5
32A
 10
-173.600549
 20
102.557429
 30
0.0
 11
-173.200549
 21
102.557429
 31
0.0
  0
LINE
  8
0
  6
CONTINUOUS
 62
     7
  5
32B
 10
-111.600549
 20
102.557429
 30
0.0
 11
-111.600549
 21
95.127482
 31
0.0
  0
LINE
  8
0
  6
CONTINUOUS
 62
     7
  5
32C
 10
-173.600549
 20
95.127482
 30
0.0
 11
-173.600549
 21
102.557429
 31
0.0
  0
LINE
  8
0
  6
CONTINUOUS
 62
     7
  5
32D
 10
-117.600549
 20
90.898282
 30
0.0
 11
-117.600549
 21
80.38698
 31
0.0
  0
LINE
  8
0
  6
CONTINUOUS
 62
     7
  5
32E
 10
-114.600549
 20
90.898282
 30
0.0
 11
-117.600549
 21
90.898282
 31
0.0
  0
LINE
  8
0
  6
CONTINUOUS
 62
     7
  5
32F
 10
-114.600549
 20
80.423748
 30
0.0
 11
-114.600549
 21
90.898282
 31
0.0
  0
LINE
  8
0
  6
CONTINUOUS
 62
     7
  5
330
 10
-167.600549
 20
90.898282
 30
0.0
 11
-170.600549
 21
90.898282
 31
0.0
  0
LINE
  8
0
  6
CONTINUOUS
 62
     7
  5
331
 10
-167.600549
 20
80.38698
 30
0.0
 11
-167.600549
 21
90.898282
 31
0.0
  0
LINE
  8
0
  6
CONTINUOUS
 62
     7
  5
332
 10
-170.600549
 20
90.898282
 30
0.0
 11
-170.600549
 21
80.423748
 31
0.0
  0
LINE
  8
0
  6
CONTINUOUS
 62
     7
  5
333
 10
-114.600549
 20
91.198282
 30
0.0
 11
-117.600549
 21
91.198282
 31
0.0
  0
LINE
  8
0
  6
CONTINUOUS
 62
     7
  5
334
 10
-117.600549
 20
91.198282
 30
0.0
 11
-117.600549
 21
90.898282
 31
0.0
  0
LINE
  8
0
  6
CONTINUOUS
 62
     7
  5
335
 10
-114.600549
 20
90.898282
 30
0.0
 11
-114.600549
 21
91.198282
 31
0.0
  0
LINE
  8
0
  6
CONTINUOUS
 62
     7
  5
336
 10
-167.600549
 20
65.598282
 30
0.0
 11
-170.600549
 21
65.598282
 31
0.0
  0
LINE
  8
0
  6
CONTINUOUS
 62
     7
  5
337
 10
-170.600549
 20
65.898282
 30
0.0
 11
-170.600549
 21
65.598282
 31
0.0
  0
LINE
  8
0
  6
CONTINUOUS
 62
     7
  5
338
 10
-167.600549
 20
65.598282
 30
0.0
 11
-167.600549
 21
65.898282
 31
0.0
  0
LINE
  8
0
  6
CONTINUOUS
 62
     7
  5
339
 10
-167.600549
 20
91.198282
 30
0.0
 11
-170.600549
 21
91.198282
 31
0.0
  0
LINE
  8
0
  6
CONTINUOUS
 62
     7
  5
33A
 10
-170.600549
 20
91.198282
 30
0.0
 11
-170.600549
 21
90.898282
 31
0.0
  0
LINE
  8
0
  6
CONTINUOUS
 62
     7
  5
33B
 10
-167.600549
 20
90.898282
 30
0.0
 11
-167.600549
 21
91.198282
 31
0.0
  0
LINE
  8
0
  6
CONTINUOUS
 62
     7
  5
33C
 10
-112.000549
 20
90.898282
 30
0.0
 11
-112.000549
 21
91.198282
 31
0.0
  0
LINE
  8
0
  6
CONTINUOUS
 62
     7
  5
33D
 10
-114.600549
 20
91.198282
 30
0.0
 11
-112.000549
 21
91.198282
 31
0.0
  0
LINE
  8
0
  6
CONTINUOUS
 62
     7
  5
33E
 10
-173.200549
 20
91.198282
 30
0.0
 11
-173.200549
 21
90.898282
 31
0.0
  0
LINE
  8
0
  6
CONTINUOUS
 62
     7
  5
33F
 10
-173.200549
 20
91.198282
 30
0.0
 11
-170.600549
 21
91.198282
 31
0.0
  0
LINE
  8
0
  6
CONTINUOUS
 62
     7
  5
340
 10
-173.200549
 20
65.898282
 30
0.0
 11
-173.200549
 21
65.598282
 31
0.0
  0
LINE
  8
0
  6
CONTINUOUS
 62
     7
  5
341
 10
-170.600549
 20
65.598282
 30
0.0
 11
-173.200549
 21
65.598282
 31
0.0
  0
LINE
  8
0
  6
CONTINUOUS
 62
     7
  5
342
 10
-167.600549
 20
69.298282
 30
0.0
 11
-161.600549
 21
69.298282
 31
0.0
  0
LINE
  8
0
  6
CONTINUOUS
 62
     7
  5
343
 10
-123.600549
 20
69.298282
 30
0.0
 11
-117.600549
 21
69.298282
 31
0.0
  0
LINE
  8
0
  6
CONTINUOUS
 62
     7
  5
344
 10
-141.600549
 20
90.898282
 30
0.0
 11
-141.600549
 21
90.098282
 31
0.0
  0
LINE
  8
0
  6
CONTINUOUS
 62
     7
  5
345
 10
-117.600549
 20
90.898282
 30
0.0
 11
-141.600549
 21
90.898282
 31
0.0
  0
LINE
  8
0
  6
CONTINUOUS
 62
     7
  5
346
 10
-141.600549
 20
90.098282
 30
0.0
 11
-117.600549
 21
90.098282
 31
0.0
  0
LINE
  8
0
  6
CONTINUOUS
 62
     7
  5
347
 10
-146.600549
 20
90.898282
 30
0.0
 11
-142.600549
 21
88.588881
 31
0.0
  0
LINE
  8
0
  6
CONTINUOUS
 62
     7
  5
348
 10
-139.600549
 20
88.588881
 30
0.0
 11
-139.600549
 21
87.788881
 31
0.0
  0
LINE
  8
0
  6
CONTINUOUS
 62
     7
  5
349
 10
-142.814908
 20
87.788881
 30
0.0
 11
-146.814908
 21
90.098282
 31
0.0
  0
LINE
  8
0
  6
CONTINUOUS
 62
     7
  5
34A
 10
-146.814908
 20
90.098282
 30
0.0
 11
-167.600549
 21
90.098282
 31
0.0
  0
LINE
  8
0
  6
CONTINUOUS
 62
     7
  5
34B
 10
-167.600549
 20
90.898282
 30
0.0
 11
-146.600549
 21
90.898282
 31
0.0
  0
LINE
  8
0
  6
CONTINUOUS
 62
     7
  5
34C
 10
-139.600549
 20
87.788881
 30
0.0
 11
-142.814908
 21
87.788881
 31
0.0
  0
LINE
  8
0
  6
CONTINUOUS
 62
     7
  5
34D
 10
-142.600549
 20
88.588881
 30
0.0
 11
-139.600549
 21
88.588881
 31
0.0
  0
LINE
  8
0
  6
CONTINUOUS
 62
     7
  5
34E
 10
-129.600549
 20
234.898282
 30
0.0
 11
-129.600549
 21
238.898282
 31
0.0
  0
LINE
  8
0
  6
CONTINUOUS
 62
     7
  5
34F
 10
-123.600549
 20
238.898282
 30
0.0
 11
-123.600549
 21
234.898282
 31
0.0
  0
LINE
  8
0
  6
CONTINUOUS
 62
     7
  5
350
 10
-129.600549
 20
234.898282
 30
0.0
 11
-123.600549
 21
234.898282
 31
0.0
  0
LINE
  8
0
  6
CONTINUOUS
 62
     7
  5
351
 10
-129.600549
 20
238.898282
 30
0.0
 11
-123.600549
 21
238.898282
 31
0.0
  0
LINE
  8
0
  6
CONTINUOUS
 62
     7
  5
352
 10
-137.600549
 20
234.898282
 30
0.0
 11
-137.600549
 21
238.898282
 31
0.0
  0
LINE
  8
0
  6
CONTINUOUS
 62
     7
  5
353
 10
-131.600549
 20
238.898282
 30
0.0
 11
-131.600549
 21
234.898282
 31
0.0
  0
LINE
  8
0
  6
CONTINUOUS
 62
     7
  5
354
 10
-137.600549
 20
234.898282
 30
0.0
 11
-131.600549
 21
234.898282
 31
0.0
  0
LINE
  8
0
  6
CONTINUOUS
 62
     7
  5
355
 10
-137.600549
 20
238.898282
 30
0.0
 11
-131.600549
 21
238.898282
 31
0.0
  0
LINE
  8
0
  6
CONTINUOUS
 62
     7
  5
356
 10
-145.600549
 20
234.898282
 30
0.0
 11
-145.600549
 21
238.898282
 31
0.0
  0
LINE
  8
0
  6
CONTINUOUS
 62
     7
  5
357
 10
-139.600549
 20
238.898282
 30
0.0
 11
-139.600549
 21
234.898282
 31
0.0
  0
LINE
  8
0
  6
CONTINUOUS
 62
     7
  5
358
 10
-145.600549
 20
234.898282
 30
0.0
 11
-139.600549
 21
234.898282
 31
0.0
  0
LINE
  8
0
  6
CONTINUOUS
 62
     7
  5
359
 10
-145.600549
 20
238.898282
 30
0.0
 11
-139.600549
 21
238.898282
 31
0.0
  0
LINE
  8
0
  6
CONTINUOUS
 62
     7
  5
35A
 10
-153.600549
 20
234.898282
 30
0.0
 11
-153.600549
 21
238.898282
 31
0.0
  0
LINE
  8
0
  6
CONTINUOUS
 62
     7
  5
35B
 10
-147.600549
 20
238.898282
 30
0.0
 11
-147.600549
 21
234.898282
 31
0.0
  0
LINE
  8
0
  6
CONTINUOUS
 62
     7
  5
35C
 10
-153.600549
 20
234.898282
 30
0.0
 11
-147.600549
 21
234.898282
 31
0.0
  0
LINE
  8
0
  6
CONTINUOUS
 62
     7
  5
35D
 10
-153.600549
 20
238.898282
 30
0.0
 11
-147.600549
 21
238.898282
 31
0.0
  0
LINE
  8
0
  6
CONTINUOUS
 62
     7
  5
35E
 10
-161.600549
 20
234.898282
 30
0.0
 11
-161.600549
 21
238.898282
 31
0.0
  0
LINE
  8
0
  6
CONTINUOUS
 62
     7
  5
35F
 10
-155.600549
 20
238.898282
 30
0.0
 11
-155.600549
 21
234.898282
 31
0.0
  0
LINE
  8
0
  6
CONTINUOUS
 62
     7
  5
360
 10
-161.600549
 20
234.898282
 30
0.0
 11
-155.600549
 21
234.898282
 31
0.0
  0
LINE
  8
0
  6
CONTINUOUS
 62
     7
  5
361
 10
-161.600549
 20
238.898282
 30
0.0
 11
-155.600549
 21
238.898282
 31
0.0
  0
LINE
  8
0
  6
CONTINUOUS
 62
     7
  5
362
 10
-131.600549
 20
234.898282
 30
0.0
 11
-129.600549
 21
234.898282
 31
0.0
  0
LINE
  8
0
  6
CONTINUOUS
 62
     7
  5
363
 10
-129.600549
 20
238.898282
 30
0.0
 11
-131.600549
 21
238.898282
 31
0.0
  0
LINE
  8
0
  6
CONTINUOUS
 62
     7
  5
364
 10
-139.600549
 20
234.898282
 30
0.0
 11
-137.600549
 21
234.898282
 31
0.0
  0
LINE
  8
0
  6
CONTINUOUS
 62
     7
  5
365
 10
-137.600549
 20
238.898282
 30
0.0
 11
-139.600549
 21
238.898282
 31
0.0
  0
LINE
  8
0
  6
CONTINUOUS
 62
     7
  5
366
 10
-147.600549
 20
234.898282
 30
0.0
 11
-145.600549
 21
234.898282
 31
0.0
  0
LINE
  8
0
  6
CONTINUOUS
 62
     7
  5
367
 10
-145.600549
 20
238.898282
 30
0.0
 11
-147.600549
 21
238.898282
 31
0.0
  0
LINE
  8
0
  6
CONTINUOUS
 62
     7
  5
368
 10
-155.600549
 20
234.898282
 30
0.0
 11
-153.600549
 21
234.898282
 31
0.0
  0
LINE
  8
0
  6
CONTINUOUS
 62
     7
  5
369
 10
-153.600549
 20
238.898282
 30
0.0
 11
-155.600549
 21
238.898282
 31
0.0
  0
LINE
  8
0
  6
CONTINUOUS
 62
     7
  5
36A
 10
-161.600549
 20
240.898282
 30
0.0
 11
-123.600549
 21
240.898282
 31
0.0
  0
LINE
  8
0
  6
CONTINUOUS
 62
     7
  5
36B
 10
-161.600549
 20
238.898282
 30
0.0
 11
-161.600549
 21
240.898282
 31
0.0
  0
LINE
  8
0
  6
CONTINUOUS
 62
     7
  5
36C
 10
-123.600549
 20
240.898282
 30
0.0
 11
-123.600549
 21
238.898282
 31
0.0
  0
LINE
  8
0
  6
CONTINUOUS
 62
     7
  5
36D
 10
-123.600549
 20
237.898282
 30
0.0
 11
-117.600549
 21
237.898282
 31
0.0
  0
LINE
  8
0
  6
CONTINUOUS
 62
     7
  5
36E
 10
-111.600549
 20
240.898282
 30
0.0
 11
-111.600549
 21
230.898282
 31
0.0
  0
LINE
  8
0
  6
CONTINUOUS
 62
     7
  5
36F
 10
-117.600549
 20
230.898282
 30
0.0
 11
-111.600549
 21
230.898282
 31
0.0
  0
LINE
  8
0
  6
CONTINUOUS
 62
     7
  5
370
 10
-117.600549
 20
230.898282
 30
0.0
 11
-117.600549
 21
237.898282
 31
0.0
  0
LINE
  8
0
  6
CONTINUOUS
 62
     7
  5
371
 10
-123.600549
 20
240.898282
 30
0.0
 11
-111.600549
 21
240.898282
 31
0.0
  0
LINE
  8
0
  6
CONTINUOUS
 62
     7
  5
372
 10
-114.600549
 20
226.372816
 30
0.0
 11
-114.605549
 21
226.372816
 31
0.0
  0
LINE
  8
0
  6
CONTINUOUS
 62
     7
  5
373
 10
-114.605549
 20
226.372816
 30
0.0
 11
-117.600549
 21
226.372816
 31
0.0
  0
LINE
  8
0
  6
CONTINUOUS
 62
     7
  5
374
 10
-117.600549
 20
226.372816
 30
0.0
 11
-117.600549
 21
230.898282
 31
0.0
  0
LINE
  8
0
  6
CONTINUOUS
 62
     7
  5
375
 10
-111.600549
 20
230.898282
 30
0.0
 11
-111.600549
 21
226.409584
 31
0.0
  0
LINE
  8
0
  6
CONTINUOUS
 62
     7
  5
376
 10
-111.600549
 20
226.409584
 30
0.0
 11
-114.600549
 21
226.409584
 31
0.0
  0
LINE
  8
0
  6
CONTINUOUS
 62
     7
  5
377
 10
-114.600549
 20
226.409584
 30
0.0
 11
-114.600549
 21
226.372816
 31
0.0
  0
LINE
  8
0
  6
CONTINUOUS
 62
     7
  5
378
 10
-173.600549
 20
230.898282
 30
0.0
 11
-167.600549
 21
230.898282
 31
0.0
  0
LINE
  8
0
  6
CONTINUOUS
 62
     7
  5
379
 10
-173.600549
 20
240.898282
 30
0.0
 11
-173.600549
 21
230.898282
 31
0.0
  0
LINE
  8
0
  6
CONTINUOUS
 62
     7
  5
37A
 10
-167.600549
 20
237.898282
 30
0.0
 11
-167.600549
 21
230.898282
 31
0.0
  0
LINE
  8
0
  6
CONTINUOUS
 62
     7
  5
37B
 10
-167.600549
 20
237.898282
 30
0.0
 11
-161.600549
 21
237.898282
 31
0.0
  0
LINE
  8
0
  6
CONTINUOUS
 62
     7
  5
37C
 10
-173.600549
 20
240.898282
 30
0.0
 11
-161.600549
 21
240.898282
 31
0.0
  0
LINE
  8
0
  6
CONTINUOUS
 62
     7
  5
37D
 10
-170.600549
 20
226.409584
 30
0.0
 11
-173.600549
 21
226.409584
 31
0.0
  0
LINE
  8
0
  6
CONTINUOUS
 62
     7
  5
37E
 10
-173.600549
 20
230.898282
 30
0.0
 11
-173.600549
 21
226.409584
 31
0.0
  0
LINE
  8
0
  6
CONTINUOUS
 62
     7
  5
37F
 10
-167.600549
 20
230.898282
 30
0.0
 11
-167.600549
 21
226.372816
 31
0.0
  0
LINE
  8
0
  6
CONTINUOUS
 62
     7
  5
380
 10
-167.600549
 20
226.372816
 30
0.0
 11
-170.595549
 21
226.372816
 31
0.0
  0
LINE
  8
0
  6
CONTINUOUS
 62
     7
  5
381
 10
-170.595549
 20
226.372816
 30
0.0
 11
-170.600549
 21
226.372816
 31
0.0
  0
LINE
  8
0
  6
CONTINUOUS
 62
     7
  5
382
 10
-170.600549
 20
226.372816
 30
0.0
 11
-170.600549
 21
226.409584
 31
0.0
  0
LINE
  8
0
  6
CONTINUOUS
 62
     7
  5
383
 10
-172.600549
 20
246.898282
 30
0.0
 11
-172.600549
 21
240.898282
 31
0.0
  0
LINE
  8
0
  6
CONTINUOUS
 62
     7
  5
384
 10
-82.600549
 20
246.898282
 30
0.0
 11
-172.600549
 21
246.898282
 31
0.0
  0
LINE
  8
0
  6
CONTINUOUS
 62
     7
  5
385
 10
-82.600549
 20
246.898282
 30
0.0
 11
-82.600549
 21
156.898282
 31
0.0
  0
LINE
  8
0
  6
CONTINUOUS
 62
     7
  5
386
 10
-107.600549
 20
156.898282
 30
0.0
 11
-82.600549
 21
156.898282
 31
0.0
  0
LINE
  8
0
  6
CONTINUOUS
 62
     7
  5
387
 10
-107.600549
 20
240.898282
 30
0.0
 11
-107.600549
 21
156.898282
 31
0.0
  0
LINE
  8
0
  6
CONTINUOUS
 62
     7
  5
388
 10
-107.600549
 20
240.898282
 30
0.0
 11
-111.600549
 21
240.898282
 31
0.0
  0
LINE
  8
0
  6
CONTINUOUS
 62
     7
  5
389
 10
-96.600549
 20
252.898282
 30
0.0
 11
-106.600549
 21
252.898282
 31
0.0
  0
LINE
  8
0
  6
CONTINUOUS
 62
     7
  5
38A
 10
-83.600549
 20
252.898282
 30
0.0
 11
-93.600549
 21
252.898282
 31
0.0
  0
LINE
  8
0
  6
CONTINUOUS
 62
     7
  5
38B
 10
-104.600549
 20
149.398282
 30
0.0
 11
-98.600549
 21
149.398282
 31
0.0
  0
LINE
  8
0
  6
CONTINUOUS
 62
     7
  5
38C
 10
-91.600549
 20
149.398282
 30
0.0
 11
-85.600549
 21
149.398282
 31
0.0
  0
LINE
  8
0
  6
CONTINUOUS
 62
     7
  5
38D
 10
-99.100549
 20
148.898282
 30
0.0
 11
-104.100549
 21
148.898282
 31
0.0
  0
LINE
  8
0
  6
CONTINUOUS
 62
     7
  5
38E
 10
-86.100549
 20
148.898282
 30
0.0
 11
-91.100549
 21
148.898282
 31
0.0
  0
LINE
  8
0
  6
CONTINUOUS
 62
     7
  5
38F
 10
-117.600549
 20
215.898282
 30
0.0
 11
-117.600549
 21
226.372816
 31
0.0
  0
LINE
  8
0
  6
CONTINUOUS
 62
     7
  5
390
 10
-114.600549
 20
226.372816
 30
0.0
 11
-114.600549
 21
216.412979
 31
0.0
  0
LINE
  8
0
  6
CONTINUOUS
 62
     7
  5
391
 10
-114.600549
 20
216.412979
 30
0.0
 11
-114.600549
 21
215.898282
 31
0.0
  0
LINE
  8
0
  6
CONTINUOUS
 62
     7
  5
392
 10
-170.600549
 20
215.898282
 30
0.0
 11
-170.600549
 21
216.412979
 31
0.0
  0
LINE
  8
0
  6
CONTINUOUS
 62
     7
  5
393
 10
-170.600549
 20
216.412979
 30
0.0
 11
-170.600549
 21
226.372816
 31
0.0
  0
LINE
  8
0
  6
CONTINUOUS
 62
     7
  5
394
 10
-167.600549
 20
226.372816
 30
0.0
 11
-167.600549
 21
215.898282
 31
0.0
  0
LINE
  8
0
  6
CONTINUOUS
 62
     7
  5
395
 10
-129.600549
 20
71.898282
 30
0.0
 11
-129.600549
 21
67.898282
 31
0.0
  0
LINE
  8
0
  6
CONTINUOUS
 62
     7
  5
396
 10
-123.600549
 20
67.898282
 30
0.0
 11
-123.600549
 21
71.898282
 31
0.0
  0
LINE
  8
0
  6
CONTINUOUS
 62
     7
  5
397
 10
-129.600549
 20
71.898282
 30
0.0
 11
-123.600549
 21
71.898282
 31
0.0
  0
LINE
  8
0
  6
CONTINUOUS
 62
     7
  5
398
 10
-129.600549
 20
67.898282
 30
0.0
 11
-123.600549
 21
67.898282
 31
0.0
  0
LINE
  8
0
  6
CONTINUOUS
 62
     7
  5
399
 10
-137.600549
 20
71.898282
 30
0.0
 11
-137.600549
 21
67.898282
 31
0.0
  0
LINE
  8
0
  6
CONTINUOUS
 62
     7
  5
39A
 10
-131.600549
 20
67.898282
 30
0.0
 11
-131.600549
 21
71.898282
 31
0.0
  0
LINE
  8
0
  6
CONTINUOUS
 62
     7
  5
39B
 10
-137.600549
 20
71.898282
 30
0.0
 11
-131.600549
 21
71.898282
 31
0.0
  0
LINE
  8
0
  6
CONTINUOUS
 62
     7
  5
39C
 10
-137.600549
 20
67.898282
 30
0.0
 11
-131.600549
 21
67.898282
 31
0.0
  0
LINE
  8
0
  6
CONTINUOUS
 62
     7
  5
39D
 10
-145.600549
 20
71.898282
 30
0.0
 11
-145.600549
 21
67.898282
 31
0.0
  0
LINE
  8
0
  6
CONTINUOUS
 62
     7
  5
39E
 10
-139.600549
 20
67.898282
 30
0.0
 11
-139.600549
 21
71.898282
 31
0.0
  0
LINE
  8
0
  6
CONTINUOUS
 62
     7
  5
39F
 10
-145.600549
 20
71.898282
 30
0.0
 11
-139.600549
 21
71.898282
 31
0.0
  0
LINE
  8
0
  6
CONTINUOUS
 62
     7
  5
3A0
 10
-145.600549
 20
67.898282
 30
0.0
 11
-139.600549
 21
67.898282
 31
0.0
  0
LINE
  8
0
  6
CONTINUOUS
 62
     7
  5
3A1
 10
-153.600549
 20
71.898282
 30
0.0
 11
-153.600549
 21
67.898282
 31
0.0
  0
LINE
  8
0
  6
CONTINUOUS
 62
     7
  5
3A2
 10
-147.600549
 20
67.898282
 30
0.0
 11
-147.600549
 21
71.898282
 31
0.0
  0
LINE
  8
0
  6
CONTINUOUS
 62
     7
  5
3A3
 10
-153.600549
 20
71.898282
 30
0.0
 11
-147.600549
 21
71.898282
 31
0.0
  0
LINE
  8
0
  6
CONTINUOUS
 62
     7
  5
3A4
 10
-153.600549
 20
67.898282
 30
0.0
 11
-147.600549
 21
67.898282
 31
0.0
  0
LINE
  8
0
  6
CONTINUOUS
 62
     7
  5
3A5
 10
-161.600549
 20
71.898282
 30
0.0
 11
-161.600549
 21
67.898282
 31
0.0
  0
LINE
  8
0
  6
CONTINUOUS
 62
     7
  5
3A6
 10
-155.600549
 20
67.898282
 30
0.0
 11
-155.600549
 21
71.898282
 31
0.0
  0
LINE
  8
0
  6
CONTINUOUS
 62
     7
  5
3A7
 10
-161.600549
 20
71.898282
 30
0.0
 11
-155.600549
 21
71.898282
 31
0.0
  0
LINE
  8
0
  6
CONTINUOUS
 62
     7
  5
3A8
 10
-161.600549
 20
67.898282
 30
0.0
 11
-155.600549
 21
67.898282
 31
0.0
  0
LINE
  8
0
  6
CONTINUOUS
 62
     7
  5
3A9
 10
-131.600549
 20
71.898282
 30
0.0
 11
-129.600549
 21
71.898282
 31
0.0
  0
LINE
  8
0
  6
CONTINUOUS
 62
     7
  5
3AA
 10
-129.600549
 20
67.898282
 30
0.0
 11
-131.600549
 21
67.898282
 31
0.0
  0
LINE
  8
0
  6
CONTINUOUS
 62
     7
  5
3AB
 10
-139.600549
 20
71.898282
 30
0.0
 11
-137.600549
 21
71.898282
 31
0.0
  0
LINE
  8
0
  6
CONTINUOUS
 62
     7
  5
3AC
 10
-137.600549
 20
67.898282
 30
0.0
 11
-139.600549
 21
67.898282
 31
0.0
  0
LINE
  8
0
  6
CONTINUOUS
 62
     7
  5
3AD
 10
-147.600549
 20
71.898282
 30
0.0
 11
-145.600549
 21
71.898282
 31
0.0
  0
LINE
  8
0
  6
CONTINUOUS
 62
     7
  5
3AE
 10
-145.600549
 20
67.898282
 30
0.0
 11
-147.600549
 21
67.898282
 31
0.0
  0
LINE
  8
0
  6
CONTINUOUS
 62
     7
  5
3AF
 10
-155.600549
 20
71.898282
 30
0.0
 11
-153.600549
 21
71.898282
 31
0.0
  0
LINE
  8
0
  6
CONTINUOUS
 62
     7
  5
3B0
 10
-153.600549
 20
67.898282
 30
0.0
 11
-155.600549
 21
67.898282
 31
0.0
  0
LINE
  8
0
  6
CONTINUOUS
 62
     7
  5
3B1
 10
-157.600549
 20
65.898282
 30
0.0
 11
-157.600549
 21
62.898282
 31
0.0
  0
LINE
  8
0
  6
CONTINUOUS
 62
     7
  5
3B2
 10
-162.600549
 20
62.898282
 30
0.0
 11
-162.600549
 21
65.898282
 31
0.0
  0
LINE
  8
0
  6
CONTINUOUS
 62
     7
  5
3B3
 10
-157.600549
 20
62.898282
 30
0.0
 11
-162.600549
 21
62.898282
 31
0.0
  0
LINE
  8
0
  6
CONTINUOUS
 62
     7
  5
3B4
 10
-105.600549
 20
92.898282
 30
0.0
 11
-105.600549
 21
65.898282
 31
0.0
  0
LINE
  8
0
  6
CONTINUOUS
 62
     7
  5
3B5
 10
-102.600549
 20
92.898282
 30
0.0
 11
-105.600549
 21
92.898282
 31
0.0
  0
LINE
  8
0
  6
CONTINUOUS
 62
     7
  5
3B6
 10
-102.600549
 20
62.898282
 30
0.0
 11
-102.600549
 21
92.898282
 31
0.0
  0
LINE
  8
0
  6
CONTINUOUS
 62
     7
  5
3B7
 10
-161.600549
 20
65.898282
 30
0.0
 11
-157.600549
 21
65.898282
 31
0.0
  0
LINE
  8
0
  6
CONTINUOUS
 62
     7
  5
3B8
 10
-105.600549
 20
65.898282
 30
0.0
 11
-123.600549
 21
65.898282
 31
0.0
  0
LINE
  8
0
  6
CONTINUOUS
 62
     7
  5
3B9
 10
-157.600549
 20
62.898282
 30
0.0
 11
-102.600549
 21
62.898282
 31
0.0
  0
LINE
  8
0
  6
CONTINUOUS
 62
     7
  5
3BA
 10
-161.600549
 20
67.898282
 30
0.0
 11
-161.600549
 21
65.898282
 31
0.0
  0
LINE
  8
0
  6
CONTINUOUS
 62
     7
  5
3BB
 10
-123.600549
 20
65.898282
 30
0.0
 11
-123.600549
 21
67.898282
 31
0.0
  0
LINE
  8
0
  6
CONTINUOUS
 62
     7
  5
3BC
 10
-91.800549
 20
89.898282
 30
0.0
 11
-97.800549
 21
89.898282
 31
0.0
  0
LINE
  8
0
  6
CONTINUOUS
 62
     7
  5
3BD
 10
-91.800549
 20
75.898282
 30
0.0
 11
-91.800549
 21
89.898282
 31
0.0
  0
LINE
  8
0
  6
CONTINUOUS
 62
     7
  5
3BE
 10
-91.800549
 20
75.898282
 30
0.0
 11
-97.800549
 21
75.898282
 31
0.0
  0
LINE
  8
0
  6
CONTINUOUS
 62
     7
  5
3BF
 10
-97.800549
 20
75.898282
 30
0.0
 11
-97.800549
 21
89.898282
 31
0.0
  0
LINE
  8
0
  6
CONTINUOUS
 62
     7
  5
3C0
 10
-117.600549
 20
75.898282
 30
0.0
 11
-111.600549
 21
75.898282
 31
0.0
  0
LINE
  8
0
  6
CONTINUOUS
 62
     7
  5
3C1
 10
-111.600549
 20
65.898282
 30
0.0
 11
-111.600549
 21
75.898282
 31
0.0
  0
LINE
  8
0
  6
CONTINUOUS
 62
     7
  5
3C2
 10
-123.600549
 20
68.898282
 30
0.0
 11
-117.600549
 21
68.898282
 31
0.0
  0
LINE
  8
0
  6
CONTINUOUS
 62
     7
  5
3C3
 10
-117.600549
 20
75.898282
 30
0.0
 11
-117.600549
 21
68.898282
 31
0.0
  0
LINE
  8
0
  6
CONTINUOUS
 62
     7
  5
3C4
 10
-111.600549
 20
80.423748
 30
0.0
 11
-114.600549
 21
80.423748
 31
0.0
  0
LINE
  8
0
  6
CONTINUOUS
 62
     7
  5
3C5
 10
-117.600549
 20
80.38698
 30
0.0
 11
-117.600549
 21
75.898282
 31
0.0
  0
LINE
  8
0
  6
CONTINUOUS
 62
     7
  5
3C6
 10
-114.600549
 20
80.38698
 30
0.0
 11
-117.600549
 21
80.38698
 31
0.0
  0
LINE
  8
0
  6
CONTINUOUS
 62
     7
  5
3C7
 10
-114.600549
 20
80.423748
 30
0.0
 11
-114.600549
 21
80.38698
 31
0.0
  0
LINE
  8
0
  6
CONTINUOUS
 62
     7
  5
3C8
 10
-111.600549
 20
75.898282
 30
0.0
 11
-111.600549
 21
80.423748
 31
0.0
  0
LINE
  8
0
  6
CONTINUOUS
 62
     7
  5
3C9
 10
-173.600549
 20
65.898282
 30
0.0
 11
-173.600549
 21
75.898282
 31
0.0
  0
LINE
  8
0
  6
CONTINUOUS
 62
     7
  5
3CA
 10
-173.600549
 20
75.898282
 30
0.0
 11
-167.600549
 21
75.898282
 31
0.0
  0
LINE
  8
0
  6
CONTINUOUS
 62
     7
  5
3CB
 10
-167.600549
 20
68.898282
 30
0.0
 11
-167.600549
 21
75.898282
 31
0.0
  0
LINE
  8
0
  6
CONTINUOUS
 62
     7
  5
3CC
 10
-167.600549
 20
68.898282
 30
0.0
 11
-161.600549
 21
68.898282
 31
0.0
  0
LINE
  8
0
  6
CONTINUOUS
 62
     7
  5
3CD
 10
-173.600549
 20
65.898282
 30
0.0
 11
-161.600549
 21
65.898282
 31
0.0
  0
LINE
  8
0
  6
CONTINUOUS
 62
     7
  5
3CE
 10
-167.600549
 20
75.898282
 30
0.0
 11
-167.600549
 21
80.38698
 31
0.0
  0
LINE
  8
0
  6
CONTINUOUS
 62
     7
  5
3CF
 10
-173.600549
 20
75.898282
 30
0.0
 11
-173.600549
 21
80.423748
 31
0.0
  0
LINE
  8
0
  6
CONTINUOUS
 62
     7
  5
3D0
 10
-170.600549
 20
80.423748
 30
0.0
 11
-173.600549
 21
80.423748
 31
0.0
  0
LINE
  8
0
  6
CONTINUOUS
 62
     7
  5
3D1
 10
-170.600549
 20
80.38698
 30
0.0
 11
-170.600549
 21
80.423748
 31
0.0
  0
LINE
  8
0
  6
CONTINUOUS
 62
     7
  5
3D2
 10
-167.600549
 20
80.38698
 30
0.0
 11
-170.600549
 21
80.38698
 31
0.0
  0
LINE
  8
0
  6
CONTINUOUS
 62
     7
  5
3D3
 10
-109.600549
 20
77.124779
 30
0.0
 11
-105.600549
 21
77.124779
 31
0.0
  0
LINE
  8
0
  6
CONTINUOUS
 62
     7
  5
3D4
 10
-109.600549
 20
77.124779
 30
0.0
 11
-109.600549
 21
80.011531
 31
0.0
  0
LINE
  8
0
  6
CONTINUOUS
 62
     7
  5
3D5
 10
-109.600549
 20
80.011531
 30
0.0
 11
-105.600549
 21
80.011531
 31
0.0
  0
LINE
  8
0
  6
CONTINUOUS
 62
     7
  5
3D6
 10
-109.600549
 20
80.011531
 30
0.0
 11
-109.600549
 21
85.785033
 31
0.0
  0
LINE
  8
0
  6
CONTINUOUS
 62
     7
  5
3D7
 10
-109.600549
 20
85.785033
 30
0.0
 11
-105.600549
 21
85.785033
 31
0.0
  0
LINE
  8
0
  6
CONTINUOUS
 62
     7
  5
3D8
 10
-109.600549
 20
85.785033
 30
0.0
 11
-109.600549
 21
88.671785
 31
0.0
  0
LINE
  8
0
  6
CONTINUOUS
 62
     7
  5
3D9
 10
-109.600549
 20
88.671785
 30
0.0
 11
-105.600549
 21
88.671785
 31
0.0
  0
LINE
  8
0
  6
CONTINUOUS
 62
     7
  5
3DA
 10
-111.600549
 20
90.898282
 30
0.0
 11
-111.600549
 21
80.423748
 31
0.0
  0
LINE
  8
0
  6
CONTINUOUS
 62
     7
  5
3DB
 10
-114.600549
 20
90.898282
 30
0.0
 11
-114.600549
 21
80.423748
 31
0.0
  0
LINE
  8
0
  6
CONTINUOUS
 62
     7
  5
3DC
 10
-170.600549
 20
80.423748
 30
0.0
 11
-170.600549
 21
90.898282
 31
0.0
  0
LINE
  8
0
  6
CONTINUOUS
 62
     7
  5
3DD
 10
-173.600549
 20
80.423748
 30
0.0
 11
-173.600549
 21
90.898282
 31
0.0
  0
LINE
  8
0
  6
CONTINUOUS
 62
     7
  5
3DE
 10
-111.600549
 20
95.127482
 30
0.0
 11
-112.000549
 21
95.127482
 31
0.0
  0
LINE
  8
0
  6
CONTINUOUS
 62
     7
  5
3DF
 10
-173.200549
 20
95.127482
 30
0.0
 11
-173.600549
 21
95.127482
 31
0.0
  0
LINE
  8
0
  6
CONTINUOUS
 62
     7
  5
3E0
 10
-111.600549
 20
123.3636
 30
0.0
 11
-112.000549
 21
123.3636
 31
0.0
  0
LINE
  8
0
  6
CONTINUOUS
 62
     7
  5
3E1
 10
-173.200549
 20
123.3636
 30
0.0
 11
-173.600549
 21
123.3636
 31
0.0
  0
LINE
  8
0
  6
CONTINUOUS
 62
     7
  5
3E2
 10
-111.600549
 20
115.8636
 30
0.0
 11
-112.000549
 21
115.8636
 31
0.0
  0
LINE
  8
0
  6
CONTINUOUS
 62
     7
  5
3E3
 10
-173.200549
 20
115.8636
 30
0.0
 11
-173.600549
 21
115.8636
 31
0.0
  0
LINE
  8
0
  6
CONTINUOUS
 62
     7
  5
3E4
 10
-112.000549
 20
105.8636
 30
0.0
 11
-111.600549
 21
105.8636
 31
0.0
  0
LINE
  8
0
  6
CONTINUOUS
 62
     7
  5
3E5
 10
-173.600549
 20
105.8636
 30
0.0
 11
-173.200549
 21
105.8636
 31
0.0
  0
LINE
  8
0
  6
CONTINUOUS
 62
     7
  5
3E6
 10
-111.600549
 20
151.290796
 30
0.0
 11
-112.000549
 21
151.290796
 31
0.0
  0
LINE
  8
0
  6
CONTINUOUS
 62
     7
  5
3E7
 10
-173.200549
 20
151.290796
 30
0.0
 11
-173.600549
 21
151.290796
 31
0.0
  0
LINE
  8
0
  6
CONTINUOUS
 62
     7
  5
3E8
 10
-111.600549
 20
181.790531
 30
0.0
 11
-112.000549
 21
181.790531
 31
0.0
  0
LINE
  8
0
  6
CONTINUOUS
 62
     7
  5
3E9
 10
-173.200549
 20
181.790531
 30
0.0
 11
-173.600549
 21
181.790531
 31
0.0
  0
LINE
  8
0
  6
CONTINUOUS
 62
     7
  5
3EA
 10
-111.600549
 20
209.818829
 30
0.0
 11
-112.000549
 21
209.818829
 31
0.0
  0
LINE
  8
0
  6
CONTINUOUS
 62
     7
  5
3EB
 10
-173.200549
 20
209.818829
 30
0.0
 11
-173.600549
 21
209.818829
 31
0.0
  0
LINE
  8
0
  6
CONTINUOUS
 62
     7
  5
3EC
 10
-112.000549
 20
164.290531
 30
0.0
 11
-111.600549
 21
164.290531
 31
0.0
  0
LINE
  8
0
  6
CONTINUOUS
 62
     7
  5
3ED
 10
-173.600549
 20
164.290531
 30
0.0
 11
-173.200549
 21
164.290531
 31
0.0
  0
LINE
  8
0
  6
CONTINUOUS
 62
     7
  5
3EE
 10
-111.600549
 20
174.290531
 30
0.0
 11
-112.000549
 21
174.290531
 31
0.0
  0
LINE
  8
0
  6
CONTINUOUS
 62
     7
  5
3EF
 10
-173.200549
 20
174.290531
 30
0.0
 11
-173.600549
 21
174.290531
 31
0.0
  0
LINE
  8
0
  6
CONTINUOUS
 62
     7
  5
3F0
 10
-112.000549
 20
192.318829
 30
0.0
 11
-111.600549
 21
192.318829
 31
0.0
  0
LINE
  8
0
  6
CONTINUOUS
 62
     7
  5
3F1
 10
-173.600549
 20
192.318829
 30
0.0
 11
-173.200549
 21
192.318829
 31
0.0
  0
LINE
  8
0
  6
CONTINUOUS
 62
     7
  5
3F2
 10
-112.000549
 20
213.24043
 30
0.0
 11
-111.600549
 21
213.24043
 31
0.0
  0
LINE
  8
0
  6
CONTINUOUS
 62
     7
  5
3F3
 10
-173.600549
 20
213.24043
 30
0.0
 11
-173.200549
 21
213.24043
 31
0.0
  0
LINE
  8
0
  6
CONTINUOUS
 62
     7
  5
3F4
 10
-117.600549
 20
205.74043
 30
0.0
 11
-114.605549
 21
205.74043
 31
0.0
  0
LINE
  8
0
  6
CONTINUOUS
 62
     7
  5
3F5
 10
-170.595549
 20
205.74043
 30
0.0
 11
-167.600549
 21
205.74043
 31
0.0
  0
LINE
  8
0
  6
CONTINUOUS
 62
     7
  5
3F6
 10
-112.000549
 20
102.627482
 30
0.0
 11
-114.600549
 21
102.627482
 31
0.0
  0
LINE
  8
0
  6
CONTINUOUS
 62
     7
  5
3F7
 10
-170.600549
 20
102.627482
 30
0.0
 11
-173.200549
 21
102.627482
 31
0.0
  0
LINE
  8
0
  6
CONTINUOUS
 62
     7
  5
3F8
 10
-96.600549
 20
246.898282
 30
0.0
 11
-96.600549
 21
252.898282
 31
0.0
  0
LINE
  8
0
  6
CONTINUOUS
 62
     7
  5
3F9
 10
-106.600549
 20
252.898282
 30
0.0
 11
-106.600549
 21
246.898282
 31
0.0
  0
LINE
  8
0
  6
CONTINUOUS
 62
     7
  5
3FA
 10
-83.600549
 20
246.898282
 30
0.0
 11
-83.600549
 21
252.898282
 31
0.0
  0
LINE
  8
0
  6
CONTINUOUS
 62
     7
  5
3FB
 10
-93.600549
 20
252.898282
 30
0.0
 11
-93.600549
 21
246.898282
 31
0.0
  0
LINE
  8
0
  6
CONTINUOUS
 62
     7
  5
3FC
 10
-104.600549
 20
156.898282
 30
0.0
 11
-104.600549
 21
149.398282
 31
0.0
  0
LINE
  8
0
  6
CONTINUOUS
 62
     7
  5
3FD
 10
-98.600549
 20
149.398282
 30
0.0
 11
-98.600549
 21
156.898282
 31
0.0
  0
LINE
  8
0
  6
CONTINUOUS
 62
     7
  5
3FE
 10
-91.600549
 20
156.898282
 30
0.0
 11
-91.600549
 21
149.398282
 31
0.0
  0
LINE
  8
0
  6
CONTINUOUS
 62
     7
  5
3FF
 10
-85.600549
 20
149.398282
 30
0.0
 11
-85.600549
 21
156.898282
 31
0.0
  0
LINE
  8
0
  6
CONTINUOUS
 62
     7
  5
400
 10
-104.600549
 20
149.398282
 30
0.0
 11
-104.100549
 21
148.898282
 31
0.0
  0
LINE
  8
0
  6
CONTINUOUS
 62
     7
  5
401
 10
-99.100549
 20
148.898282
 30
0.0
 11
-98.600549
 21
149.398282
 31
0.0
  0
LINE
  8
0
  6
CONTINUOUS
 62
     7
  5
402
 10
-91.600549
 20
149.398282
 30
0.0
 11
-91.100549
 21
148.898282
 31
0.0
  0
LINE
  8
0
  6
CONTINUOUS
 62
     7
  5
403
 10
-86.100549
 20
148.898282
 30
0.0
 11
-85.600549
 21
149.398282
 31
0.0
  0
LINE
  8
0
  6
CONTINUOUS
 62
     7
  5
404
 10
-117.600549
 20
215.898282
 30
0.0
 11
-114.600549
 21
215.898282
 31
0.0
  0
LINE
  8
0
  6
CONTINUOUS
 62
     7
  5
405
 10
-170.600549
 20
215.898282
 30
0.0
 11
-167.600549
 21
215.898282
 31
0.0
  0
LINE
  8
0
  6
CONTINUOUS
 62
     7
  5
406
 10
-102.600549
 20
79.898282
 30
0.0
 11
-97.800549
 21
79.898282
 31
0.0
  0
LINE
  8
0
  6
CONTINUOUS
 62
     7
  5
407
 10
-97.800549
 20
85.898282
 30
0.0
 11
-102.600549
 21
85.898282
 31
0.0
  0
LINE
  8
0
  6
CONTINUOUS
 62
     7
  5
408
 10
-111.600549
 20
90.898282
 30
0.0
 11
-114.600549
 21
90.898282
 31
0.0
  0
LINE
  8
0
  6
CONTINUOUS
 62
     7
  5
409
 10
-170.600549
 20
90.898282
 30
0.0
 11
-173.600549
 21
90.898282
 31
0.0
  0
ENDBLK
  8
0
  5
40A
  0
BLOCK
  8
0
  5
40D
  2
AID1995
 70
     0
 10
0.0
 20
0.0
 30
0.0
  3
#auxiliary draft view
  0
LINE
  8
0
  6
CONTINUOUS
 62
     7
  5
40E
 10
547.112905
 20
240.898282
 30
0.0
 11
547.112905
 21
237.80022
 31
0.0
  0
LINE
  8
0
  6
CONTINUOUS
 62
     7
  5
40F
 10
547.112905
 20
240.898282
 30
0.0
 11
550.107905
 21
240.898282
 31
0.0
  0
LINE
  8
0
  6
CONTINUOUS
 62
     7
  5
410
 10
494.117905
 20
240.898282
 30
0.0
 11
497.112905
 21
240.898282
 31
0.0
  0
LINE
  8
0
  6
CONTINUOUS
 62
     7
  5
411
 10
497.112905
 20
237.80022
 30
0.0
 11
497.112905
 21
240.898282
 31
0.0
  0
LINE
  8
0
  6
CONTINUOUS
 62
     7
  5
412
 10
553.112905
 20
233.398282
 30
0.0
 11
553.112905
 21
230.74043
 31
0.0
  0
LINE
  8
0
  6
CONTINUOUS
 62
     7
  5
413
 10
491.112905
 20
230.74043
 30
0.0
 11
491.112905
 21
233.398282
 31
0.0
  0
LINE
  8
0
  6
CONTINUOUS
 62
     7
  5
414
 10
547.112905
 20
241.198282
 30
0.0
 11
550.112905
 21
241.198282
 31
0.0
  0
LINE
  8
0
  6
CONTINUOUS
 62
     7
  5
415
 10
547.112905
 20
241.198282
 30
0.0
 11
547.112905
 21
240.898282
 31
0.0
  0
LINE
  8
0
  6
CONTINUOUS
 62
     7
  5
416
 10
550.112905
 20
241.074037
 30
0.0
 11
550.112905
 21
241.198282
 31
0.0
  0
LINE
  8
0
  6
CONTINUOUS
 62
     7
  5
417
 10
494.112905
 20
241.198282
 30
0.0
 11
497.112905
 21
241.198282
 31
0.0
  0
LINE
  8
0
  6
CONTINUOUS
 62
     7
  5
418
 10
494.112905
 20
241.198282
 30
0.0
 11
494.112905
 21
241.074037
 31
0.0
  0
LINE
  8
0
  6
CONTINUOUS
 62
     7
  5
419
 10
497.112905
 20
240.898282
 30
0.0
 11
497.112905
 21
241.198282
 31
0.0
  0
LINE
  8
0
  6
CONTINUOUS
 62
     7
  5
41A
 10
552.712905
 20
241.095368
 30
0.0
 11
552.712905
 21
241.198282
 31
0.0
  0
LINE
  8
0
  6
CONTINUOUS
 62
     7
  5
41B
 10
550.112905
 20
241.198282
 30
0.0
 11
552.712905
 21
241.198282
 31
0.0
  0
LINE
  8
0
  6
CONTINUOUS
 62
     7
  5
41C
 10
491.512905
 20
241.198282
 30
0.0
 11
491.512905
 21
241.095368
 31
0.0
  0
LINE
  8
0
  6
CONTINUOUS
 62
     7
  5
41D
 10
491.512905
 20
241.198282
 30
0.0
 11
494.112905
 21
241.198282
 31
0.0
  0
LINE
  8
0
  6
CONTINUOUS
 62
     7
  5
41E
 10
547.112905
 20
237.498282
 30
0.0
 11
497.112905
 21
237.498282
 31
0.0
  0
LINE
  8
0
  6
CONTINUOUS
 62
     7
  5
41F
 10
547.112905
 20
240.898282
 30
0.0
 11
497.112905
 21
240.898282
 31
0.0
  0
LINE
  8
0
  6
CONTINUOUS
 62
     7
  5
420
 10
550.107905
 20
105.718178
 30
0.0
 11
550.107905
 21
104.487964
 31
0.0
  0
LINE
  8
0
  6
CONTINUOUS
 62
     7
  5
421
 10
553.112905
 20
106.901244
 30
0.0
 11
553.112905
 21
123.3636
 31
0.0
  0
LINE
  8
0
  6
CONTINUOUS
 62
     7
  5
422
 10
552.712905
 20
106.901244
 30
0.0
 11
553.112905
 21
106.901244
 31
0.0
  0
LINE
  8
0
  6
CONTINUOUS
 62
     7
  5
423
 10
552.712905
 20
101.696973
 30
0.0
 11
552.712905
 21
106.901244
 31
0.0
  0
LINE
  8
0
  6
CONTINUOUS
 62
     7
  5
424
 10
550.112905
 20
101.696973
 30
0.0
 11
552.712905
 21
101.696973
 31
0.0
  0
LINE
  8
0
  6
CONTINUOUS
 62
     7
  5
425
 10
550.112905
 20
104.487964
 30
0.0
 11
550.112905
 21
101.696973
 31
0.0
  0
LINE
  8
0
  6
CONTINUOUS
 62
     7
  5
426
 10
550.107905
 20
104.487964
 30
0.0
 11
550.112905
 21
104.487964
 31
0.0
  0
LINE
  8
0
  6
CONTINUOUS
 62
     7
  5
427
 10
494.112905
 20
104.487964
 30
0.0
 11
494.117905
 21
104.487964
 31
0.0
  0
LINE
  8
0
  6
CONTINUOUS
 62
     7
  5
428
 10
494.112905
 20
101.696973
 30
0.0
 11
494.112905
 21
104.487964
 31
0.0
  0
LINE
  8
0
  6
CONTINUOUS
 62
     7
  5
429
 10
491.512905
 20
101.696973
 30
0.0
 11
494.112905
 21
101.696973
 31
0.0
  0
LINE
  8
0
  6
CONTINUOUS
 62
     7
  5
42A
 10
491.512905
 20
106.901244
 30
0.0
 11
491.512905
 21
101.696973
 31
0.0
  0
LINE
  8
0
  6
CONTINUOUS
 62
     7
  5
42B
 10
491.112905
 20
106.901244
 30
0.0
 11
491.512905
 21
106.901244
 31
0.0
  0
LINE
  8
0
  6
CONTINUOUS
 62
     7
  5
42C
 10
494.117905
 20
104.487964
 30
0.0
 11
494.117905
 21
105.718178
 31
0.0
  0
LINE
  8
0
  6
CONTINUOUS
 62
     7
  5
42D
 10
491.112905
 20
106.901244
 30
0.0
 11
491.112905
 21
123.3636
 31
0.0
  0
LINE
  8
0
  6
CONTINUOUS
 62
     7
  5
42E
 10
550.112905
 20
101.476974
 30
0.0
 11
552.712905
 21
101.476974
 31
0.0
  0
LINE
  8
0
  6
CONTINUOUS
 62
     7
  5
42F
 10
550.112905
 20
101.696973
 30
0.0
 11
550.112905
 21
101.476974
 31
0.0
  0
LINE
  8
0
  6
CONTINUOUS
 62
     7
  5
430
 10
552.712905
 20
101.476974
 30
0.0
 11
552.712905
 21
101.696973
 31
0.0
  0
LINE
  8
0
  6
CONTINUOUS
 62
     7
  5
431
 10
550.112905
 20
86.417794
 30
0.0
 11
552.712905
 21
86.417794
 31
0.0
  0
LINE
  8
0
  6
CONTINUOUS
 62
     7
  5
432
 10
550.112905
 20
80.740856
 30
0.0
 11
550.112905
 21
86.417794
 31
0.0
  0
LINE
  8
0
  6
CONTINUOUS
 62
     7
  5
433
 10
547.112905
 20
80.740856
 30
0.0
 11
550.112905
 21
80.740856
 31
0.0
  0
LINE
  8
0
  6
CONTINUOUS
 62
     7
  5
434
 10
547.112905
 20
95.800037
 30
0.0
 11
547.112905
 21
80.740856
 31
0.0
  0
LINE
  8
0
  6
CONTINUOUS
 62
     7
  5
435
 10
550.112905
 20
95.800037
 30
0.0
 11
547.112905
 21
95.800037
 31
0.0
  0
LINE
  8
0
  6
CONTINUOUS
 62
     7
  5
436
 10
550.112905
 20
101.476974
 30
0.0
 11
550.112905
 21
95.800037
 31
0.0
  0
LINE
  8
0
  6
CONTINUOUS
 62
     7
  5
437
 10
552.712905
 20
86.417794
 30
0.0
 11
552.712905
 21
101.476974
 31
0.0
  0
LINE
  8
0
  6
CONTINUOUS
 62
     7
  5
438
 10
491.512905
 20
101.476974
 30
0.0
 11
494.112905
 21
101.476974
 31
0.0
  0
LINE
  8
0
  6
CONTINUOUS
 62
     7
  5
439
 10
497.112905
 20
95.800037
 30
0.0
 11
494.112905
 21
95.800037
 31
0.0
  0
LINE
  8
0
  6
CONTINUOUS
 62
     7
  5
43A
 10
497.112905
 20
80.740856
 30
0.0
 11
497.112905
 21
95.800037
 31
0.0
  0
LINE
  8
0
  6
CONTINUOUS
 62
     7
  5
43B
 10
494.112905
 20
80.740856
 30
0.0
 11
497.112905
 21
80.740856
 31
0.0
  0
LINE
  8
0
  6
CONTINUOUS
 62
     7
  5
43C
 10
494.112905
 20
86.417794
 30
0.0
 11
494.112905
 21
80.740856
 31
0.0
  0
LINE
  8
0
  6
CONTINUOUS
 62
     7
  5
43D
 10
491.512905
 20
86.417794
 30
0.0
 11
494.112905
 21
86.417794
 31
0.0
  0
LINE
  8
0
  6
CONTINUOUS
 62
     7
  5
43E
 10
494.112905
 20
95.800037
 30
0.0
 11
494.112905
 21
101.476974
 31
0.0
  0
LINE
  8
0
  6
CONTINUOUS
 62
     7
  5
43F
 10
491.512905
 20
101.476974
 30
0.0
 11
491.512905
 21
86.417794
 31
0.0
  0
LINE
  8
0
  6
CONTINUOUS
 62
     7
  5
440
 10
494.112905
 20
101.476974
 30
0.0
 11
494.112905
 21
101.696973
 31
0.0
  0
LINE
  8
0
  6
CONTINUOUS
 62
     7
  5
441
 10
491.512905
 20
101.696973
 30
0.0
 11
491.512905
 21
101.476974
 31
0.0
  0
LINE
  8
0
  6
CONTINUOUS
 62
     7
  5
442
 10
547.112905
 20
95.800037
 30
0.0
 11
547.112905
 21
98.072321
 31
0.0
  0
LINE
  8
0
  6
CONTINUOUS
 62
     7
  5
443
 10
547.112905
 20
98.072321
 30
0.0
 11
550.107905
 21
98.072321
 31
0.0
  0
LINE
  8
0
  6
CONTINUOUS
 62
     7
  5
444
 10
494.117905
 20
98.072321
 30
0.0
 11
497.112905
 21
98.072321
 31
0.0
  0
LINE
  8
0
  6
CONTINUOUS
 62
     7
  5
445
 10
497.112905
 20
98.072321
 30
0.0
 11
497.112905
 21
95.800037
 31
0.0
  0
LINE
  8
0
  6
CONTINUOUS
 62
     7
  5
446
 10
547.112905
 20
86.909742
 30
0.0
 11
497.112905
 21
86.909742
 31
0.0
  0
LINE
  8
0
  6
CONTINUOUS
 62
     7
  5
447
 10
547.112905
 20
95.748087
 30
0.0
 11
497.112905
 21
95.748087
 31
0.0
  0
LINE
  8
0
  6
CONTINUOUS
 62
     7
  5
448
 10
547.112905
 20
98.063766
 30
0.0
 11
497.112905
 21
98.063766
 31
0.0
  0
LINE
  8
0
  6
CONTINUOUS
 62
     7
  5
449
 10
497.112905
 20
98.070308
 30
0.0
 11
547.112905
 21
98.070308
 31
0.0
  0
LINE
  8
0
  6
CONTINUOUS
 62
     7
  5
44A
 10
497.112905
 20
98.072321
 30
0.0
 11
497.112905
 21
98.3636
 31
0.0
  0
LINE
  8
0
  6
CONTINUOUS
 62
     7
  5
44B
 10
547.112905
 20
98.3636
 30
0.0
 11
547.112905
 21
98.072321
 31
0.0
  0
LINE
  8
0
  6
CONTINUOUS
 62
     7
  5
44C
 10
550.112905
 20
78.588753
 30
0.0
 11
550.112905
 21
80.42907
 31
0.0
  0
LINE
  8
0
  6
CONTINUOUS
 62
     7
  5
44D
 10
550.112905
 20
80.42907
 30
0.0
 11
550.112905
 21
80.740856
 31
0.0
  0
LINE
  8
0
  6
CONTINUOUS
 62
     7
  5
44E
 10
547.112905
 20
80.740856
 30
0.0
 11
547.112905
 21
77.627482
 31
0.0
  0
LINE
  8
0
  6
CONTINUOUS
 62
     7
  5
44F
 10
497.112905
 20
77.627482
 30
0.0
 11
497.112905
 21
80.740856
 31
0.0
  0
LINE
  8
0
  6
CONTINUOUS
 62
     7
  5
450
 10
494.112905
 20
80.740856
 30
0.0
 11
494.112905
 21
80.42907
 31
0.0
  0
LINE
  8
0
  6
CONTINUOUS
 62
     7
  5
451
 10
494.112905
 20
80.42907
 30
0.0
 11
494.112905
 21
78.588753
 31
0.0
  0
LINE
  8
0
  6
CONTINUOUS
 62
     7
  5
452
 10
547.112905
 20
111.115122
 30
0.0
 11
526.327264
 21
111.115122
 31
0.0
  0
LINE
  8
0
  6
CONTINUOUS
 62
     7
  5
453
 10
526.327264
 20
111.115122
 30
0.0
 11
522.327264
 21
109.421568
 31
0.0
  0
LINE
  8
0
  6
CONTINUOUS
 62
     7
  5
454
 10
522.327264
 20
109.421568
 30
0.0
 11
519.112905
 21
109.421568
 31
0.0
  0
LINE
  8
0
  6
CONTINUOUS
 62
     7
  5
455
 10
519.112905
 20
109.421568
 30
0.0
 11
519.112905
 21
110.008232
 31
0.0
  0
LINE
  8
0
  6
CONTINUOUS
 62
     7
  5
456
 10
519.112905
 20
110.008232
 30
0.0
 11
522.112905
 21
110.008232
 31
0.0
  0
LINE
  8
0
  6
CONTINUOUS
 62
     7
  5
457
 10
522.112905
 20
110.008232
 30
0.0
 11
526.112905
 21
111.701786
 31
0.0
  0
LINE
  8
0
  6
CONTINUOUS
 62
     7
  5
458
 10
526.112905
 20
111.701786
 30
0.0
 11
547.112905
 21
111.701786
 31
0.0
  0
LINE
  8
0
  6
CONTINUOUS
 62
     7
  5
459
 10
522.327264
 20
105.342332
 30
0.0
 11
522.327264
 21
109.421568
 31
0.0
  0
LINE
  8
0
  6
CONTINUOUS
 62
     7
  5
45A
 10
519.112905
 20
105.342332
 30
0.0
 11
522.327264
 21
105.342332
 31
0.0
  0
LINE
  8
0
  6
CONTINUOUS
 62
     7
  5
45B
 10
519.112905
 20
105.342332
 30
0.0
 11
519.112905
 21
109.421568
 31
0.0
  0
LINE
  8
0
  6
CONTINUOUS
 62
     7
  5
45C
 10
526.327264
 20
107.035885
 30
0.0
 11
526.327264
 21
111.115122
 31
0.0
  0
LINE
  8
0
  6
CONTINUOUS
 62
     7
  5
45D
 10
522.327264
 20
105.342332
 30
0.0
 11
526.327264
 21
107.035885
 31
0.0
  0
LINE
  8
0
  6
CONTINUOUS
 62
     7
  5
45E
 10
526.327264
 20
107.035885
 30
0.0
 11
547.112905
 21
107.035885
 31
0.0
  0
LINE
  8
0
  6
CONTINUOUS
 62
     7
  5
45F
 10
497.112905
 20
111.115122
 30
0.0
 11
521.112905
 21
111.115122
 31
0.0
  0
LINE
  8
0
  6
CONTINUOUS
 62
     7
  5
460
 10
519.112905
 20
107.035885
 30
0.0
 11
497.112905
 21
107.035885
 31
0.0
  0
LINE
  8
0
  6
CONTINUOUS
 62
     7
  5
461
 10
521.112905
 20
111.115122
 30
0.0
 11
521.112905
 21
110.008232
 31
0.0
  0
LINE
  8
0
  6
CONTINUOUS
 62
     7
  5
462
 10
521.112905
 20
111.701786
 30
0.0
 11
497.112905
 21
111.701786
 31
0.0
  0
LINE
  8
0
  6
CONTINUOUS
 62
     7
  5
463
 10
521.112905
 20
111.115122
 30
0.0
 11
521.112905
 21
111.701786
 31
0.0
  0
LINE
  8
0
  6
CONTINUOUS
 62
     7
  5
464
 10
550.107905
 20
138.737515
 30
0.0
 11
550.107905
 21
137.223412
 31
0.0
  0
LINE
  8
0
  6
CONTINUOUS
 62
     7
  5
465
 10
553.112905
 20
139.876548
 30
0.0
 11
553.112905
 21
151.290796
 31
0.0
  0
LINE
  8
0
  6
CONTINUOUS
 62
     7
  5
466
 10
552.712905
 20
139.876548
 30
0.0
 11
553.112905
 21
139.876548
 31
0.0
  0
LINE
  8
0
  6
CONTINUOUS
 62
     7
  5
467
 10
550.112905
 20
133.765969
 30
0.0
 11
552.712905
 21
133.765969
 31
0.0
  0
LINE
  8
0
  6
CONTINUOUS
 62
     7
  5
468
 10
550.112905
 20
137.223412
 30
0.0
 11
550.112905
 21
133.765969
 31
0.0
  0
LINE
  8
0
  6
CONTINUOUS
 62
     7
  5
469
 10
550.107905
 20
137.223412
 30
0.0
 11
550.112905
 21
137.223412
 31
0.0
  0
LINE
  8
0
  6
CONTINUOUS
 62
     7
  5
46A
 10
552.712905
 20
133.765969
 30
0.0
 11
552.712905
 21
139.876548
 31
0.0
  0
LINE
  8
0
  6
CONTINUOUS
 62
     7
  5
46B
 10
491.112905
 20
139.876548
 30
0.0
 11
491.112905
 21
151.290796
 31
0.0
  0
LINE
  8
0
  6
CONTINUOUS
 62
     7
  5
46C
 10
494.117905
 20
137.223412
 30
0.0
 11
494.117905
 21
138.737515
 31
0.0
  0
LINE
  8
0
  6
CONTINUOUS
 62
     7
  5
46D
 10
494.112905
 20
137.223412
 30
0.0
 11
494.117905
 21
137.223412
 31
0.0
  0
LINE
  8
0
  6
CONTINUOUS
 62
     7
  5
46E
 10
494.112905
 20
133.765969
 30
0.0
 11
494.112905
 21
137.223412
 31
0.0
  0
LINE
  8
0
  6
CONTINUOUS
 62
     7
  5
46F
 10
491.512905
 20
133.765969
 30
0.0
 11
494.112905
 21
133.765969
 31
0.0
  0
LINE
  8
0
  6
CONTINUOUS
 62
     7
  5
470
 10
491.112905
 20
139.876548
 30
0.0
 11
491.512905
 21
139.876548
 31
0.0
  0
LINE
  8
0
  6
CONTINUOUS
 62
     7
  5
471
 10
491.512905
 20
139.876548
 30
0.0
 11
491.512905
 21
133.765969
 31
0.0
  0
LINE
  8
0
  6
CONTINUOUS
 62
     7
  5
472
 10
550.112905
 20
113.36382
 30
0.0
 11
552.712905
 21
113.36382
 31
0.0
  0
LINE
  8
0
  6
CONTINUOUS
 62
     7
  5
473
 10
550.112905
 20
105.718178
 30
0.0
 11
550.112905
 21
113.36382
 31
0.0
  0
LINE
  8
0
  6
CONTINUOUS
 62
     7
  5
474
 10
547.112905
 20
105.718178
 30
0.0
 11
550.112905
 21
105.718178
 31
0.0
  0
LINE
  8
0
  6
CONTINUOUS
 62
     7
  5
475
 10
547.112905
 20
125.999731
 30
0.0
 11
547.112905
 21
105.718178
 31
0.0
  0
LINE
  8
0
  6
CONTINUOUS
 62
     7
  5
476
 10
550.112905
 20
125.999731
 30
0.0
 11
547.112905
 21
125.999731
 31
0.0
  0
LINE
  8
0
  6
CONTINUOUS
 62
     7
  5
477
 10
550.112905
 20
133.645373
 30
0.0
 11
552.712905
 21
133.645373
 31
0.0
  0
LINE
  8
0
  6
CONTINUOUS
 62
     7
  5
478
 10
550.112905
 20
133.645373
 30
0.0
 11
550.112905
 21
125.999731
 31
0.0
  0
LINE
  8
0
  6
CONTINUOUS
 62
     7
  5
479
 10
552.712905
 20
113.36382
 30
0.0
 11
552.712905
 21
133.645373
 31
0.0
  0
LINE
  8
0
  6
CONTINUOUS
 62
     7
  5
47A
 10
550.112905
 20
133.765969
 30
0.0
 11
550.112905
 21
133.645373
 31
0.0
  0
LINE
  8
0
  6
CONTINUOUS
 62
     7
  5
47B
 10
552.712905
 20
133.645373
 30
0.0
 11
552.712905
 21
133.765969
 31
0.0
  0
LINE
  8
0
  6
CONTINUOUS
 62
     7
  5
47C
 10
491.512905
 20
133.645373
 30
0.0
 11
494.112905
 21
133.645373
 31
0.0
  0
LINE
  8
0
  6
CONTINUOUS
 62
     7
  5
47D
 10
494.112905
 20
133.645373
 30
0.0
 11
494.112905
 21
133.765969
 31
0.0
  0
LINE
  8
0
  6
CONTINUOUS
 62
     7
  5
47E
 10
491.512905
 20
133.765969
 30
0.0
 11
491.512905
 21
133.645373
 31
0.0
  0
LINE
  8
0
  6
CONTINUOUS
 62
     7
  5
47F
 10
497.112905
 20
125.999731
 30
0.0
 11
494.112905
 21
125.999731
 31
0.0
  0
LINE
  8
0
  6
CONTINUOUS
 62
     7
  5
480
 10
497.112905
 20
105.718178
 30
0.0
 11
497.112905
 21
125.999731
 31
0.0
  0
LINE
  8
0
  6
CONTINUOUS
 62
     7
  5
481
 10
494.112905
 20
105.718178
 30
0.0
 11
497.112905
 21
105.718178
 31
0.0
  0
LINE
  8
0
  6
CONTINUOUS
 62
     7
  5
482
 10
494.112905
 20
113.36382
 30
0.0
 11
494.112905
 21
105.718178
 31
0.0
  0
LINE
  8
0
  6
CONTINUOUS
 62
     7
  5
483
 10
491.512905
 20
113.36382
 30
0.0
 11
494.112905
 21
113.36382
 31
0.0
  0
LINE
  8
0
  6
CONTINUOUS
 62
     7
  5
484
 10
494.112905
 20
125.999731
 30
0.0
 11
494.112905
 21
133.645373
 31
0.0
  0
LINE
  8
0
  6
CONTINUOUS
 62
     7
  5
485
 10
491.512905
 20
133.645373
 30
0.0
 11
491.512905
 21
113.36382
 31
0.0
  0
LINE
  8
0
  6
CONTINUOUS
 62
     7
  5
486
 10
547.112905
 20
125.999731
 30
0.0
 11
547.112905
 21
127.245318
 31
0.0
  0
LINE
  8
0
  6
CONTINUOUS
 62
     7
  5
487
 10
547.112905
 20
127.245318
 30
0.0
 11
550.107905
 21
127.245318
 31
0.0
  0
LINE
  8
0
  6
CONTINUOUS
 62
     7
  5
488
 10
494.117905
 20
127.245318
 30
0.0
 11
497.112905
 21
127.245318
 31
0.0
  0
LINE
  8
0
  6
CONTINUOUS
 62
     7
  5
489
 10
497.112905
 20
127.245318
 30
0.0
 11
497.112905
 21
125.999731
 31
0.0
  0
LINE
  8
0
  6
CONTINUOUS
 62
     7
  5
48A
 10
547.112905
 20
113.850674
 30
0.0
 11
497.112905
 21
113.850674
 31
0.0
  0
LINE
  8
0
  6
CONTINUOUS
 62
     7
  5
48B
 10
547.112905
 20
125.754069
 30
0.0
 11
497.112905
 21
125.754069
 31
0.0
  0
LINE
  8
0
  6
CONTINUOUS
 62
     7
  5
48C
 10
547.112905
 20
127.023443
 30
0.0
 11
497.112905
 21
127.023443
 31
0.0
  0
LINE
  8
0
  6
CONTINUOUS
 62
     7
  5
48D
 10
550.112905
 20
101.666212
 30
0.0
 11
550.112905
 21
104.487964
 31
0.0
  0
LINE
  8
0
  6
CONTINUOUS
 62
     7
  5
48E
 10
550.112905
 20
104.487964
 30
0.0
 11
550.112905
 21
105.718178
 31
0.0
  0
LINE
  8
0
  6
CONTINUOUS
 62
     7
  5
48F
 10
547.112905
 20
105.718178
 30
0.0
 11
547.112905
 21
98.3636
 31
0.0
  0
LINE
  8
0
  6
CONTINUOUS
 62
     7
  5
490
 10
497.112905
 20
98.3636
 30
0.0
 11
497.112905
 21
105.718178
 31
0.0
  0
LINE
  8
0
  6
CONTINUOUS
 62
     7
  5
491
 10
494.112905
 20
105.718178
 30
0.0
 11
494.112905
 21
104.487964
 31
0.0
  0
LINE
  8
0
  6
CONTINUOUS
 62
     7
  5
492
 10
494.112905
 20
104.487964
 30
0.0
 11
494.112905
 21
101.666212
 31
0.0
  0
LINE
  8
0
  6
CONTINUOUS
 62
     7
  5
493
 10
553.112905
 20
106.901244
 30
0.0
 11
553.112905
 21
105.8636
 31
0.0
  0
LINE
  8
0
  6
CONTINUOUS
 62
     7
  5
494
 10
491.112905
 20
105.8636
 30
0.0
 11
491.112905
 21
106.901244
 31
0.0
  0
LINE
  8
0
  6
CONTINUOUS
 62
     7
  5
495
 10
522.327264
 20
127.023443
 30
0.0
 11
522.327264
 21
131.349026
 31
0.0
  0
LINE
  8
0
  6
CONTINUOUS
 62
     7
  5
496
 10
519.112905
 20
127.023443
 30
0.0
 11
519.112905
 21
131.349026
 31
0.0
  0
LINE
  8
0
  6
CONTINUOUS
 62
     7
  5
497
 10
522.327264
 20
131.349026
 30
0.0
 11
519.112905
 21
131.349026
 31
0.0
  0
LINE
  8
0
  6
CONTINUOUS
 62
     7
  5
498
 10
526.327264
 20
127.023443
 30
0.0
 11
526.327264
 21
132.277373
 31
0.0
  0
LINE
  8
0
  6
CONTINUOUS
 62
     7
  5
499
 10
526.327264
 20
132.277373
 30
0.0
 11
522.327264
 21
131.349026
 31
0.0
  0
LINE
  8
0
  6
CONTINUOUS
 62
     7
  5
49A
 10
547.112905
 20
132.277373
 30
0.0
 11
526.327264
 21
132.277373
 31
0.0
  0
LINE
  8
0
  6
CONTINUOUS
 62
     7
  5
49B
 10
519.112905
 20
131.349026
 30
0.0
 11
519.112905
 21
131.670614
 31
0.0
  0
LINE
  8
0
  6
CONTINUOUS
 62
     7
  5
49C
 10
519.112905
 20
131.670614
 30
0.0
 11
522.112905
 21
131.670614
 31
0.0
  0
LINE
  8
0
  6
CONTINUOUS
 62
     7
  5
49D
 10
522.112905
 20
131.670614
 30
0.0
 11
526.112905
 21
132.598962
 31
0.0
  0
LINE
  8
0
  6
CONTINUOUS
 62
     7
  5
49E
 10
526.112905
 20
132.598962
 30
0.0
 11
547.112905
 21
132.598962
 31
0.0
  0
LINE
  8
0
  6
CONTINUOUS
 62
     7
  5
49F
 10
497.112905
 20
132.277373
 30
0.0
 11
521.112905
 21
132.277373
 31
0.0
  0
LINE
  8
0
  6
CONTINUOUS
 62
     7
  5
4A0
 10
521.112905
 20
132.598962
 30
0.0
 11
497.112905
 21
132.598962
 31
0.0
  0
LINE
  8
0
  6
CONTINUOUS
 62
     7
  5
4A1
 10
521.112905
 20
132.277373
 30
0.0
 11
521.112905
 21
132.598962
 31
0.0
  0
LINE
  8
0
  6
CONTINUOUS
 62
     7
  5
4A2
 10
521.112905
 20
132.277373
 30
0.0
 11
521.112905
 21
131.670614
 31
0.0
  0
LINE
  8
0
  6
CONTINUOUS
 62
     7
  5
4A3
 10
550.112905
 20
169.237251
 30
0.0
 11
552.712905
 21
169.237251
 31
0.0
  0
LINE
  8
0
  6
CONTINUOUS
 62
     7
  5
4A4
 10
550.112905
 20
169.2385
 30
0.0
 11
550.112905
 21
169.237251
 31
0.0
  0
LINE
  8
0
  6
CONTINUOUS
 62
     7
  5
4A5
 10
550.112905
 20
169.2385
 30
0.0
 11
552.712905
 21
169.2385
 31
0.0
  0
LINE
  8
0
  6
CONTINUOUS
 62
     7
  5
4A6
 10
552.712905
 20
169.237251
 30
0.0
 11
552.712905
 21
169.2385
 31
0.0
  0
LINE
  8
0
  6
CONTINUOUS
 62
     7
  5
4A7
 10
550.112905
 20
147.087443
 30
0.0
 11
552.712905
 21
147.087443
 31
0.0
  0
LINE
  8
0
  6
CONTINUOUS
 62
     7
  5
4A8
 10
550.112905
 20
138.737515
 30
0.0
 11
550.112905
 21
147.087443
 31
0.0
  0
LINE
  8
0
  6
CONTINUOUS
 62
     7
  5
4A9
 10
547.112905
 20
138.737515
 30
0.0
 11
550.112905
 21
138.737515
 31
0.0
  0
LINE
  8
0
  6
CONTINUOUS
 62
     7
  5
4AA
 10
547.112905
 20
160.887323
 30
0.0
 11
547.112905
 21
138.737515
 31
0.0
  0
LINE
  8
0
  6
CONTINUOUS
 62
     7
  5
4AB
 10
550.112905
 20
160.887323
 30
0.0
 11
547.112905
 21
160.887323
 31
0.0
  0
LINE
  8
0
  6
CONTINUOUS
 62
     7
  5
4AC
 10
552.712905
 20
147.087443
 30
0.0
 11
552.712905
 21
169.237251
 31
0.0
  0
LINE
  8
0
  6
CONTINUOUS
 62
     7
  5
4AD
 10
550.112905
 20
169.237251
 30
0.0
 11
550.112905
 21
160.887323
 31
0.0
  0
LINE
  8
0
  6
CONTINUOUS
 62
     7
  5
4AE
 10
491.512905
 20
169.237251
 30
0.0
 11
494.112905
 21
169.237251
 31
0.0
  0
LINE
  8
0
  6
CONTINUOUS
 62
     7
  5
4AF
 10
497.112905
 20
160.887323
 30
0.0
 11
494.112905
 21
160.887323
 31
0.0
  0
LINE
  8
0
  6
CONTINUOUS
 62
     7
  5
4B0
 10
497.112905
 20
138.737515
 30
0.0
 11
497.112905
 21
160.887323
 31
0.0
  0
LINE
  8
0
  6
CONTINUOUS
 62
     7
  5
4B1
 10
494.112905
 20
138.737515
 30
0.0
 11
497.112905
 21
138.737515
 31
0.0
  0
LINE
  8
0
  6
CONTINUOUS
 62
     7
  5
4B2
 10
494.112905
 20
147.087443
 30
0.0
 11
494.112905
 21
138.737515
 31
0.0
  0
LINE
  8
0
  6
CONTINUOUS
 62
     7
  5
4B3
 10
491.512905
 20
147.087443
 30
0.0
 11
494.112905
 21
147.087443
 31
0.0
  0
LINE
  8
0
  6
CONTINUOUS
 62
     7
  5
4B4
 10
491.512905
 20
169.237251
 30
0.0
 11
491.512905
 21
147.087443
 31
0.0
  0
LINE
  8
0
  6
CONTINUOUS
 62
     7
  5
4B5
 10
494.112905
 20
160.887323
 30
0.0
 11
494.112905
 21
169.237251
 31
0.0
  0
LINE
  8
0
  6
CONTINUOUS
 62
     7
  5
4B6
 10
491.512905
 20
169.2385
 30
0.0
 11
494.112905
 21
169.2385
 31
0.0
  0
LINE
  8
0
  6
CONTINUOUS
 62
     7
  5
4B7
 10
491.512905
 20
169.2385
 30
0.0
 11
491.512905
 21
169.237251
 31
0.0
  0
LINE
  8
0
  6
CONTINUOUS
 62
     7
  5
4B8
 10
494.112905
 20
169.237251
 30
0.0
 11
494.112905
 21
169.2385
 31
0.0
  0
LINE
  8
0
  6
CONTINUOUS
 62
     7
  5
4B9
 10
547.112905
 20
160.887323
 30
0.0
 11
547.112905
 21
160.900221
 31
0.0
  0
LINE
  8
0
  6
CONTINUOUS
 62
     7
  5
4BA
 10
547.112905
 20
160.900221
 30
0.0
 11
550.107905
 21
160.900221
 31
0.0
  0
LINE
  8
0
  6
CONTINUOUS
 62
     7
  5
4BB
 10
494.117905
 20
160.900221
 30
0.0
 11
497.112905
 21
160.900221
 31
0.0
  0
LINE
  8
0
  6
CONTINUOUS
 62
     7
  5
4BC
 10
497.112905
 20
160.900221
 30
0.0
 11
497.112905
 21
160.887323
 31
0.0
  0
LINE
  8
0
  6
CONTINUOUS
 62
     7
  5
4BD
 10
553.112905
 20
175.244834
 30
0.0
 11
553.112905
 21
181.790531
 31
0.0
  0
LINE
  8
0
  6
CONTINUOUS
 62
     7
  5
4BE
 10
552.712905
 20
175.244834
 30
0.0
 11
553.112905
 21
175.244834
 31
0.0
  0
LINE
  8
0
  6
CONTINUOUS
 62
     7
  5
4BF
 10
550.107905
 20
172.790611
 30
0.0
 11
550.112905
 21
172.790611
 31
0.0
  0
LINE
  8
0
  6
CONTINUOUS
 62
     7
  5
4C0
 10
552.712905
 20
169.2385
 30
0.0
 11
552.712905
 21
175.244834
 31
0.0
  0
LINE
  8
0
  6
CONTINUOUS
 62
     7
  5
4C1
 10
550.112905
 20
172.790611
 30
0.0
 11
550.112905
 21
169.2385
 31
0.0
  0
LINE
  8
0
  6
CONTINUOUS
 62
     7
  5
4C2
 10
491.112905
 20
175.244834
 30
0.0
 11
491.112905
 21
181.790531
 31
0.0
  0
LINE
  8
0
  6
CONTINUOUS
 62
     7
  5
4C3
 10
494.112905
 20
172.790611
 30
0.0
 11
494.117905
 21
172.790611
 31
0.0
  0
LINE
  8
0
  6
CONTINUOUS
 62
     7
  5
4C4
 10
491.112905
 20
175.244834
 30
0.0
 11
491.512905
 21
175.244834
 31
0.0
  0
LINE
  8
0
  6
CONTINUOUS
 62
     7
  5
4C5
 10
491.512905
 20
175.244834
 30
0.0
 11
491.512905
 21
169.2385
 31
0.0
  0
LINE
  8
0
  6
CONTINUOUS
 62
     7
  5
4C6
 10
494.112905
 20
169.2385
 30
0.0
 11
494.112905
 21
172.790611
 31
0.0
  0
LINE
  8
0
  6
CONTINUOUS
 62
     7
  5
4C7
 10
547.112905
 20
147.488688
 30
0.0
 11
497.112905
 21
147.488688
 31
0.0
  0
LINE
  8
0
  6
CONTINUOUS
 62
     7
  5
4C8
 10
547.112905
 20
160.488575
 30
0.0
 11
497.112905
 21
160.488575
 31
0.0
  0
LINE
  8
0
  6
CONTINUOUS
 62
     7
  5
4C9
 10
547.112905
 20
160.50172
 30
0.0
 11
497.112905
 21
160.50172
 31
0.0
  0
LINE
  8
0
  6
CONTINUOUS
 62
     7
  5
4CA
 10
550.112905
 20
133.645373
 30
0.0
 11
550.112905
 21
133.790839
 31
0.0
  0
LINE
  8
0
  6
CONTINUOUS
 62
     7
  5
4CB
 10
550.112905
 20
133.790839
 30
0.0
 11
550.112905
 21
137.223412
 31
0.0
  0
LINE
  8
0
  6
CONTINUOUS
 62
     7
  5
4CC
 10
550.112905
 20
137.223412
 30
0.0
 11
550.112905
 21
138.738764
 31
0.0
  0
LINE
  8
0
  6
CONTINUOUS
 62
     7
  5
4CD
 10
547.112905
 20
138.738764
 30
0.0
 11
547.112905
 21
127.245318
 31
0.0
  0
LINE
  8
0
  6
CONTINUOUS
 62
     7
  5
4CE
 10
497.112905
 20
127.245318
 30
0.0
 11
497.112905
 21
138.738764
 31
0.0
  0
LINE
  8
0
  6
CONTINUOUS
 62
     7
  5
4CF
 10
494.112905
 20
138.738764
 30
0.0
 11
494.112905
 21
137.223412
 31
0.0
  0
LINE
  8
0
  6
CONTINUOUS
 62
     7
  5
4D0
 10
494.112905
 20
137.223412
 30
0.0
 11
494.112905
 21
133.790839
 31
0.0
  0
LINE
  8
0
  6
CONTINUOUS
 62
     7
  5
4D1
 10
494.112905
 20
133.790839
 30
0.0
 11
494.112905
 21
133.645373
 31
0.0
  0
LINE
  8
0
  6
CONTINUOUS
 62
     7
  5
4D2
 10
553.112905
 20
139.876548
 30
0.0
 11
553.112905
 21
133.790796
 31
0.0
  0
LINE
  8
0
  6
CONTINUOUS
 62
     7
  5
4D3
 10
552.712905
 20
133.790839
 30
0.0
 11
553.112905
 21
133.790839
 31
0.0
  0
LINE
  8
0
  6
CONTINUOUS
 62
     7
  5
4D4
 10
491.112905
 20
133.790796
 30
0.0
 11
491.112905
 21
139.876548
 31
0.0
  0
LINE
  8
0
  6
CONTINUOUS
 62
     7
  5
4D5
 10
491.112905
 20
133.790839
 30
0.0
 11
491.512905
 21
133.790839
 31
0.0
  0
LINE
  8
0
  6
CONTINUOUS
 62
     7
  5
4D6
 10
550.112905
 20
169.2385
 30
0.0
 11
550.112905
 21
172.790611
 31
0.0
  0
LINE
  8
0
  6
CONTINUOUS
 62
     7
  5
4D7
 10
550.112905
 20
172.790611
 30
0.0
 11
550.112905
 21
174.219899
 31
0.0
  0
LINE
  8
0
  6
CONTINUOUS
 62
     7
  5
4D8
 10
547.112905
 20
174.219899
 30
0.0
 11
550.107905
 21
174.219899
 31
0.0
  0
LINE
  8
0
  6
CONTINUOUS
 62
     7
  5
4D9
 10
550.107905
 20
174.219899
 30
0.0
 11
550.112905
 21
174.219899
 31
0.0
  0
LINE
  8
0
  6
CONTINUOUS
 62
     7
  5
4DA
 10
547.112905
 20
174.219899
 30
0.0
 11
547.112905
 21
160.900221
 31
0.0
  0
LINE
  8
0
  6
CONTINUOUS
 62
     7
  5
4DB
 10
497.112905
 20
160.887323
 30
0.0
 11
497.112905
 21
174.219899
 31
0.0
  0
LINE
  8
0
  6
CONTINUOUS
 62
     7
  5
4DC
 10
494.112905
 20
174.219899
 30
0.0
 11
494.117905
 21
174.219899
 31
0.0
  0
LINE
  8
0
  6
CONTINUOUS
 62
     7
  5
4DD
 10
494.117905
 20
174.219899
 30
0.0
 11
497.112905
 21
174.219899
 31
0.0
  0
LINE
  8
0
  6
CONTINUOUS
 62
     7
  5
4DE
 10
494.112905
 20
174.219899
 30
0.0
 11
494.112905
 21
172.790611
 31
0.0
  0
LINE
  8
0
  6
CONTINUOUS
 62
     7
  5
4DF
 10
494.112905
 20
172.790611
 30
0.0
 11
494.112905
 21
169.2385
 31
0.0
  0
LINE
  8
0
  6
CONTINUOUS
 62
     7
  5
4E0
 10
550.112905
 20
182.011525
 30
0.0
 11
552.712905
 21
182.011525
 31
0.0
  0
LINE
  8
0
  6
CONTINUOUS
 62
     7
  5
4E1
 10
547.112905
 20
174.338204
 30
0.0
 11
550.112905
 21
174.338204
 31
0.0
  0
LINE
  8
0
  6
CONTINUOUS
 62
     7
  5
4E2
 10
550.112905
 20
194.693181
 30
0.0
 11
547.112905
 21
194.693181
 31
0.0
  0
LINE
  8
0
  6
CONTINUOUS
 62
     7
  5
4E3
 10
550.112905
 20
202.366502
 30
0.0
 11
550.112905
 21
194.693181
 31
0.0
  0
LINE
  8
0
  6
CONTINUOUS
 62
     7
  5
4E4
 10
550.112905
 20
202.366502
 30
0.0
 11
552.712905
 21
202.366502
 31
0.0
  0
LINE
  8
0
  6
CONTINUOUS
 62
     7
  5
4E5
 10
552.712905
 20
182.011525
 30
0.0
 11
552.712905
 21
202.366502
 31
0.0
  0
LINE
  8
0
  6
CONTINUOUS
 62
     7
  5
4E6
 10
550.112905
 20
174.338204
 30
0.0
 11
550.112905
 21
182.011525
 31
0.0
  0
LINE
  8
0
  6
CONTINUOUS
 62
     7
  5
4E7
 10
547.112905
 20
194.693181
 30
0.0
 11
547.112905
 21
174.338204
 31
0.0
  0
LINE
  8
0
  6
CONTINUOUS
 62
     7
  5
4E8
 10
550.112905
 20
174.219899
 30
0.0
 11
550.112905
 21
174.338204
 31
0.0
  0
LINE
  8
0
  6
CONTINUOUS
 62
     7
  5
4E9
 10
547.112905
 20
174.338204
 30
0.0
 11
547.112905
 21
174.219899
 31
0.0
  0
LINE
  8
0
  6
CONTINUOUS
 62
     7
  5
4EA
 10
491.512905
 20
202.366502
 30
0.0
 11
494.112905
 21
202.366502
 31
0.0
  0
LINE
  8
0
  6
CONTINUOUS
 62
     7
  5
4EB
 10
494.112905
 20
194.693181
 30
0.0
 11
494.112905
 21
202.366502
 31
0.0
  0
LINE
  8
0
  6
CONTINUOUS
 62
     7
  5
4EC
 10
497.112905
 20
194.693181
 30
0.0
 11
494.112905
 21
194.693181
 31
0.0
  0
LINE
  8
0
  6
CONTINUOUS
 62
     7
  5
4ED
 10
494.112905
 20
174.338204
 30
0.0
 11
497.112905
 21
174.338204
 31
0.0
  0
LINE
  8
0
  6
CONTINUOUS
 62
     7
  5
4EE
 10
491.512905
 20
182.011525
 30
0.0
 11
494.112905
 21
182.011525
 31
0.0
  0
LINE
  8
0
  6
CONTINUOUS
 62
     7
  5
4EF
 10
491.512905
 20
202.366502
 30
0.0
 11
491.512905
 21
182.011525
 31
0.0
  0
LINE
  8
0
  6
CONTINUOUS
 62
     7
  5
4F0
 10
494.112905
 20
182.011525
 30
0.0
 11
494.112905
 21
174.338204
 31
0.0
  0
LINE
  8
0
  6
CONTINUOUS
 62
     7
  5
4F1
 10
497.112905
 20
174.338204
 30
0.0
 11
497.112905
 21
194.693181
 31
0.0
  0
LINE
  8
0
  6
CONTINUOUS
 62
     7
  5
4F2
 10
494.112905
 20
174.338204
 30
0.0
 11
494.112905
 21
174.219899
 31
0.0
  0
LINE
  8
0
  6
CONTINUOUS
 62
     7
  5
4F3
 10
497.112905
 20
174.219899
 30
0.0
 11
497.112905
 21
174.338204
 31
0.0
  0
LINE
  8
0
  6
CONTINUOUS
 62
     7
  5
4F4
 10
552.712905
 20
180.789601
 30
0.0
 11
550.112905
 21
180.789601
 31
0.0
  0
LINE
  8
0
  6
CONTINUOUS
 62
     7
  5
4F5
 10
552.712905
 20
180.789601
 30
0.0
 11
552.712905
 21
182.011525
 31
0.0
  0
LINE
  8
0
  6
CONTINUOUS
 62
     7
  5
4F6
 10
491.512905
 20
180.789601
 30
0.0
 11
494.112905
 21
180.789601
 31
0.0
  0
LINE
  8
0
  6
CONTINUOUS
 62
     7
  5
4F7
 10
491.512905
 20
182.011525
 30
0.0
 11
491.512905
 21
180.789601
 31
0.0
  0
LINE
  8
0
  6
CONTINUOUS
 62
     7
  5
4F8
 10
547.112905
 20
180.920016
 30
0.0
 11
497.112905
 21
180.920016
 31
0.0
  0
LINE
  8
0
  6
CONTINUOUS
 62
     7
  5
4F9
 10
547.112905
 20
182.260804
 30
0.0
 11
497.112905
 21
182.260804
 31
0.0
  0
LINE
  8
0
  6
CONTINUOUS
 62
     7
  5
4FA
 10
547.112905
 20
194.207292
 30
0.0
 11
497.112905
 21
194.207292
 31
0.0
  0
LINE
  8
0
  6
CONTINUOUS
 62
     7
  5
4FB
 10
553.112905
 20
174.290531
 30
0.0
 11
553.112905
 21
164.695729
 31
0.0
  0
LINE
  8
0
  6
CONTINUOUS
 62
     9
  5
4FC
 10
552.712905
 20
164.695729
 30
0.0
 11
553.112905
 21
164.695729
 31
0.0
  0
LINE
  8
0
  6
CONTINUOUS
 62
     7
  5
4FD
 10
491.112905
 20
164.695729
 30
0.0
 11
491.112905
 21
174.290531
 31
0.0
  0
LINE
  8
0
  6
CONTINUOUS
 62
     9
  5
4FE
 10
491.112905
 20
164.695729
 30
0.0
 11
491.512905
 21
164.695729
 31
0.0
  0
LINE
  8
0
  6
CONTINUOUS
 62
     7
  5
4FF
 10
553.112905
 20
164.695729
 30
0.0
 11
553.112905
 21
164.290531
 31
0.0
  0
LINE
  8
0
  6
CONTINUOUS
 62
     7
  5
500
 10
491.112905
 20
164.290531
 30
0.0
 11
491.112905
 21
164.695729
 31
0.0
  0
LINE
  8
0
  6
CONTINUOUS
 62
     7
  5
501
 10
553.112905
 20
207.156971
 30
0.0
 11
553.112905
 21
209.818829
 31
0.0
  0
LINE
  8
0
  6
CONTINUOUS
 62
     7
  5
502
 10
552.712905
 20
207.156971
 30
0.0
 11
553.112905
 21
207.156971
 31
0.0
  0
LINE
  8
0
  6
CONTINUOUS
 62
     7
  5
503
 10
550.107905
 20
205.307536
 30
0.0
 11
550.112905
 21
205.307536
 31
0.0
  0
LINE
  8
0
  6
CONTINUOUS
 62
     7
  5
504
 10
550.112905
 20
205.307536
 30
0.0
 11
550.112905
 21
202.366502
 31
0.0
  0
LINE
  8
0
  6
CONTINUOUS
 62
     7
  5
505
 10
552.712905
 20
202.366502
 30
0.0
 11
552.712905
 21
207.156971
 31
0.0
  0
LINE
  8
0
  6
CONTINUOUS
 62
     7
  5
506
 10
491.112905
 20
207.156971
 30
0.0
 11
491.112905
 21
209.818829
 31
0.0
  0
LINE
  8
0
  6
CONTINUOUS
 62
     7
  5
507
 10
494.112905
 20
205.307536
 30
0.0
 11
494.117905
 21
205.307536
 31
0.0
  0
LINE
  8
0
  6
CONTINUOUS
 62
     7
  5
508
 10
491.112905
 20
207.156971
 30
0.0
 11
491.512905
 21
207.156971
 31
0.0
  0
LINE
  8
0
  6
CONTINUOUS
 62
     7
  5
509
 10
494.112905
 20
202.366502
 30
0.0
 11
494.112905
 21
205.307536
 31
0.0
  0
LINE
  8
0
  6
CONTINUOUS
 62
     7
  5
50A
 10
491.512905
 20
207.156971
 30
0.0
 11
491.512905
 21
202.366502
 31
0.0
  0
LINE
  8
0
  6
CONTINUOUS
 62
     7
  5
50B
 10
553.112905
 20
207.156971
 30
0.0
 11
553.112905
 21
202.318829
 31
0.0
  0
LINE
  8
0
  6
CONTINUOUS
 62
     7
  5
50C
 10
491.112905
 20
202.318829
 30
0.0
 11
491.112905
 21
207.156971
 31
0.0
  0
LINE
  8
0
  6
CONTINUOUS
 62
     7
  5
50D
 10
522.327264
 20
176.844621
 30
0.0
 11
522.327264
 21
180.920016
 31
0.0
  0
LINE
  8
0
  6
CONTINUOUS
 62
     7
  5
50E
 10
519.112905
 20
176.844621
 30
0.0
 11
522.327264
 21
176.844621
 31
0.0
  0
LINE
  8
0
  6
CONTINUOUS
 62
     7
  5
50F
 10
519.112905
 20
176.844621
 30
0.0
 11
519.112905
 21
180.920016
 31
0.0
  0
LINE
  8
0
  6
CONTINUOUS
 62
     7
  5
510
 10
526.327264
 20
175.93391
 30
0.0
 11
526.327264
 21
180.920016
 31
0.0
  0
LINE
  8
0
  6
CONTINUOUS
 62
     7
  5
511
 10
522.327264
 20
176.844621
 30
0.0
 11
526.327264
 21
175.93391
 31
0.0
  0
LINE
  8
0
  6
CONTINUOUS
 62
     7
  5
512
 10
526.112905
 20
175.618431
 30
0.0
 11
522.112905
 21
176.529142
 31
0.0
  0
LINE
  8
0
  6
CONTINUOUS
 62
     7
  5
513
 10
522.112905
 20
176.529142
 30
0.0
 11
519.112905
 21
176.529142
 31
0.0
  0
LINE
  8
0
  6
CONTINUOUS
 62
     7
  5
514
 10
526.327264
 20
175.93391
 30
0.0
 11
547.112905
 21
175.93391
 31
0.0
  0
LINE
  8
0
  6
CONTINUOUS
 62
     7
  5
515
 10
547.112905
 20
175.618431
 30
0.0
 11
526.112905
 21
175.618431
 31
0.0
  0
LINE
  8
0
  6
CONTINUOUS
 62
     7
  5
516
 10
519.112905
 20
176.529142
 30
0.0
 11
519.112905
 21
176.844621
 31
0.0
  0
LINE
  8
0
  6
CONTINUOUS
 62
     7
  5
517
 10
497.112905
 20
175.618431
 30
0.0
 11
521.112905
 21
175.618431
 31
0.0
  0
LINE
  8
0
  6
CONTINUOUS
 62
     7
  5
518
 10
521.112905
 20
175.93391
 30
0.0
 11
497.112905
 21
175.93391
 31
0.0
  0
LINE
  8
0
  6
CONTINUOUS
 62
     7
  5
519
 10
521.112905
 20
175.618431
 30
0.0
 11
521.112905
 21
175.93391
 31
0.0
  0
LINE
  8
0
  6
CONTINUOUS
 62
     7
  5
51A
 10
521.112905
 20
176.529142
 30
0.0
 11
521.112905
 21
175.93391
 31
0.0
  0
LINE
  8
0
  6
CONTINUOUS
 62
     7
  5
51B
 10
550.112905
 20
202.366502
 30
0.0
 11
550.112905
 21
205.307536
 31
0.0
  0
LINE
  8
0
  6
CONTINUOUS
 62
     7
  5
51C
 10
550.112905
 20
205.307536
 30
0.0
 11
550.112905
 21
206.414388
 31
0.0
  0
LINE
  8
0
  6
CONTINUOUS
 62
     7
  5
51D
 10
547.112905
 20
206.414388
 30
0.0
 11
547.112905
 21
194.693181
 31
0.0
  0
LINE
  8
0
  6
CONTINUOUS
 62
     7
  5
51E
 10
547.112905
 20
206.414388
 30
0.0
 11
550.107905
 21
206.414388
 31
0.0
  0
LINE
  8
0
  6
CONTINUOUS
 62
     7
  5
51F
 10
550.107905
 20
206.414388
 30
0.0
 11
550.112905
 21
206.414388
 31
0.0
  0
LINE
  8
0
  6
CONTINUOUS
 62
     7
  5
520
 10
497.112905
 20
194.693181
 30
0.0
 11
497.112905
 21
206.414388
 31
0.0
  0
LINE
  8
0
  6
CONTINUOUS
 62
     7
  5
521
 10
494.112905
 20
206.414388
 30
0.0
 11
494.117905
 21
206.414388
 31
0.0
  0
LINE
  8
0
  6
CONTINUOUS
 62
     7
  5
522
 10
494.117905
 20
206.414388
 30
0.0
 11
497.112905
 21
206.414388
 31
0.0
  0
LINE
  8
0
  6
CONTINUOUS
 62
     7
  5
523
 10
494.112905
 20
206.414388
 30
0.0
 11
494.112905
 21
205.307536
 31
0.0
  0
LINE
  8
0
  6
CONTINUOUS
 62
     7
  5
524
 10
494.112905
 20
205.307536
 30
0.0
 11
494.112905
 21
202.366502
 31
0.0
  0
LINE
  8
0
  6
CONTINUOUS
 62
     7
  5
525
 10
550.112905
 20
212.360399
 30
0.0
 11
552.712905
 21
212.360399
 31
0.0
  0
LINE
  8
0
  6
CONTINUOUS
 62
     7
  5
526
 10
547.112905
 20
206.632682
 30
0.0
 11
550.112905
 21
206.632682
 31
0.0
  0
LINE
  8
0
  6
CONTINUOUS
 62
     7
  5
527
 10
550.112905
 20
221.826566
 30
0.0
 11
547.112905
 21
221.826566
 31
0.0
  0
LINE
  8
0
  6
CONTINUOUS
 62
     7
  5
528
 10
550.112905
 20
227.554283
 30
0.0
 11
550.112905
 21
221.826566
 31
0.0
  0
LINE
  8
0
  6
CONTINUOUS
 62
     7
  5
529
 10
550.112905
 20
227.554283
 30
0.0
 11
552.712905
 21
227.554283
 31
0.0
  0
LINE
  8
0
  6
CONTINUOUS
 62
     7
  5
52A
 10
552.712905
 20
212.360399
 30
0.0
 11
552.712905
 21
227.554283
 31
0.0
  0
LINE
  8
0
  6
CONTINUOUS
 62
     7
  5
52B
 10
547.112905
 20
221.826566
 30
0.0
 11
547.112905
 21
206.632682
 31
0.0
  0
LINE
  8
0
  6
CONTINUOUS
 62
     7
  5
52C
 10
550.112905
 20
206.632682
 30
0.0
 11
550.112905
 21
212.360399
 31
0.0
  0
LINE
  8
0
  6
CONTINUOUS
 62
     7
  5
52D
 10
547.112905
 20
206.632682
 30
0.0
 11
547.112905
 21
206.414388
 31
0.0
  0
LINE
  8
0
  6
CONTINUOUS
 62
     7
  5
52E
 10
550.112905
 20
206.414388
 30
0.0
 11
550.112905
 21
206.632682
 31
0.0
  0
LINE
  8
0
  6
CONTINUOUS
 62
     7
  5
52F
 10
491.512905
 20
227.554283
 30
0.0
 11
494.112905
 21
227.554283
 31
0.0
  0
LINE
  8
0
  6
CONTINUOUS
 62
     7
  5
530
 10
494.112905
 20
221.826566
 30
0.0
 11
494.112905
 21
227.554283
 31
0.0
  0
LINE
  8
0
  6
CONTINUOUS
 62
     7
  5
531
 10
497.112905
 20
221.826566
 30
0.0
 11
494.112905
 21
221.826566
 31
0.0
  0
LINE
  8
0
  6
CONTINUOUS
 62
     7
  5
532
 10
494.112905
 20
206.632682
 30
0.0
 11
497.112905
 21
206.632682
 31
0.0
  0
LINE
  8
0
  6
CONTINUOUS
 62
     7
  5
533
 10
491.512905
 20
212.360399
 30
0.0
 11
494.112905
 21
212.360399
 31
0.0
  0
LINE
  8
0
  6
CONTINUOUS
 62
     7
  5
534
 10
491.512905
 20
227.554283
 30
0.0
 11
491.512905
 21
212.360399
 31
0.0
  0
LINE
  8
0
  6
CONTINUOUS
 62
     7
  5
535
 10
494.112905
 20
212.360399
 30
0.0
 11
494.112905
 21
206.632682
 31
0.0
  0
LINE
  8
0
  6
CONTINUOUS
 62
     7
  5
536
 10
497.112905
 20
206.632682
 30
0.0
 11
497.112905
 21
221.826566
 31
0.0
  0
LINE
  8
0
  6
CONTINUOUS
 62
     7
  5
537
 10
494.112905
 20
206.632682
 30
0.0
 11
494.112905
 21
206.414388
 31
0.0
  0
LINE
  8
0
  6
CONTINUOUS
 62
     7
  5
538
 10
497.112905
 20
206.414388
 30
0.0
 11
497.112905
 21
206.632682
 31
0.0
  0
LINE
  8
0
  6
CONTINUOUS
 62
     7
  5
539
 10
553.112905
 20
202.318829
 30
0.0
 11
553.112905
 21
193.889058
 31
0.0
  0
LINE
  8
0
  6
CONTINUOUS
 62
     9
  5
53A
 10
552.712905
 20
193.889058
 30
0.0
 11
553.112905
 21
193.889058
 31
0.0
  0
LINE
  8
0
  6
CONTINUOUS
 62
     7
  5
53B
 10
491.112905
 20
193.889058
 30
0.0
 11
491.112905
 21
202.318829
 31
0.0
  0
LINE
  8
0
  6
CONTINUOUS
 62
     9
  5
53C
 10
491.112905
 20
193.889058
 30
0.0
 11
491.512905
 21
193.889058
 31
0.0
  0
LINE
  8
0
  6
CONTINUOUS
 62
     7
  5
53D
 10
553.112905
 20
193.889058
 30
0.0
 11
553.112905
 21
192.318829
 31
0.0
  0
LINE
  8
0
  6
CONTINUOUS
 62
     7
  5
53E
 10
491.112905
 20
192.318829
 30
0.0
 11
491.112905
 21
193.889058
 31
0.0
  0
LINE
  8
0
  6
CONTINUOUS
 62
     7
  5
53F
 10
552.712905
 20
210.105732
 30
0.0
 11
550.112905
 21
210.105732
 31
0.0
  0
LINE
  8
0
  6
CONTINUOUS
 62
     7
  5
540
 10
552.712905
 20
210.105732
 30
0.0
 11
552.712905
 21
212.360399
 31
0.0
  0
LINE
  8
0
  6
CONTINUOUS
 62
     7
  5
541
 10
491.512905
 20
210.105732
 30
0.0
 11
494.112905
 21
210.105732
 31
0.0
  0
LINE
  8
0
  6
CONTINUOUS
 62
     7
  5
542
 10
491.512905
 20
212.360399
 30
0.0
 11
491.512905
 21
210.105732
 31
0.0
  0
LINE
  8
0
  6
CONTINUOUS
 62
     7
  5
543
 10
547.112905
 20
209.942495
 30
0.0
 11
497.112905
 21
209.942495
 31
0.0
  0
LINE
  8
0
  6
CONTINUOUS
 62
     7
  5
544
 10
547.112905
 20
212.416487
 30
0.0
 11
497.112905
 21
212.416487
 31
0.0
  0
LINE
  8
0
  6
CONTINUOUS
 62
     7
  5
545
 10
547.112905
 20
221.333891
 30
0.0
 11
497.112905
 21
221.333891
 31
0.0
  0
LINE
  8
0
  6
CONTINUOUS
 62
     7
  5
546
 10
552.712905
 20
210.105732
 30
0.0
 11
552.712905
 21
209.818829
 31
0.0
  0
LINE
  8
0
  6
CONTINUOUS
 62
     7
  5
547
 10
491.512905
 20
209.818829
 30
0.0
 11
491.512905
 21
210.105732
 31
0.0
  0
LINE
  8
0
  6
CONTINUOUS
 62
     7
  5
548
 10
553.112905
 20
230.335403
 30
0.0
 11
553.112905
 21
230.74043
 31
0.0
  0
LINE
  8
0
  6
CONTINUOUS
 62
     7
  5
549
 10
552.712905
 20
230.335403
 30
0.0
 11
553.112905
 21
230.335403
 31
0.0
  0
LINE
  8
0
  6
CONTINUOUS
 62
     7
  5
54A
 10
550.107905
 20
229.396611
 30
0.0
 11
550.112905
 21
229.396611
 31
0.0
  0
LINE
  8
0
  6
CONTINUOUS
 62
     7
  5
54B
 10
550.112905
 20
229.396611
 30
0.0
 11
550.112905
 21
227.554283
 31
0.0
  0
LINE
  8
0
  6
CONTINUOUS
 62
     7
  5
54C
 10
552.712905
 20
227.554283
 30
0.0
 11
552.712905
 21
230.335403
 31
0.0
  0
LINE
  8
0
  6
CONTINUOUS
 62
     7
  5
54D
 10
491.112905
 20
230.335403
 30
0.0
 11
491.112905
 21
230.74043
 31
0.0
  0
LINE
  8
0
  6
CONTINUOUS
 62
     7
  5
54E
 10
494.112905
 20
229.396611
 30
0.0
 11
494.117905
 21
229.396611
 31
0.0
  0
LINE
  8
0
  6
CONTINUOUS
 62
     7
  5
54F
 10
491.112905
 20
230.335403
 30
0.0
 11
491.512905
 21
230.335403
 31
0.0
  0
LINE
  8
0
  6
CONTINUOUS
 62
     7
  5
550
 10
494.112905
 20
227.554283
 30
0.0
 11
494.112905
 21
229.396611
 31
0.0
  0
LINE
  8
0
  6
CONTINUOUS
 62
     7
  5
551
 10
491.512905
 20
230.335403
 30
0.0
 11
491.512905
 21
227.554283
 31
0.0
  0
LINE
  8
0
  6
CONTINUOUS
 62
     7
  5
552
 10
526.112905
 20
196.626207
 30
0.0
 11
522.112905
 21
198.306631
 31
0.0
  0
LINE
  8
0
  6
CONTINUOUS
 62
     7
  5
553
 10
522.112905
 20
198.306631
 30
0.0
 11
519.112905
 21
198.306631
 31
0.0
  0
LINE
  8
0
  6
CONTINUOUS
 62
     7
  5
554
 10
519.112905
 20
198.306631
 30
0.0
 11
519.112905
 21
198.888747
 31
0.0
  0
LINE
  8
0
  6
CONTINUOUS
 62
     7
  5
555
 10
519.112905
 20
198.888747
 30
0.0
 11
522.327264
 21
198.888747
 31
0.0
  0
LINE
  8
0
  6
CONTINUOUS
 62
     7
  5
556
 10
522.327264
 20
198.888747
 30
0.0
 11
526.327264
 21
197.208323
 31
0.0
  0
LINE
  8
0
  6
CONTINUOUS
 62
     7
  5
557
 10
526.327264
 20
197.208323
 30
0.0
 11
547.112905
 21
197.208323
 31
0.0
  0
LINE
  8
0
  6
CONTINUOUS
 62
     7
  5
558
 10
547.112905
 20
196.626207
 30
0.0
 11
526.112905
 21
196.626207
 31
0.0
  0
LINE
  8
0
  6
CONTINUOUS
 62
     7
  5
559
 10
526.327264
 20
197.208323
 30
0.0
 11
526.327264
 21
201.324048
 31
0.0
  0
LINE
  8
0
  6
CONTINUOUS
 62
     7
  5
55A
 10
522.327264
 20
198.888747
 30
0.0
 11
522.327264
 21
203.004472
 31
0.0
  0
LINE
  8
0
  6
CONTINUOUS
 62
     7
  5
55B
 10
526.327264
 20
201.324048
 30
0.0
 11
522.327264
 21
203.004472
 31
0.0
  0
LINE
  8
0
  6
CONTINUOUS
 62
     7
  5
55C
 10
519.112905
 20
198.888747
 30
0.0
 11
519.112905
 21
203.004472
 31
0.0
  0
LINE
  8
0
  6
CONTINUOUS
 62
     7
  5
55D
 10
522.327264
 20
203.004472
 30
0.0
 11
519.112905
 21
203.004472
 31
0.0
  0
LINE
  8
0
  6
CONTINUOUS
 62
     7
  5
55E
 10
547.112905
 20
201.324048
 30
0.0
 11
526.327264
 21
201.324048
 31
0.0
  0
LINE
  8
0
  6
CONTINUOUS
 62
     7
  5
55F
 10
497.112905
 20
201.324048
 30
0.0
 11
519.112905
 21
201.324048
 31
0.0
  0
LINE
  8
0
  6
CONTINUOUS
 62
     7
  5
560
 10
521.112905
 20
198.306631
 30
0.0
 11
521.112905
 21
197.208323
 31
0.0
  0
LINE
  8
0
  6
CONTINUOUS
 62
     7
  5
561
 10
521.112905
 20
197.208323
 30
0.0
 11
497.112905
 21
197.208323
 31
0.0
  0
LINE
  8
0
  6
CONTINUOUS
 62
     7
  5
562
 10
497.112905
 20
196.626207
 30
0.0
 11
521.112905
 21
196.626207
 31
0.0
  0
LINE
  8
0
  6
CONTINUOUS
 62
     7
  5
563
 10
521.112905
 20
196.626207
 30
0.0
 11
521.112905
 21
197.208323
 31
0.0
  0
LINE
  8
0
  6
CONTINUOUS
 62
     7
  5
564
 10
553.112905
 20
230.335403
 30
0.0
 11
553.112905
 21
223.24043
 31
0.0
  0
LINE
  8
0
  6
CONTINUOUS
 62
     7
  5
565
 10
491.112905
 20
223.24043
 30
0.0
 11
491.112905
 21
230.335403
 31
0.0
  0
LINE
  8
0
  6
CONTINUOUS
 62
     7
  5
566
 10
550.112905
 20
227.554283
 30
0.0
 11
550.112905
 21
229.396611
 31
0.0
  0
LINE
  8
0
  6
CONTINUOUS
 62
     7
  5
567
 10
550.112905
 20
229.396611
 30
0.0
 11
550.112905
 21
229.997978
 31
0.0
  0
LINE
  8
0
  6
CONTINUOUS
 62
     7
  5
568
 10
547.112905
 20
229.997978
 30
0.0
 11
547.112905
 21
221.826566
 31
0.0
  0
LINE
  8
0
  6
CONTINUOUS
 62
     7
  5
569
 10
547.112905
 20
229.997978
 30
0.0
 11
550.107905
 21
229.997978
 31
0.0
  0
LINE
  8
0
  6
CONTINUOUS
 62
     7
  5
56A
 10
550.107905
 20
229.997978
 30
0.0
 11
550.112905
 21
229.997978
 31
0.0
  0
LINE
  8
0
  6
CONTINUOUS
 62
     7
  5
56B
 10
497.112905
 20
221.826566
 30
0.0
 11
497.112905
 21
229.997978
 31
0.0
  0
LINE
  8
0
  6
CONTINUOUS
 62
     7
  5
56C
 10
494.112905
 20
229.997978
 30
0.0
 11
494.117905
 21
229.997978
 31
0.0
  0
LINE
  8
0
  6
CONTINUOUS
 62
     7
  5
56D
 10
494.117905
 20
229.997978
 30
0.0
 11
497.112905
 21
229.997978
 31
0.0
  0
LINE
  8
0
  6
CONTINUOUS
 62
     7
  5
56E
 10
494.112905
 20
229.997978
 30
0.0
 11
494.112905
 21
229.396611
 31
0.0
  0
LINE
  8
0
  6
CONTINUOUS
 62
     7
  5
56F
 10
494.112905
 20
229.396611
 30
0.0
 11
494.112905
 21
227.554283
 31
0.0
  0
LINE
  8
0
  6
CONTINUOUS
 62
     7
  5
570
 10
553.112905
 20
223.24043
 30
0.0
 11
553.112905
 21
216.542899
 31
0.0
  0
LINE
  8
0
  6
CONTINUOUS
 62
     9
  5
571
 10
552.712905
 20
216.542899
 30
0.0
 11
553.112905
 21
216.542899
 31
0.0
  0
LINE
  8
0
  6
CONTINUOUS
 62
     7
  5
572
 10
491.112905
 20
216.542899
 30
0.0
 11
491.112905
 21
223.24043
 31
0.0
  0
LINE
  8
0
  6
CONTINUOUS
 62
     9
  5
573
 10
491.112905
 20
216.542899
 30
0.0
 11
491.512905
 21
216.542899
 31
0.0
  0
LINE
  8
0
  6
CONTINUOUS
 62
     7
  5
574
 10
553.112905
 20
216.542899
 30
0.0
 11
553.112905
 21
213.24043
 31
0.0
  0
LINE
  8
0
  6
CONTINUOUS
 62
     7
  5
575
 10
491.112905
 20
213.24043
 30
0.0
 11
491.112905
 21
216.542899
 31
0.0
  0
LINE
  8
0
  6
CONTINUOUS
 62
     7
  5
576
 10
550.112905
 20
233.115036
 30
0.0
 11
552.712905
 21
233.115036
 31
0.0
  0
LINE
  8
0
  6
CONTINUOUS
 62
     7
  5
577
 10
547.112905
 20
230.280159
 30
0.0
 11
550.112905
 21
230.280159
 31
0.0
  0
LINE
  8
0
  6
CONTINUOUS
 62
     7
  5
578
 10
550.112905
 20
237.80022
 30
0.0
 11
547.112905
 21
237.80022
 31
0.0
  0
LINE
  8
0
  6
CONTINUOUS
 62
     7
  5
579
 10
550.112905
 20
240.635097
 30
0.0
 11
550.112905
 21
237.80022
 31
0.0
  0
LINE
  8
0
  6
CONTINUOUS
 62
     7
  5
57A
 10
550.112905
 20
240.635097
 30
0.0
 11
552.712905
 21
240.635097
 31
0.0
  0
LINE
  8
0
  6
CONTINUOUS
 62
     7
  5
57B
 10
552.712905
 20
233.115036
 30
0.0
 11
552.712905
 21
240.635097
 31
0.0
  0
LINE
  8
0
  6
CONTINUOUS
 62
     7
  5
57C
 10
550.112905
 20
230.280159
 30
0.0
 11
550.112905
 21
233.115036
 31
0.0
  0
LINE
  8
0
  6
CONTINUOUS
 62
     7
  5
57D
 10
547.112905
 20
237.80022
 30
0.0
 11
547.112905
 21
230.280159
 31
0.0
  0
LINE
  8
0
  6
CONTINUOUS
 62
     7
  5
57E
 10
550.112905
 20
229.997978
 30
0.0
 11
550.112905
 21
230.280159
 31
0.0
  0
LINE
  8
0
  6
CONTINUOUS
 62
     7
  5
57F
 10
547.112905
 20
230.280159
 30
0.0
 11
547.112905
 21
229.997978
 31
0.0
  0
LINE
  8
0
  6
CONTINUOUS
 62
     7
  5
580
 10
494.112905
 20
230.280159
 30
0.0
 11
497.112905
 21
230.280159
 31
0.0
  0
LINE
  8
0
  6
CONTINUOUS
 62
     7
  5
581
 10
497.112905
 20
229.997978
 30
0.0
 11
497.112905
 21
230.280159
 31
0.0
  0
LINE
  8
0
  6
CONTINUOUS
 62
     7
  5
582
 10
494.112905
 20
230.280159
 30
0.0
 11
494.112905
 21
229.997978
 31
0.0
  0
LINE
  8
0
  6
CONTINUOUS
 62
     7
  5
583
 10
491.512905
 20
240.635097
 30
0.0
 11
494.112905
 21
240.635097
 31
0.0
  0
LINE
  8
0
  6
CONTINUOUS
 62
     7
  5
584
 10
494.112905
 20
237.80022
 30
0.0
 11
494.112905
 21
240.635097
 31
0.0
  0
LINE
  8
0
  6
CONTINUOUS
 62
     7
  5
585
 10
497.112905
 20
237.80022
 30
0.0
 11
494.112905
 21
237.80022
 31
0.0
  0
LINE
  8
0
  6
CONTINUOUS
 62
     7
  5
586
 10
491.512905
 20
233.115036
 30
0.0
 11
494.112905
 21
233.115036
 31
0.0
  0
LINE
  8
0
  6
CONTINUOUS
 62
     7
  5
587
 10
491.512905
 20
240.635097
 30
0.0
 11
491.512905
 21
233.115036
 31
0.0
  0
LINE
  8
0
  6
CONTINUOUS
 62
     7
  5
588
 10
497.112905
 20
230.280159
 30
0.0
 11
497.112905
 21
237.80022
 31
0.0
  0
LINE
  8
0
  6
CONTINUOUS
 62
     7
  5
589
 10
494.112905
 20
233.115036
 30
0.0
 11
494.112905
 21
230.280159
 31
0.0
  0
LINE
  8
0
  6
CONTINUOUS
 62
     7
  5
58A
 10
552.712905
 20
230.74043
 30
0.0
 11
552.712905
 21
233.115036
 31
0.0
  0
LINE
  8
0
  6
CONTINUOUS
 62
     7
  5
58B
 10
491.512905
 20
233.115036
 30
0.0
 11
491.512905
 21
230.74043
 31
0.0
  0
LINE
  8
0
  6
CONTINUOUS
 62
     7
  5
58C
 10
547.112905
 20
232.968657
 30
0.0
 11
497.112905
 21
232.968657
 31
0.0
  0
LINE
  8
0
  6
CONTINUOUS
 62
     7
  5
58D
 10
547.112905
 20
237.382237
 30
0.0
 11
497.112905
 21
237.382237
 31
0.0
  0
LINE
  8
0
  6
CONTINUOUS
 62
     7
  5
58E
 10
547.112905
 20
229.770604
 30
0.0
 11
497.112905
 21
229.770604
 31
0.0
  0
LINE
  8
0
  6
CONTINUOUS
 62
     7
  5
58F
 10
550.107905
 20
241.095368
 30
0.0
 11
550.107905
 21
241.074037
 31
0.0
  0
LINE
  8
0
  6
CONTINUOUS
 62
     7
  5
590
 10
552.712905
 20
240.946931
 30
0.0
 11
553.112905
 21
240.946931
 31
0.0
  0
LINE
  8
0
  6
CONTINUOUS
 62
     7
  5
591
 10
550.107905
 20
241.074037
 30
0.0
 11
550.112905
 21
241.074037
 31
0.0
  0
LINE
  8
0
  6
CONTINUOUS
 62
     7
  5
592
 10
550.112905
 20
241.074037
 30
0.0
 11
550.112905
 21
240.635097
 31
0.0
  0
LINE
  8
0
  6
CONTINUOUS
 62
     7
  5
593
 10
552.712905
 20
240.635097
 30
0.0
 11
552.712905
 21
241.095368
 31
0.0
  0
LINE
  8
0
  6
CONTINUOUS
 62
     7
  5
594
 10
491.512905
 20
241.095368
 30
0.0
 11
491.512905
 21
240.635097
 31
0.0
  0
LINE
  8
0
  6
CONTINUOUS
 62
     7
  5
595
 10
494.117905
 20
241.074037
 30
0.0
 11
494.117905
 21
241.095368
 31
0.0
  0
LINE
  8
0
  6
CONTINUOUS
 62
     7
  5
596
 10
494.112905
 20
241.074037
 30
0.0
 11
494.117905
 21
241.074037
 31
0.0
  0
LINE
  8
0
  6
CONTINUOUS
 62
     7
  5
597
 10
491.112905
 20
240.946931
 30
0.0
 11
491.512905
 21
240.946931
 31
0.0
  0
LINE
  8
0
  6
CONTINUOUS
 62
     7
  5
598
 10
494.112905
 20
240.635097
 30
0.0
 11
494.112905
 21
241.074037
 31
0.0
  0
LINE
  8
0
  6
CONTINUOUS
 62
     7
  5
599
 10
553.112905
 20
240.946931
 30
0.0
 11
553.112905
 21
233.398282
 31
0.0
  0
LINE
  8
0
  6
CONTINUOUS
 62
     7
  5
59A
 10
491.112905
 20
233.398282
 30
0.0
 11
491.112905
 21
240.946931
 31
0.0
  0
LINE
  8
0
  6
CONTINUOUS
 62
     7
  5
59B
 10
550.107905
 20
80.740856
 30
0.0
 11
550.107905
 21
80.42907
 31
0.0
  0
LINE
  8
0
  6
CONTINUOUS
 62
     7
  5
59C
 10
553.112905
 20
102.557429
 30
0.0
 11
552.712905
 21
102.557429
 31
0.0
  0
LINE
  8
0
  6
CONTINUOUS
 62
     7
  5
59D
 10
553.112905
 20
82.312302
 30
0.0
 11
553.112905
 21
102.557429
 31
0.0
  0
LINE
  8
0
  6
CONTINUOUS
 62
     7
  5
59E
 10
552.712905
 20
82.312302
 30
0.0
 11
553.112905
 21
82.312302
 31
0.0
  0
LINE
  8
0
  6
CONTINUOUS
 62
     7
  5
59F
 10
552.712905
 20
78.588753
 30
0.0
 11
552.712905
 21
82.312302
 31
0.0
  0
LINE
  8
0
  6
CONTINUOUS
 62
     7
  5
5A0
 10
550.112905
 20
78.588753
 30
0.0
 11
552.712905
 21
78.588753
 31
0.0
  0
LINE
  8
0
  6
CONTINUOUS
 62
     7
  5
5A1
 10
550.112905
 20
80.42907
 30
0.0
 11
550.112905
 21
78.588753
 31
0.0
  0
LINE
  8
0
  6
CONTINUOUS
 62
     7
  5
5A2
 10
550.107905
 20
80.42907
 30
0.0
 11
550.112905
 21
80.42907
 31
0.0
  0
LINE
  8
0
  6
CONTINUOUS
 62
     7
  5
5A3
 10
491.112905
 20
82.312302
 30
0.0
 11
491.112905
 21
102.557429
 31
0.0
  0
LINE
  8
0
  6
CONTINUOUS
 62
     7
  5
5A4
 10
491.512905
 20
102.557429
 30
0.0
 11
491.112905
 21
102.557429
 31
0.0
  0
LINE
  8
0
  6
CONTINUOUS
 62
     7
  5
5A5
 10
494.112905
 20
80.42907
 30
0.0
 11
494.117905
 21
80.42907
 31
0.0
  0
LINE
  8
0
  6
CONTINUOUS
 62
     7
  5
5A6
 10
494.112905
 20
78.588753
 30
0.0
 11
494.112905
 21
80.42907
 31
0.0
  0
LINE
  8
0
  6
CONTINUOUS
 62
     7
  5
5A7
 10
491.512905
 20
78.588753
 30
0.0
 11
494.112905
 21
78.588753
 31
0.0
  0
LINE
  8
0
  6
CONTINUOUS
 62
     7
  5
5A8
 10
491.512905
 20
82.312302
 30
0.0
 11
491.512905
 21
78.588753
 31
0.0
  0
LINE
  8
0
  6
CONTINUOUS
 62
     7
  5
5A9
 10
491.112905
 20
82.312302
 30
0.0
 11
491.512905
 21
82.312302
 31
0.0
  0
LINE
  8
0
  6
CONTINUOUS
 62
     7
  5
5AA
 10
494.117905
 20
80.42907
 30
0.0
 11
494.117905
 21
80.740856
 31
0.0
  0
LINE
  8
0
  6
CONTINUOUS
 62
     7
  5
5AB
 10
550.112905
 20
78.311823
 30
0.0
 11
552.712905
 21
78.311823
 31
0.0
  0
LINE
  8
0
  6
CONTINUOUS
 62
     7
  5
5AC
 10
550.112905
 20
78.588753
 30
0.0
 11
550.112905
 21
78.311823
 31
0.0
  0
LINE
  8
0
  6
CONTINUOUS
 62
     7
  5
5AD
 10
552.712905
 20
78.311823
 30
0.0
 11
552.712905
 21
78.588753
 31
0.0
  0
LINE
  8
0
  6
CONTINUOUS
 62
     7
  5
5AE
 10
550.112905
 20
69.793732
 30
0.0
 11
552.712905
 21
69.793732
 31
0.0
  0
LINE
  8
0
  6
CONTINUOUS
 62
     7
  5
5AF
 10
550.112905
 20
66.582623
 30
0.0
 11
550.112905
 21
69.793732
 31
0.0
  0
LINE
  8
0
  6
CONTINUOUS
 62
     7
  5
5B0
 10
547.112905
 20
66.582623
 30
0.0
 11
550.112905
 21
66.582623
 31
0.0
  0
LINE
  8
0
  6
CONTINUOUS
 62
     7
  5
5B1
 10
547.112905
 20
75.100714
 30
0.0
 11
547.112905
 21
66.582623
 31
0.0
  0
LINE
  8
0
  6
CONTINUOUS
 62
     7
  5
5B2
 10
550.112905
 20
75.100714
 30
0.0
 11
547.112905
 21
75.100714
 31
0.0
  0
LINE
  8
0
  6
CONTINUOUS
 62
     7
  5
5B3
 10
550.112905
 20
78.311823
 30
0.0
 11
550.112905
 21
75.100714
 31
0.0
  0
LINE
  8
0
  6
CONTINUOUS
 62
     7
  5
5B4
 10
552.712905
 20
69.793732
 30
0.0
 11
552.712905
 21
78.311823
 31
0.0
  0
LINE
  8
0
  6
CONTINUOUS
 62
     7
  5
5B5
 10
491.512905
 20
78.311823
 30
0.0
 11
494.112905
 21
78.311823
 31
0.0
  0
LINE
  8
0
  6
CONTINUOUS
 62
     7
  5
5B6
 10
494.112905
 20
78.311823
 30
0.0
 11
494.112905
 21
78.588753
 31
0.0
  0
LINE
  8
0
  6
CONTINUOUS
 62
     7
  5
5B7
 10
491.512905
 20
78.588753
 30
0.0
 11
491.512905
 21
78.311823
 31
0.0
  0
LINE
  8
0
  6
CONTINUOUS
 62
     7
  5
5B8
 10
497.112905
 20
75.100714
 30
0.0
 11
494.112905
 21
75.100714
 31
0.0
  0
LINE
  8
0
  6
CONTINUOUS
 62
     7
  5
5B9
 10
497.112905
 20
66.582623
 30
0.0
 11
497.112905
 21
75.100714
 31
0.0
  0
LINE
  8
0
  6
CONTINUOUS
 62
     7
  5
5BA
 10
494.112905
 20
66.582623
 30
0.0
 11
497.112905
 21
66.582623
 31
0.0
  0
LINE
  8
0
  6
CONTINUOUS
 62
     7
  5
5BB
 10
494.112905
 20
69.793732
 30
0.0
 11
494.112905
 21
66.582623
 31
0.0
  0
LINE
  8
0
  6
CONTINUOUS
 62
     7
  5
5BC
 10
491.512905
 20
69.793732
 30
0.0
 11
494.112905
 21
69.793732
 31
0.0
  0
LINE
  8
0
  6
CONTINUOUS
 62
     7
  5
5BD
 10
494.112905
 20
75.100714
 30
0.0
 11
494.112905
 21
78.311823
 31
0.0
  0
LINE
  8
0
  6
CONTINUOUS
 62
     7
  5
5BE
 10
491.512905
 20
78.311823
 30
0.0
 11
491.512905
 21
69.793732
 31
0.0
  0
LINE
  8
0
  6
CONTINUOUS
 62
     7
  5
5BF
 10
547.112905
 20
75.100714
 30
0.0
 11
547.112905
 21
77.627482
 31
0.0
  0
LINE
  8
0
  6
CONTINUOUS
 62
     7
  5
5C0
 10
497.112905
 20
77.627482
 30
0.0
 11
497.112905
 21
75.100714
 31
0.0
  0
LINE
  8
0
  6
CONTINUOUS
 62
     7
  5
5C1
 10
547.112905
 20
70.224487
 30
0.0
 11
497.112905
 21
70.224487
 31
0.0
  0
LINE
  8
0
  6
CONTINUOUS
 62
     7
  5
5C2
 10
547.112905
 20
75.223818
 30
0.0
 11
497.112905
 21
75.223818
 31
0.0
  0
LINE
  8
0
  6
CONTINUOUS
 62
     7
  5
5C3
 10
547.112905
 20
78.138739
 30
0.0
 11
497.112905
 21
78.138739
 31
0.0
  0
LINE
  8
0
  6
CONTINUOUS
 62
     7
  5
5C4
 10
497.112905
 20
78.265571
 30
0.0
 11
547.112905
 21
78.265571
 31
0.0
  0
LINE
  8
0
  6
CONTINUOUS
 62
     7
  5
5C5
 10
550.112905
 20
65.898282
 30
0.0
 11
550.112905
 21
66.412979
 31
0.0
  0
LINE
  8
0
  6
CONTINUOUS
 62
     7
  5
5C6
 10
550.112905
 20
66.412979
 30
0.0
 11
550.112905
 21
66.582623
 31
0.0
  0
LINE
  8
0
  6
CONTINUOUS
 62
     7
  5
5C7
 10
547.112905
 20
66.582623
 30
0.0
 11
547.112905
 21
65.898282
 31
0.0
  0
LINE
  8
0
  6
CONTINUOUS
 62
     7
  5
5C8
 10
497.112905
 20
65.898282
 30
0.0
 11
497.112905
 21
66.582623
 31
0.0
  0
LINE
  8
0
  6
CONTINUOUS
 62
     7
  5
5C9
 10
494.112905
 20
66.582623
 30
0.0
 11
494.112905
 21
66.412979
 31
0.0
  0
LINE
  8
0
  6
CONTINUOUS
 62
     7
  5
5CA
 10
494.112905
 20
66.412979
 30
0.0
 11
494.112905
 21
65.898282
 31
0.0
  0
LINE
  8
0
  6
CONTINUOUS
 62
     7
  5
5CB
 10
552.712905
 20
67.432426
 30
0.0
 11
553.112905
 21
67.432426
 31
0.0
  0
LINE
  8
0
  6
CONTINUOUS
 62
     7
  5
5CC
 10
552.712905
 20
65.898282
 30
0.0
 11
552.712905
 21
67.432426
 31
0.0
  0
LINE
  8
0
  6
CONTINUOUS
 62
     7
  5
5CD
 10
550.112905
 20
65.898282
 30
0.0
 11
552.712905
 21
65.898282
 31
0.0
  0
LINE
  8
0
  6
CONTINUOUS
 62
     7
  5
5CE
 10
550.112905
 20
66.412979
 30
0.0
 11
550.112905
 21
65.898282
 31
0.0
  0
LINE
  8
0
  6
CONTINUOUS
 62
     7
  5
5CF
 10
550.107905
 20
66.412979
 30
0.0
 11
550.112905
 21
66.412979
 31
0.0
  0
LINE
  8
0
  6
CONTINUOUS
 62
     7
  5
5D0
 10
550.107905
 20
66.582623
 30
0.0
 11
550.107905
 21
66.412979
 31
0.0
  0
LINE
  8
0
  6
CONTINUOUS
 62
     7
  5
5D1
 10
553.112905
 20
67.432426
 30
0.0
 11
553.112905
 21
82.312302
 31
0.0
  0
LINE
  8
0
  6
CONTINUOUS
 62
     7
  5
5D2
 10
494.117905
 20
66.412979
 30
0.0
 11
494.117905
 21
66.582623
 31
0.0
  0
LINE
  8
0
  6
CONTINUOUS
 62
     7
  5
5D3
 10
494.112905
 20
66.412979
 30
0.0
 11
494.117905
 21
66.412979
 31
0.0
  0
LINE
  8
0
  6
CONTINUOUS
 62
     7
  5
5D4
 10
494.112905
 20
65.898282
 30
0.0
 11
494.112905
 21
66.412979
 31
0.0
  0
LINE
  8
0
  6
CONTINUOUS
 62
     7
  5
5D5
 10
491.512905
 20
67.432426
 30
0.0
 11
491.512905
 21
65.898282
 31
0.0
  0
LINE
  8
0
  6
CONTINUOUS
 62
     7
  5
5D6
 10
491.112905
 20
67.432426
 30
0.0
 11
491.512905
 21
67.432426
 31
0.0
  0
LINE
  8
0
  6
CONTINUOUS
 62
     7
  5
5D7
 10
491.112905
 20
67.432426
 30
0.0
 11
491.112905
 21
82.312302
 31
0.0
  0
LINE
  8
0
  6
CONTINUOUS
 62
     7
  5
5D8
 10
550.112905
 20
65.598282
 30
0.0
 11
552.712905
 21
65.598282
 31
0.0
  0
LINE
  8
0
  6
CONTINUOUS
 62
     7
  5
5D9
 10
550.112905
 20
65.898282
 30
0.0
 11
550.112905
 21
65.598282
 31
0.0
  0
LINE
  8
0
  6
CONTINUOUS
 62
     7
  5
5DA
 10
552.712905
 20
65.598282
 30
0.0
 11
552.712905
 21
65.898282
 31
0.0
  0
LINE
  8
0
  6
CONTINUOUS
 62
     7
  5
5DB
 10
547.112905
 20
69.056039
 30
0.0
 11
497.112905
 21
69.056039
 31
0.0
  0
LINE
  8
0
  6
CONTINUOUS
 62
     7
  5
5DC
 10
497.112905
 20
69.298282
 30
0.0
 11
547.112905
 21
69.298282
 31
0.0
  0
LINE
  8
0
  6
CONTINUOUS
 62
     7
  5
5DD
 10
547.112905
 20
65.598282
 30
0.0
 11
547.112905
 21
65.898282
 31
0.0
  0
LINE
  8
0
  6
CONTINUOUS
 62
     7
  5
5DE
 10
550.112905
 20
65.598282
 30
0.0
 11
547.112905
 21
65.598282
 31
0.0
  0
LINE
  8
0
  6
CONTINUOUS
 62
     7
  5
5DF
 10
547.112905
 20
65.898282
 30
0.0
 11
542.112905
 21
65.898282
 31
0.0
  0
LINE
  8
0
  6
CONTINUOUS
 62
     7
  5
5E0
 10
462.112905
 20
156.898282
 30
0.0
 11
487.112905
 21
156.898282
 31
0.0
  0
LINE
  8
0
  6
CONTINUOUS
 62
     7
  5
5E1
 10
462.112905
 20
246.898282
 30
0.0
 11
462.112905
 21
156.898282
 31
0.0
  0
LINE
  8
0
  6
CONTINUOUS
 62
     7
  5
5E2
 10
552.112905
 20
241.198282
 30
0.0
 11
552.112905
 21
246.898282
 31
0.0
  0
LINE
  8
0
  6
CONTINUOUS
 62
     7
  5
5E3
 10
491.112905
 20
240.898282
 30
0.0
 11
487.112905
 21
240.898282
 31
0.0
  0
LINE
  8
0
  6
CONTINUOUS
 62
     7
  5
5E4
 10
552.112905
 20
246.898282
 30
0.0
 11
462.112905
 21
246.898282
 31
0.0
  0
LINE
  8
0
  6
CONTINUOUS
 62
     7
  5
5E5
 10
487.112905
 20
240.898282
 30
0.0
 11
487.112905
 21
156.898282
 31
0.0
  0
LINE
  8
0
  6
CONTINUOUS
 62
     7
  5
5E6
 10
486.112905
 20
252.898282
 30
0.0
 11
476.112905
 21
252.898282
 31
0.0
  0
LINE
  8
0
  6
CONTINUOUS
 62
     7
  5
5E7
 10
473.112905
 20
252.898282
 30
0.0
 11
463.112905
 21
252.898282
 31
0.0
  0
LINE
  8
0
  6
CONTINUOUS
 62
     7
  5
5E8
 10
478.112905
 20
149.398282
 30
0.0
 11
484.112905
 21
149.398282
 31
0.0
  0
LINE
  8
0
  6
CONTINUOUS
 62
     7
  5
5E9
 10
465.112905
 20
149.398282
 30
0.0
 11
471.112905
 21
149.398282
 31
0.0
  0
LINE
  8
0
  6
CONTINUOUS
 62
     7
  5
5EA
 10
470.612905
 20
148.898282
 30
0.0
 11
465.612905
 21
148.898282
 31
0.0
  0
LINE
  8
0
  6
CONTINUOUS
 62
     7
  5
5EB
 10
483.612905
 20
148.898282
 30
0.0
 11
478.612905
 21
148.898282
 31
0.0
  0
LINE
  8
0
  6
CONTINUOUS
 62
     7
  5
5EC
 10
541.112905
 20
237.498282
 30
0.0
 11
541.112905
 21
237.382237
 31
0.0
  0
LINE
  8
0
  6
CONTINUOUS
 62
     7
  5
5ED
 10
503.112905
 20
237.382237
 30
0.0
 11
503.112905
 21
237.498282
 31
0.0
  0
LINE
  8
0
  6
CONTINUOUS
 62
     7
  5
5EE
 10
482.112905
 20
62.898282
 30
0.0
 11
482.112905
 21
92.898282
 31
0.0
  0
LINE
  8
0
  6
CONTINUOUS
 62
     7
  5
5EF
 10
482.112905
 20
92.898282
 30
0.0
 11
485.112905
 21
92.898282
 31
0.0
  0
LINE
  8
0
  6
CONTINUOUS
 62
     7
  5
5F0
 10
485.112905
 20
92.898282
 30
0.0
 11
485.112905
 21
65.898282
 31
0.0
  0
LINE
  8
0
  6
CONTINUOUS
 62
     7
  5
5F1
 10
485.112905
 20
65.898282
 30
0.0
 11
537.112905
 21
65.898282
 31
0.0
  0
LINE
  8
0
  6
CONTINUOUS
 62
     7
  5
5F2
 10
537.112905
 20
62.898282
 30
0.0
 11
537.112905
 21
65.898282
 31
0.0
  0
LINE
  8
0
  6
CONTINUOUS
 62
     7
  5
5F3
 10
537.112905
 20
62.898282
 30
0.0
 11
482.112905
 21
62.898282
 31
0.0
  0
LINE
  8
0
  6
CONTINUOUS
 62
     7
  5
5F4
 10
471.312905
 20
89.898282
 30
0.0
 11
477.312905
 21
89.898282
 31
0.0
  0
LINE
  8
0
  6
CONTINUOUS
 62
     7
  5
5F5
 10
471.312905
 20
75.898282
 30
0.0
 11
477.312905
 21
75.898282
 31
0.0
  0
LINE
  8
0
  6
CONTINUOUS
 62
     7
  5
5F6
 10
477.312905
 20
89.898282
 30
0.0
 11
477.312905
 21
75.898282
 31
0.0
  0
LINE
  8
0
  6
CONTINUOUS
 62
     7
  5
5F7
 10
471.312905
 20
89.898282
 30
0.0
 11
471.312905
 21
75.898282
 31
0.0
  0
LINE
  8
0
  6
CONTINUOUS
 62
     7
  5
5F8
 10
542.112905
 20
65.898282
 30
0.0
 11
542.112905
 21
62.898282
 31
0.0
  0
LINE
  8
0
  6
CONTINUOUS
 62
     7
  5
5F9
 10
542.112905
 20
62.898282
 30
0.0
 11
537.112905
 21
62.898282
 31
0.0
  0
LINE
  8
0
  6
CONTINUOUS
 62
     7
  5
5FA
 10
537.112905
 20
65.898282
 30
0.0
 11
542.112905
 21
65.898282
 31
0.0
  0
LINE
  8
0
  6
CONTINUOUS
 62
     7
  5
5FB
 10
489.112905
 20
80.011531
 30
0.0
 11
485.112905
 21
80.011531
 31
0.0
  0
LINE
  8
0
  6
CONTINUOUS
 62
     7
  5
5FC
 10
489.112905
 20
80.011531
 30
0.0
 11
489.112905
 21
77.124779
 31
0.0
  0
LINE
  8
0
  6
CONTINUOUS
 62
     7
  5
5FD
 10
489.112905
 20
77.124779
 30
0.0
 11
485.112905
 21
77.124779
 31
0.0
  0
LINE
  8
0
  6
CONTINUOUS
 62
     7
  5
5FE
 10
489.112905
 20
88.671785
 30
0.0
 11
485.112905
 21
88.671785
 31
0.0
  0
LINE
  8
0
  6
CONTINUOUS
 62
     7
  5
5FF
 10
489.112905
 20
88.671785
 30
0.0
 11
489.112905
 21
85.785033
 31
0.0
  0
LINE
  8
0
  6
CONTINUOUS
 62
     7
  5
600
 10
489.112905
 20
85.785033
 30
0.0
 11
485.112905
 21
85.785033
 31
0.0
  0
LINE
  8
0
  6
CONTINUOUS
 62
     7
  5
601
 10
489.112905
 20
85.785033
 30
0.0
 11
489.112905
 21
80.011531
 31
0.0
  0
LINE
  8
0
  6
CONTINUOUS
 62
     7
  5
602
 10
553.112905
 20
67.432426
 30
0.0
 11
553.112905
 21
65.898282
 31
0.0
  0
LINE
  8
0
  6
CONTINUOUS
 62
     7
  5
603
 10
553.112905
 20
65.898282
 30
0.0
 11
552.712905
 21
65.898282
 31
0.0
  0
LINE
  8
0
  6
CONTINUOUS
 62
     7
  5
604
 10
491.112905
 20
65.898282
 30
0.0
 11
491.112905
 21
67.432426
 31
0.0
  0
LINE
  8
0
  6
CONTINUOUS
 62
     7
  5
605
 10
541.112905
 20
69.298282
 30
0.0
 11
541.112905
 21
70.224487
 31
0.0
  0
LINE
  8
0
  6
CONTINUOUS
 62
     7
  5
606
 10
503.112905
 20
70.224487
 30
0.0
 11
503.112905
 21
69.298282
 31
0.0
  0
LINE
  8
0
  6
CONTINUOUS
 62
     7
  5
607
 10
553.112905
 20
233.398282
 30
0.0
 11
552.712905
 21
233.398282
 31
0.0
  0
LINE
  8
0
  6
CONTINUOUS
 62
     7
  5
608
 10
491.512905
 20
233.398282
 30
0.0
 11
491.112905
 21
233.398282
 31
0.0
  0
LINE
  8
0
  6
CONTINUOUS
 62
     7
  5
609
 10
553.112905
 20
123.3636
 30
0.0
 11
552.712905
 21
123.3636
 31
0.0
  0
LINE
  8
0
  6
CONTINUOUS
 62
     7
  5
60A
 10
491.512905
 20
123.3636
 30
0.0
 11
491.112905
 21
123.3636
 31
0.0
  0
LINE
  8
0
  6
CONTINUOUS
 62
     7
  5
60B
 10
547.112905
 20
77.627482
 30
0.0
 11
550.112905
 21
77.627482
 31
0.0
  0
LINE
  8
0
  6
CONTINUOUS
 62
     7
  5
60C
 10
494.112905
 20
77.627482
 30
0.0
 11
497.112905
 21
77.627482
 31
0.0
  0
LINE
  8
0
  6
CONTINUOUS
 62
     7
  5
60D
 10
553.112905
 20
151.290796
 30
0.0
 11
552.712905
 21
151.290796
 31
0.0
  0
LINE
  8
0
  6
CONTINUOUS
 62
     7
  5
60E
 10
491.512905
 20
151.290796
 30
0.0
 11
491.112905
 21
151.290796
 31
0.0
  0
LINE
  8
0
  6
CONTINUOUS
 62
     7
  5
60F
 10
547.112905
 20
98.3636
 30
0.0
 11
550.107905
 21
98.3636
 31
0.0
  0
LINE
  8
0
  6
CONTINUOUS
 62
     7
  5
610
 10
494.117905
 20
98.3636
 30
0.0
 11
497.112905
 21
98.3636
 31
0.0
  0
LINE
  8
0
  6
CONTINUOUS
 62
     7
  5
611
 10
552.712905
 20
105.8636
 30
0.0
 11
553.112905
 21
105.8636
 31
0.0
  0
LINE
  8
0
  6
CONTINUOUS
 62
     7
  5
612
 10
491.112905
 20
105.8636
 30
0.0
 11
491.512905
 21
105.8636
 31
0.0
  0
LINE
  8
0
  6
CONTINUOUS
 62
     7
  5
613
 10
553.112905
 20
181.790531
 30
0.0
 11
552.712905
 21
181.790531
 31
0.0
  0
LINE
  8
0
  6
CONTINUOUS
 62
     7
  5
614
 10
491.512905
 20
181.790531
 30
0.0
 11
491.112905
 21
181.790531
 31
0.0
  0
LINE
  8
0
  6
CONTINUOUS
 62
     7
  5
615
 10
553.112905
 20
174.290531
 30
0.0
 11
552.712905
 21
174.290531
 31
0.0
  0
LINE
  8
0
  6
CONTINUOUS
 62
     7
  5
616
 10
491.512905
 20
174.290531
 30
0.0
 11
491.112905
 21
174.290531
 31
0.0
  0
LINE
  8
0
  6
CONTINUOUS
 62
     7
  5
617
 10
552.712905
 20
164.290531
 30
0.0
 11
553.112905
 21
164.290531
 31
0.0
  0
LINE
  8
0
  6
CONTINUOUS
 62
     7
  5
618
 10
491.112905
 20
164.290531
 30
0.0
 11
491.512905
 21
164.290531
 31
0.0
  0
LINE
  8
0
  6
CONTINUOUS
 62
     7
  5
619
 10
553.112905
 20
209.818829
 30
0.0
 11
550.112905
 21
209.818829
 31
0.0
  0
LINE
  8
0
  6
CONTINUOUS
 62
     7
  5
61A
 10
494.112905
 20
209.818829
 30
0.0
 11
491.112905
 21
209.818829
 31
0.0
  0
LINE
  8
0
  6
CONTINUOUS
 62
     7
  5
61B
 10
553.112905
 20
202.318829
 30
0.0
 11
552.712905
 21
202.318829
 31
0.0
  0
LINE
  8
0
  6
CONTINUOUS
 62
     7
  5
61C
 10
491.512905
 20
202.318829
 30
0.0
 11
491.112905
 21
202.318829
 31
0.0
  0
LINE
  8
0
  6
CONTINUOUS
 62
     7
  5
61D
 10
552.712905
 20
192.318829
 30
0.0
 11
553.112905
 21
192.318829
 31
0.0
  0
LINE
  8
0
  6
CONTINUOUS
 62
     7
  5
61E
 10
491.112905
 20
192.318829
 30
0.0
 11
491.512905
 21
192.318829
 31
0.0
  0
LINE
  8
0
  6
CONTINUOUS
 62
     7
  5
61F
 10
553.112905
 20
230.74043
 30
0.0
 11
550.112905
 21
230.74043
 31
0.0
  0
LINE
  8
0
  6
CONTINUOUS
 62
     7
  5
620
 10
494.112905
 20
230.74043
 30
0.0
 11
491.112905
 21
230.74043
 31
0.0
  0
LINE
  8
0
  6
CONTINUOUS
 62
     7
  5
621
 10
553.112905
 20
223.24043
 30
0.0
 11
552.712905
 21
223.24043
 31
0.0
  0
LINE
  8
0
  6
CONTINUOUS
 62
     7
  5
622
 10
491.512905
 20
223.24043
 30
0.0
 11
491.112905
 21
223.24043
 31
0.0
  0
LINE
  8
0
  6
CONTINUOUS
 62
     7
  5
623
 10
552.712905
 20
213.24043
 30
0.0
 11
553.112905
 21
213.24043
 31
0.0
  0
LINE
  8
0
  6
CONTINUOUS
 62
     7
  5
624
 10
491.112905
 20
213.24043
 30
0.0
 11
491.512905
 21
213.24043
 31
0.0
  0
LINE
  8
0
  6
CONTINUOUS
 62
     7
  5
625
 10
552.712905
 20
241.095368
 30
0.0
 11
550.112905
 21
241.095368
 31
0.0
  0
LINE
  8
0
  6
CONTINUOUS
 62
     7
  5
626
 10
494.112905
 20
241.095368
 30
0.0
 11
491.512905
 21
241.095368
 31
0.0
  0
LINE
  8
0
  6
CONTINUOUS
 62
     7
  5
627
 10
547.112905
 20
65.898282
 30
0.0
 11
550.112905
 21
65.898282
 31
0.0
  0
LINE
  8
0
  6
CONTINUOUS
 62
     7
  5
628
 10
486.112905
 20
246.898282
 30
0.0
 11
486.112905
 21
252.898282
 31
0.0
  0
LINE
  8
0
  6
CONTINUOUS
 62
     7
  5
629
 10
476.112905
 20
252.898282
 30
0.0
 11
476.112905
 21
246.898282
 31
0.0
  0
LINE
  8
0
  6
CONTINUOUS
 62
     7
  5
62A
 10
473.112905
 20
246.898282
 30
0.0
 11
473.112905
 21
252.898282
 31
0.0
  0
LINE
  8
0
  6
CONTINUOUS
 62
     7
  5
62B
 10
463.112905
 20
252.898282
 30
0.0
 11
463.112905
 21
246.898282
 31
0.0
  0
LINE
  8
0
  6
CONTINUOUS
 62
     7
  5
62C
 10
478.112905
 20
156.898282
 30
0.0
 11
478.112905
 21
149.398282
 31
0.0
  0
LINE
  8
0
  6
CONTINUOUS
 62
     7
  5
62D
 10
484.112905
 20
149.398282
 30
0.0
 11
484.112905
 21
156.898282
 31
0.0
  0
LINE
  8
0
  6
CONTINUOUS
 62
     7
  5
62E
 10
465.112905
 20
156.898282
 30
0.0
 11
465.112905
 21
149.398282
 31
0.0
  0
LINE
  8
0
  6
CONTINUOUS
 62
     7
  5
62F
 10
471.112905
 20
149.398282
 30
0.0
 11
471.112905
 21
156.898282
 31
0.0
  0
LINE
  8
0
  6
CONTINUOUS
 62
     7
  5
630
 10
465.112905
 20
149.398282
 30
0.0
 11
465.612905
 21
148.898282
 31
0.0
  0
LINE
  8
0
  6
CONTINUOUS
 62
     7
  5
631
 10
470.612905
 20
148.898282
 30
0.0
 11
471.112905
 21
149.398282
 31
0.0
  0
LINE
  8
0
  6
CONTINUOUS
 62
     7
  5
632
 10
478.112905
 20
149.398282
 30
0.0
 11
478.612905
 21
148.898282
 31
0.0
  0
LINE
  8
0
  6
CONTINUOUS
 62
     7
  5
633
 10
483.612905
 20
148.898282
 30
0.0
 11
484.112905
 21
149.398282
 31
0.0
  0
LINE
  8
0
  6
CONTINUOUS
 62
     7
  5
634
 10
482.112905
 20
85.898282
 30
0.0
 11
477.312905
 21
85.898282
 31
0.0
  0
LINE
  8
0
  6
CONTINUOUS
 62
     7
  5
635
 10
477.312905
 20
79.898282
 30
0.0
 11
482.112905
 21
79.898282
 31
0.0
  0
ENDBLK
  8
0
  5
636
  0
BLOCK
  8
0
  5
639
  2
AID3103
 70
     0
 10
0.0
 20
0.0
 30
0.0
  3
#auxiliary draft view
  0
LINE
  8
0
  6
CONTINUOUS
 62
     7
  5
63A
 10
194.281006
 20
451.478476
 30
0.0
 11
194.281006
 21
454.078476
 31
0.0
  0
LINE
  8
0
  6
CONTINUOUS
 62
     7
  5
63B
 10
202.631006
 20
451.478476
 30
0.0
 11
194.281006
 21
451.478476
 31
0.0
  0
LINE
  8
0
  6
CONTINUOUS
 62
     7
  5
63C
 10
202.631006
 20
448.478476
 30
0.0
 11
202.631006
 21
451.478476
 31
0.0
  0
LINE
  8
0
  6
CONTINUOUS
 62
     7
  5
63D
 10
180.481006
 20
448.478476
 30
0.0
 11
202.631006
 21
448.478476
 31
0.0
  0
LINE
  8
0
  6
CONTINUOUS
 62
     7
  5
63E
 10
180.481006
 20
451.478476
 30
0.0
 11
180.481006
 21
448.478476
 31
0.0
  0
LINE
  8
0
  6
CONTINUOUS
 62
     7
  5
63F
 10
172.131006
 20
451.478476
 30
0.0
 11
172.131006
 21
454.078476
 31
0.0
  0
LINE
  8
0
  6
CONTINUOUS
 62
     7
  5
640
 10
194.281006
 20
454.078476
 30
0.0
 11
172.131006
 21
454.078476
 31
0.0
  0
LINE
  8
0
  6
CONTINUOUS
 62
     7
  5
641
 10
172.131006
 20
451.478476
 30
0.0
 11
180.481006
 21
451.478476
 31
0.0
  0
LINE
  8
0
  6
CONTINUOUS
 62
     7
  5
642
 10
166.131006
 20
454.478476
 30
0.0
 11
159.631006
 21
454.478476
 31
0.0
  0
LINE
  8
0
  6
CONTINUOUS
 62
     7
  5
643
 10
166.131006
 20
454.078476
 30
0.0
 11
166.131006
 21
454.478476
 31
0.0
  0
LINE
  8
0
  6
CONTINUOUS
 62
     7
  5
644
 10
172.131006
 20
454.078476
 30
0.0
 11
166.131006
 21
454.078476
 31
0.0
  0
LINE
  8
0
  6
CONTINUOUS
 62
     7
  5
645
 10
202.631006
 20
448.478476
 30
0.0
 11
210.981006
 21
448.478476
 31
0.0
  0
LINE
  8
0
  6
CONTINUOUS
 62
     7
  5
646
 10
193.881006
 20
448.478476
 30
0.0
 11
193.881006
 21
443.478476
 31
0.0
  0
LINE
  8
0
  6
CONTINUOUS
 62
     7
  5
647
 10
180.881006
 20
448.478476
 30
0.0
 11
180.881006
 21
443.478476
 31
0.0
  0
LINE
  8
0
  6
CONTINUOUS
 62
     7
  5
648
 10
197.631006
 20
454.478476
 30
0.0
 11
197.631006
 21
454.078476
 31
0.0
  0
LINE
  8
0
  6
CONTINUOUS
 62
     7
  5
649
 10
197.631006
 20
454.478476
 30
0.0
 11
207.631006
 21
454.478476
 31
0.0
  0
LINE
  8
0
  6
CONTINUOUS
 62
     7
  5
64A
 10
207.631006
 20
454.078476
 30
0.0
 11
207.631006
 21
454.478476
 31
0.0
  0
LINE
  8
0
  6
CONTINUOUS
 62
     7
  5
64B
 10
215.131006
 20
454.478476
 30
0.0
 11
208.631006
 21
454.478476
 31
0.0
  0
LINE
  8
0
  6
CONTINUOUS
 62
     7
  5
64C
 10
208.631006
 20
454.478476
 30
0.0
 11
208.631006
 21
454.078476
 31
0.0
  0
LINE
  8
0
  6
CONTINUOUS
 62
     7
  5
64D
 10
276.131006
 20
454.478476
 30
0.0
 11
269.631006
 21
454.478476
 31
0.0
  0
LINE
  8
0
  6
CONTINUOUS
 62
     7
  5
64E
 10
269.631006
 20
454.478476
 30
0.0
 11
269.631006
 21
454.078476
 31
0.0
  0
LINE
  8
0
  6
CONTINUOUS
 62
     7
  5
64F
 10
245.631006
 20
454.478476
 30
0.0
 11
239.131006
 21
454.478476
 31
0.0
  0
LINE
  8
0
  6
CONTINUOUS
 62
     7
  5
650
 10
239.131006
 20
454.478476
 30
0.0
 11
239.131006
 21
454.078476
 31
0.0
  0
LINE
  8
0
  6
CONTINUOUS
 62
     7
  5
651
 10
184.631006
 20
454.478476
 30
0.0
 11
178.131006
 21
454.478476
 31
0.0
  0
LINE
  8
0
  6
CONTINUOUS
 62
     7
  5
652
 10
178.131006
 20
454.478476
 30
0.0
 11
178.131006
 21
454.078476
 31
0.0
  0
LINE
  8
0
  6
CONTINUOUS
 62
     7
  5
653
 10
108.554088
 20
451.478476
 30
0.0
 11
105.590392
 21
451.478476
 31
0.0
  0
LINE
  8
0
  6
CONTINUOUS
 62
     7
  5
654
 10
105.590392
 20
451.478476
 30
0.0
 11
104.978097
 21
451.478476
 31
0.0
  0
LINE
  8
0
  6
CONTINUOUS
 62
     7
  5
655
 10
104.978097
 20
448.478476
 30
0.0
 11
116.261959
 21
448.478476
 31
0.0
  0
LINE
  8
0
  6
CONTINUOUS
 62
     7
  5
656
 10
104.978097
 20
448.478476
 30
0.0
 11
104.978097
 21
451.473476
 31
0.0
  0
LINE
  8
0
  6
CONTINUOUS
 62
     7
  5
657
 10
104.978097
 20
451.473476
 30
0.0
 11
104.978097
 21
451.478476
 31
0.0
  0
LINE
  8
0
  6
CONTINUOUS
 62
     7
  5
658
 10
116.261959
 20
398.478476
 30
0.0
 11
104.978097
 21
398.478476
 31
0.0
  0
LINE
  8
0
  6
CONTINUOUS
 62
     7
  5
659
 10
104.978097
 20
395.478476
 30
0.0
 11
104.978097
 21
395.483476
 31
0.0
  0
LINE
  8
0
  6
CONTINUOUS
 62
     7
  5
65A
 10
104.978097
 20
395.483476
 30
0.0
 11
104.978097
 21
398.478476
 31
0.0
  0
LINE
  8
0
  6
CONTINUOUS
 62
     7
  5
65B
 10
104.978097
 20
395.478476
 30
0.0
 11
105.590392
 21
395.478476
 31
0.0
  0
LINE
  8
0
  6
CONTINUOUS
 62
     7
  5
65C
 10
105.590392
 20
395.478476
 30
0.0
 11
108.554088
 21
395.478476
 31
0.0
  0
LINE
  8
0
  6
CONTINUOUS
 62
     7
  5
65D
 10
104.774136
 20
448.478476
 30
0.0
 11
104.774136
 21
451.478476
 31
0.0
  0
LINE
  8
0
  6
CONTINUOUS
 62
     7
  5
65E
 10
104.774136
 20
448.478476
 30
0.0
 11
104.978097
 21
448.478476
 31
0.0
  0
LINE
  8
0
  6
CONTINUOUS
 62
     7
  5
65F
 10
104.978097
 20
451.478476
 30
0.0
 11
104.774136
 21
451.478476
 31
0.0
  0
LINE
  8
0
  6
CONTINUOUS
 62
     7
  5
660
 10
98.650829
 20
451.478476
 30
0.0
 11
98.650829
 21
454.078476
 31
0.0
  0
LINE
  8
0
  6
CONTINUOUS
 62
     7
  5
661
 10
88.530873
 20
451.478476
 30
0.0
 11
88.530873
 21
448.478476
 31
0.0
  0
LINE
  8
0
  6
CONTINUOUS
 62
     7
  5
662
 10
82.407566
 20
451.478476
 30
0.0
 11
88.530873
 21
451.478476
 31
0.0
  0
LINE
  8
0
  6
CONTINUOUS
 62
     7
  5
663
 10
82.407566
 20
451.478476
 30
0.0
 11
82.407566
 21
454.078476
 31
0.0
  0
LINE
  8
0
  6
CONTINUOUS
 62
     7
  5
664
 10
98.650829
 20
454.078476
 30
0.0
 11
82.407566
 21
454.078476
 31
0.0
  0
LINE
  8
0
  6
CONTINUOUS
 62
     7
  5
665
 10
88.530873
 20
448.478476
 30
0.0
 11
104.774136
 21
448.478476
 31
0.0
  0
LINE
  8
0
  6
CONTINUOUS
 62
     7
  5
666
 10
104.774136
 20
451.478476
 30
0.0
 11
98.650829
 21
451.478476
 31
0.0
  0
LINE
  8
0
  6
CONTINUOUS
 62
     7
  5
667
 10
82.407566
 20
392.878476
 30
0.0
 11
82.407566
 21
395.478476
 31
0.0
  0
LINE
  8
0
  6
CONTINUOUS
 62
     7
  5
668
 10
88.530873
 20
395.478476
 30
0.0
 11
82.407566
 21
395.478476
 31
0.0
  0
LINE
  8
0
  6
CONTINUOUS
 62
     7
  5
669
 10
88.530873
 20
398.478476
 30
0.0
 11
88.530873
 21
395.478476
 31
0.0
  0
LINE
  8
0
  6
CONTINUOUS
 62
     7
  5
66A
 10
104.774136
 20
395.478476
 30
0.0
 11
104.774136
 21
398.478476
 31
0.0
  0
LINE
  8
0
  6
CONTINUOUS
 62
     7
  5
66B
 10
98.650829
 20
392.878476
 30
0.0
 11
98.650829
 21
395.478476
 31
0.0
  0
LINE
  8
0
  6
CONTINUOUS
 62
     7
  5
66C
 10
82.407566
 20
392.878476
 30
0.0
 11
98.650829
 21
392.878476
 31
0.0
  0
LINE
  8
0
  6
CONTINUOUS
 62
     7
  5
66D
 10
98.650829
 20
395.478476
 30
0.0
 11
104.774136
 21
395.478476
 31
0.0
  0
LINE
  8
0
  6
CONTINUOUS
 62
     7
  5
66E
 10
104.774136
 20
398.478476
 30
0.0
 11
88.530873
 21
398.478476
 31
0.0
  0
LINE
  8
0
  6
CONTINUOUS
 62
     7
  5
66F
 10
104.774136
 20
395.478476
 30
0.0
 11
104.978097
 21
395.478476
 31
0.0
  0
LINE
  8
0
  6
CONTINUOUS
 62
     7
  5
670
 10
104.978097
 20
398.478476
 30
0.0
 11
104.774136
 21
398.478476
 31
0.0
  0
LINE
  8
0
  6
CONTINUOUS
 62
     7
  5
671
 10
108.476506
 20
454.478476
 30
0.0
 11
117.143157
 21
454.478476
 31
0.0
  0
LINE
  8
0
  6
CONTINUOUS
 62
     9
  5
672
 10
117.143157
 20
454.078476
 30
0.0
 11
117.143157
 21
454.478476
 31
0.0
  0
LINE
  8
0
  6
CONTINUOUS
 62
     7
  5
673
 10
117.143157
 20
392.478476
 30
0.0
 11
108.476506
 21
392.478476
 31
0.0
  0
LINE
  8
0
  6
CONTINUOUS
 62
     9
  5
674
 10
117.143157
 20
392.478476
 30
0.0
 11
117.143157
 21
392.878476
 31
0.0
  0
LINE
  8
0
  6
CONTINUOUS
 62
     7
  5
675
 10
100.757471
 20
454.078476
 30
0.0
 11
100.757471
 21
451.478476
 31
0.0
  0
LINE
  8
0
  6
CONTINUOUS
 62
     7
  5
676
 10
100.757471
 20
454.078476
 30
0.0
 11
98.650829
 21
454.078476
 31
0.0
  0
LINE
  8
0
  6
CONTINUOUS
 62
     7
  5
677
 10
100.757471
 20
392.878476
 30
0.0
 11
100.757471
 21
395.478476
 31
0.0
  0
LINE
  8
0
  6
CONTINUOUS
 62
     7
  5
678
 10
98.650829
 20
392.878476
 30
0.0
 11
100.757471
 21
392.878476
 31
0.0
  0
LINE
  8
0
  6
CONTINUOUS
 62
     7
  5
679
 10
117.143157
 20
454.478476
 30
0.0
 11
118.476506
 21
454.478476
 31
0.0
  0
LINE
  8
0
  6
CONTINUOUS
 62
     7
  5
67A
 10
118.476506
 20
392.478476
 30
0.0
 11
117.143157
 21
392.478476
 31
0.0
  0
LINE
  8
0
  6
CONTINUOUS
 62
     7
  5
67B
 10
98.561459
 20
448.478476
 30
0.0
 11
98.561459
 21
398.478476
 31
0.0
  0
LINE
  8
0
  6
CONTINUOUS
 62
     7
  5
67C
 10
89.028167
 20
448.478476
 30
0.0
 11
89.028167
 21
398.478476
 31
0.0
  0
LINE
  8
0
  6
CONTINUOUS
 62
     7
  5
67D
 10
100.873026
 20
448.478476
 30
0.0
 11
100.873026
 21
398.478476
 31
0.0
  0
LINE
  8
0
  6
CONTINUOUS
 62
     7
  5
67E
 10
100.757471
 20
454.078476
 30
0.0
 11
100.976506
 21
454.078476
 31
0.0
  0
LINE
  8
0
  6
CONTINUOUS
 62
     7
  5
67F
 10
100.976506
 20
392.878476
 30
0.0
 11
100.757471
 21
392.878476
 31
0.0
  0
LINE
  8
0
  6
CONTINUOUS
 62
     7
  5
680
 10
79.25457
 20
454.478476
 30
0.0
 11
78.609937
 21
454.478476
 31
0.0
  0
LINE
  8
0
  6
CONTINUOUS
 62
     7
  5
681
 10
79.25457
 20
454.078476
 30
0.0
 11
79.25457
 21
454.478476
 31
0.0
  0
LINE
  8
0
  6
CONTINUOUS
 62
     7
  5
682
 10
80.358134
 20
451.473476
 30
0.0
 11
80.358134
 21
451.478476
 31
0.0
  0
LINE
  8
0
  6
CONTINUOUS
 62
     7
  5
683
 10
80.358134
 20
451.478476
 30
0.0
 11
82.407566
 21
451.478476
 31
0.0
  0
LINE
  8
0
  6
CONTINUOUS
 62
     7
  5
684
 10
82.407566
 20
454.078476
 30
0.0
 11
79.25457
 21
454.078476
 31
0.0
  0
LINE
  8
0
  6
CONTINUOUS
 62
     7
  5
685
 10
79.25457
 20
392.478476
 30
0.0
 11
78.609937
 21
392.478476
 31
0.0
  0
LINE
  8
0
  6
CONTINUOUS
 62
     7
  5
686
 10
80.358134
 20
395.478476
 30
0.0
 11
80.358134
 21
395.483476
 31
0.0
  0
LINE
  8
0
  6
CONTINUOUS
 62
     7
  5
687
 10
79.25457
 20
392.478476
 30
0.0
 11
79.25457
 21
392.878476
 31
0.0
  0
LINE
  8
0
  6
CONTINUOUS
 62
     7
  5
688
 10
82.407566
 20
395.478476
 30
0.0
 11
80.358134
 21
395.478476
 31
0.0
  0
LINE
  8
0
  6
CONTINUOUS
 62
     7
  5
689
 10
79.25457
 20
392.878476
 30
0.0
 11
82.407566
 21
392.878476
 31
0.0
  0
LINE
  8
0
  6
CONTINUOUS
 62
     7
  5
68A
 10
112.991621
 20
427.478476
 30
0.0
 11
111.421522
 21
423.478476
 31
0.0
  0
LINE
  8
0
  6
CONTINUOUS
 62
     7
  5
68B
 10
111.421522
 20
423.478476
 30
0.0
 11
111.421522
 21
420.478476
 31
0.0
  0
LINE
  8
0
  6
CONTINUOUS
 62
     7
  5
68C
 10
111.421522
 20
420.478476
 30
0.0
 11
110.877624
 21
420.478476
 31
0.0
  0
LINE
  8
0
  6
CONTINUOUS
 62
     7
  5
68D
 10
110.877624
 20
420.478476
 30
0.0
 11
110.877624
 21
423.692835
 31
0.0
  0
LINE
  8
0
  6
CONTINUOUS
 62
     7
  5
68E
 10
110.877624
 20
423.692835
 30
0.0
 11
112.447723
 21
427.692835
 31
0.0
  0
LINE
  8
0
  6
CONTINUOUS
 62
     7
  5
68F
 10
112.447723
 20
427.692835
 30
0.0
 11
112.447723
 21
448.478476
 31
0.0
  0
LINE
  8
0
  6
CONTINUOUS
 62
     7
  5
690
 10
112.991621
 20
448.478476
 30
0.0
 11
112.991621
 21
427.478476
 31
0.0
  0
LINE
  8
0
  6
CONTINUOUS
 62
     7
  5
691
 10
112.447723
 20
427.692835
 30
0.0
 11
108.047742
 21
427.692835
 31
0.0
  0
LINE
  8
0
  6
CONTINUOUS
 62
     7
  5
692
 10
110.877624
 20
423.692835
 30
0.0
 11
106.477643
 21
423.692835
 31
0.0
  0
LINE
  8
0
  6
CONTINUOUS
 62
     7
  5
693
 10
108.047742
 20
427.692835
 30
0.0
 11
106.477643
 21
423.692835
 31
0.0
  0
LINE
  8
0
  6
CONTINUOUS
 62
     7
  5
694
 10
110.877624
 20
420.478476
 30
0.0
 11
106.477643
 21
420.478476
 31
0.0
  0
LINE
  8
0
  6
CONTINUOUS
 62
     7
  5
695
 10
106.477643
 20
423.692835
 30
0.0
 11
106.477643
 21
420.478476
 31
0.0
  0
LINE
  8
0
  6
CONTINUOUS
 62
     7
  5
696
 10
79.25457
 20
454.478476
 30
0.0
 11
86.109937
 21
454.478476
 31
0.0
  0
LINE
  8
0
  6
CONTINUOUS
 62
     7
  5
697
 10
86.109937
 20
392.478476
 30
0.0
 11
79.25457
 21
392.478476
 31
0.0
  0
LINE
  8
0
  6
CONTINUOUS
 62
     7
  5
698
 10
108.047742
 20
448.478476
 30
0.0
 11
108.047742
 21
427.692835
 31
0.0
  0
LINE
  8
0
  6
CONTINUOUS
 62
     7
  5
699
 10
108.047742
 20
398.478476
 30
0.0
 11
108.047742
 21
420.478476
 31
0.0
  0
LINE
  8
0
  6
CONTINUOUS
 62
     7
  5
69A
 10
111.421522
 20
422.478476
 30
0.0
 11
112.447723
 21
422.478476
 31
0.0
  0
LINE
  8
0
  6
CONTINUOUS
 62
     7
  5
69B
 10
112.447723
 20
422.478476
 30
0.0
 11
112.447723
 21
398.478476
 31
0.0
  0
LINE
  8
0
  6
CONTINUOUS
 62
     7
  5
69C
 10
112.991621
 20
398.478476
 30
0.0
 11
112.991621
 21
422.478476
 31
0.0
  0
LINE
  8
0
  6
CONTINUOUS
 62
     7
  5
69D
 10
112.991621
 20
422.478476
 30
0.0
 11
112.447723
 21
422.478476
 31
0.0
  0
LINE
  8
0
  6
CONTINUOUS
 62
     7
  5
69E
 10
82.407566
 20
451.478476
 30
0.0
 11
80.358134
 21
451.478476
 31
0.0
  0
LINE
  8
0
  6
CONTINUOUS
 62
     7
  5
69F
 10
80.358134
 20
451.478476
 30
0.0
 11
79.664365
 21
451.478476
 31
0.0
  0
LINE
  8
0
  6
CONTINUOUS
 62
     7
  5
6A0
 10
79.664365
 20
448.478476
 30
0.0
 11
88.542526
 21
448.478476
 31
0.0
  0
LINE
  8
0
  6
CONTINUOUS
 62
     7
  5
6A1
 10
79.664365
 20
448.478476
 30
0.0
 11
79.664365
 21
451.473476
 31
0.0
  0
LINE
  8
0
  6
CONTINUOUS
 62
     7
  5
6A2
 10
79.664365
 20
451.473476
 30
0.0
 11
79.664365
 21
451.478476
 31
0.0
  0
LINE
  8
0
  6
CONTINUOUS
 62
     7
  5
6A3
 10
88.542526
 20
398.478476
 30
0.0
 11
79.664365
 21
398.478476
 31
0.0
  0
LINE
  8
0
  6
CONTINUOUS
 62
     7
  5
6A4
 10
79.664365
 20
395.478476
 30
0.0
 11
79.664365
 21
395.483476
 31
0.0
  0
LINE
  8
0
  6
CONTINUOUS
 62
     7
  5
6A5
 10
79.664365
 20
395.483476
 30
0.0
 11
79.664365
 21
398.478476
 31
0.0
  0
LINE
  8
0
  6
CONTINUOUS
 62
     7
  5
6A6
 10
79.664365
 20
395.478476
 30
0.0
 11
80.358134
 21
395.478476
 31
0.0
  0
LINE
  8
0
  6
CONTINUOUS
 62
     7
  5
6A7
 10
80.358134
 20
395.478476
 30
0.0
 11
82.407566
 21
395.478476
 31
0.0
  0
LINE
  8
0
  6
CONTINUOUS
 62
     7
  5
6A8
 10
76.033087
 20
451.478476
 30
0.0
 11
76.033087
 21
454.078476
 31
0.0
  0
LINE
  8
0
  6
CONTINUOUS
 62
     7
  5
6A9
 10
79.389672
 20
448.478476
 30
0.0
 11
79.389672
 21
451.478476
 31
0.0
  0
LINE
  8
0
  6
CONTINUOUS
 62
     7
  5
6AA
 10
70.485679
 20
451.478476
 30
0.0
 11
70.485679
 21
448.478476
 31
0.0
  0
LINE
  8
0
  6
CONTINUOUS
 62
     7
  5
6AB
 10
67.129095
 20
451.478476
 30
0.0
 11
70.485679
 21
451.478476
 31
0.0
  0
LINE
  8
0
  6
CONTINUOUS
 62
     7
  5
6AC
 10
67.129095
 20
451.478476
 30
0.0
 11
67.129095
 21
454.078476
 31
0.0
  0
LINE
  8
0
  6
CONTINUOUS
 62
     7
  5
6AD
 10
76.033087
 20
454.078476
 30
0.0
 11
67.129095
 21
454.078476
 31
0.0
  0
LINE
  8
0
  6
CONTINUOUS
 62
     7
  5
6AE
 10
79.389672
 20
451.478476
 30
0.0
 11
76.033087
 21
451.478476
 31
0.0
  0
LINE
  8
0
  6
CONTINUOUS
 62
     7
  5
6AF
 10
70.485679
 20
448.478476
 30
0.0
 11
79.389672
 21
448.478476
 31
0.0
  0
LINE
  8
0
  6
CONTINUOUS
 62
     7
  5
6B0
 10
79.664365
 20
451.478476
 30
0.0
 11
79.389672
 21
451.478476
 31
0.0
  0
LINE
  8
0
  6
CONTINUOUS
 62
     7
  5
6B1
 10
79.389672
 20
448.478476
 30
0.0
 11
79.664365
 21
448.478476
 31
0.0
  0
LINE
  8
0
  6
CONTINUOUS
 62
     7
  5
6B2
 10
67.129095
 20
392.878476
 30
0.0
 11
67.129095
 21
395.478476
 31
0.0
  0
LINE
  8
0
  6
CONTINUOUS
 62
     7
  5
6B3
 10
70.485679
 20
395.478476
 30
0.0
 11
67.129095
 21
395.478476
 31
0.0
  0
LINE
  8
0
  6
CONTINUOUS
 62
     7
  5
6B4
 10
70.485679
 20
398.478476
 30
0.0
 11
70.485679
 21
395.478476
 31
0.0
  0
LINE
  8
0
  6
CONTINUOUS
 62
     7
  5
6B5
 10
79.389672
 20
395.478476
 30
0.0
 11
79.389672
 21
398.478476
 31
0.0
  0
LINE
  8
0
  6
CONTINUOUS
 62
     7
  5
6B6
 10
76.033087
 20
392.878476
 30
0.0
 11
76.033087
 21
395.478476
 31
0.0
  0
LINE
  8
0
  6
CONTINUOUS
 62
     7
  5
6B7
 10
67.129095
 20
392.878476
 30
0.0
 11
76.033087
 21
392.878476
 31
0.0
  0
LINE
  8
0
  6
CONTINUOUS
 62
     7
  5
6B8
 10
79.389672
 20
398.478476
 30
0.0
 11
70.485679
 21
398.478476
 31
0.0
  0
LINE
  8
0
  6
CONTINUOUS
 62
     7
  5
6B9
 10
76.033087
 20
395.478476
 30
0.0
 11
79.389672
 21
395.478476
 31
0.0
  0
LINE
  8
0
  6
CONTINUOUS
 62
     7
  5
6BA
 10
79.664365
 20
398.478476
 30
0.0
 11
79.389672
 21
398.478476
 31
0.0
  0
LINE
  8
0
  6
CONTINUOUS
 62
     7
  5
6BB
 10
79.389672
 20
395.478476
 30
0.0
 11
79.664365
 21
395.478476
 31
0.0
  0
LINE
  8
0
  6
CONTINUOUS
 62
     7
  5
6BC
 10
86.109937
 20
454.478476
 30
0.0
 11
93.119868
 21
454.478476
 31
0.0
  0
LINE
  8
0
  6
CONTINUOUS
 62
     9
  5
6BD
 10
93.119868
 20
454.078476
 30
0.0
 11
93.119868
 21
454.478476
 31
0.0
  0
LINE
  8
0
  6
CONTINUOUS
 62
     7
  5
6BE
 10
93.119868
 20
392.478476
 30
0.0
 11
86.109937
 21
392.478476
 31
0.0
  0
LINE
  8
0
  6
CONTINUOUS
 62
     9
  5
6BF
 10
93.119868
 20
392.478476
 30
0.0
 11
93.119868
 21
392.878476
 31
0.0
  0
LINE
  8
0
  6
CONTINUOUS
 62
     7
  5
6C0
 10
93.119868
 20
454.478476
 30
0.0
 11
96.109937
 21
454.478476
 31
0.0
  0
LINE
  8
0
  6
CONTINUOUS
 62
     7
  5
6C1
 10
96.109937
 20
392.478476
 30
0.0
 11
93.119868
 21
392.478476
 31
0.0
  0
LINE
  8
0
  6
CONTINUOUS
 62
     7
  5
6C2
 10
78.609937
 20
454.078476
 30
0.0
 11
76.033087
 21
454.078476
 31
0.0
  0
LINE
  8
0
  6
CONTINUOUS
 62
     7
  5
6C3
 10
76.033087
 20
392.878476
 30
0.0
 11
78.609937
 21
392.878476
 31
0.0
  0
LINE
  8
0
  6
CONTINUOUS
 62
     7
  5
6C4
 10
79.260182
 20
448.478476
 30
0.0
 11
79.260182
 21
398.478476
 31
0.0
  0
LINE
  8
0
  6
CONTINUOUS
 62
     7
  5
6C5
 10
76.146987
 20
448.478476
 30
0.0
 11
76.146987
 21
398.478476
 31
0.0
  0
LINE
  8
0
  6
CONTINUOUS
 62
     7
  5
6C6
 10
70.921167
 20
448.478476
 30
0.0
 11
70.921167
 21
398.478476
 31
0.0
  0
LINE
  8
0
  6
CONTINUOUS
 62
     7
  5
6C7
 10
66.349361
 20
451.473476
 30
0.0
 11
66.448017
 21
451.473476
 31
0.0
  0
LINE
  8
0
  6
CONTINUOUS
 62
     7
  5
6C8
 10
66.396604
 20
454.078476
 30
0.0
 11
66.396604
 21
454.478476
 31
0.0
  0
LINE
  8
0
  6
CONTINUOUS
 62
     7
  5
6C9
 10
66.448017
 20
451.473476
 30
0.0
 11
66.448017
 21
451.478476
 31
0.0
  0
LINE
  8
0
  6
CONTINUOUS
 62
     7
  5
6CA
 10
66.448017
 20
451.478476
 30
0.0
 11
67.129095
 21
451.478476
 31
0.0
  0
LINE
  8
0
  6
CONTINUOUS
 62
     7
  5
6CB
 10
67.129095
 20
454.078476
 30
0.0
 11
66.349361
 21
454.078476
 31
0.0
  0
LINE
  8
0
  6
CONTINUOUS
 62
     7
  5
6CC
 10
66.349361
 20
392.878476
 30
0.0
 11
67.129095
 21
392.878476
 31
0.0
  0
LINE
  8
0
  6
CONTINUOUS
 62
     7
  5
6CD
 10
66.448017
 20
395.483476
 30
0.0
 11
66.349361
 21
395.483476
 31
0.0
  0
LINE
  8
0
  6
CONTINUOUS
 62
     7
  5
6CE
 10
66.448017
 20
395.478476
 30
0.0
 11
66.448017
 21
395.483476
 31
0.0
  0
LINE
  8
0
  6
CONTINUOUS
 62
     7
  5
6CF
 10
66.396604
 20
392.478476
 30
0.0
 11
66.396604
 21
392.878476
 31
0.0
  0
LINE
  8
0
  6
CONTINUOUS
 62
     7
  5
6D0
 10
67.129095
 20
395.478476
 30
0.0
 11
66.448017
 21
395.478476
 31
0.0
  0
LINE
  8
0
  6
CONTINUOUS
 62
     7
  5
6D1
 10
66.396604
 20
454.478476
 30
0.0
 11
73.849361
 21
454.478476
 31
0.0
  0
LINE
  8
0
  6
CONTINUOUS
 62
     7
  5
6D2
 10
73.849361
 20
392.478476
 30
0.0
 11
66.396604
 21
392.478476
 31
0.0
  0
LINE
  8
0
  6
CONTINUOUS
 62
     7
  5
6D3
 10
67.129095
 20
451.478476
 30
0.0
 11
66.448017
 21
451.478476
 31
0.0
  0
LINE
  8
0
  6
CONTINUOUS
 62
     7
  5
6D4
 10
66.448017
 20
451.478476
 30
0.0
 11
66.349469
 21
451.478476
 31
0.0
  0
LINE
  8
0
  6
CONTINUOUS
 62
     7
  5
6D5
 10
66.349469
 20
448.478476
 30
0.0
 11
70.485679
 21
448.478476
 31
0.0
  0
LINE
  8
0
  6
CONTINUOUS
 62
     7
  5
6D6
 10
66.349469
 20
448.478476
 30
0.0
 11
66.349469
 21
451.473476
 31
0.0
  0
LINE
  8
0
  6
CONTINUOUS
 62
     7
  5
6D7
 10
66.349469
 20
451.473476
 30
0.0
 11
66.349469
 21
451.478476
 31
0.0
  0
LINE
  8
0
  6
CONTINUOUS
 62
     7
  5
6D8
 10
70.485679
 20
398.478476
 30
0.0
 11
66.349469
 21
398.478476
 31
0.0
  0
LINE
  8
0
  6
CONTINUOUS
 62
     7
  5
6D9
 10
66.349469
 20
395.478476
 30
0.0
 11
66.349469
 21
395.483476
 31
0.0
  0
LINE
  8
0
  6
CONTINUOUS
 62
     7
  5
6DA
 10
66.349469
 20
395.483476
 30
0.0
 11
66.349469
 21
398.478476
 31
0.0
  0
LINE
  8
0
  6
CONTINUOUS
 62
     7
  5
6DB
 10
66.349469
 20
395.478476
 30
0.0
 11
66.448017
 21
395.478476
 31
0.0
  0
LINE
  8
0
  6
CONTINUOUS
 62
     7
  5
6DC
 10
66.448017
 20
395.478476
 30
0.0
 11
67.129095
 21
395.478476
 31
0.0
  0
LINE
  8
0
  6
CONTINUOUS
 62
     7
  5
6DD
 10
73.849361
 20
454.478476
 30
0.0
 11
78.609937
 21
454.478476
 31
0.0
  0
LINE
  8
0
  6
CONTINUOUS
 62
     7
  5
6DE
 10
78.609937
 20
392.478476
 30
0.0
 11
73.849361
 21
392.478476
 31
0.0
  0
LINE
  8
0
  6
CONTINUOUS
 62
     7
  5
6DF
 10
66.049471
 20
395.478476
 30
0.0
 11
66.049471
 21
398.478476
 31
0.0
  0
LINE
  8
0
  6
CONTINUOUS
 62
     7
  5
6E0
 10
66.049471
 20
395.478476
 30
0.0
 11
66.349469
 21
395.478476
 31
0.0
  0
LINE
  8
0
  6
CONTINUOUS
 62
     7
  5
6E1
 10
66.349469
 20
398.478476
 30
0.0
 11
66.049471
 21
398.478476
 31
0.0
  0
LINE
  8
0
  6
CONTINUOUS
 62
     7
  5
6E2
 10
65.922514
 20
392.878476
 30
0.0
 11
65.922514
 21
395.478476
 31
0.0
  0
LINE
  8
0
  6
CONTINUOUS
 62
     7
  5
6E3
 10
65.957271
 20
395.478476
 30
0.0
 11
65.922514
 21
395.478476
 31
0.0
  0
LINE
  8
0
  6
CONTINUOUS
 62
     7
  5
6E4
 10
65.957271
 20
398.478476
 30
0.0
 11
65.957271
 21
395.478476
 31
0.0
  0
LINE
  8
0
  6
CONTINUOUS
 62
     7
  5
6E5
 10
66.014714
 20
392.878476
 30
0.0
 11
66.014714
 21
395.478476
 31
0.0
  0
LINE
  8
0
  6
CONTINUOUS
 62
     7
  5
6E6
 10
65.922514
 20
392.878476
 30
0.0
 11
66.014714
 21
392.878476
 31
0.0
  0
LINE
  8
0
  6
CONTINUOUS
 62
     7
  5
6E7
 10
66.014714
 20
395.478476
 30
0.0
 11
66.049471
 21
395.478476
 31
0.0
  0
LINE
  8
0
  6
CONTINUOUS
 62
     7
  5
6E8
 10
66.049471
 20
398.478476
 30
0.0
 11
65.957271
 21
398.478476
 31
0.0
  0
LINE
  8
0
  6
CONTINUOUS
 62
     7
  5
6E9
 10
66.014714
 20
451.478476
 30
0.0
 11
66.014714
 21
454.078476
 31
0.0
  0
LINE
  8
0
  6
CONTINUOUS
 62
     7
  5
6EA
 10
66.049471
 20
448.478476
 30
0.0
 11
66.049471
 21
451.478476
 31
0.0
  0
LINE
  8
0
  6
CONTINUOUS
 62
     7
  5
6EB
 10
65.957271
 20
451.478476
 30
0.0
 11
65.957271
 21
448.478476
 31
0.0
  0
LINE
  8
0
  6
CONTINUOUS
 62
     7
  5
6EC
 10
65.922514
 20
451.478476
 30
0.0
 11
65.957271
 21
451.478476
 31
0.0
  0
LINE
  8
0
  6
CONTINUOUS
 62
     7
  5
6ED
 10
65.922514
 20
451.478476
 30
0.0
 11
65.922514
 21
454.078476
 31
0.0
  0
LINE
  8
0
  6
CONTINUOUS
 62
     7
  5
6EE
 10
66.014714
 20
454.078476
 30
0.0
 11
65.922514
 21
454.078476
 31
0.0
  0
LINE
  8
0
  6
CONTINUOUS
 62
     7
  5
6EF
 10
66.049471
 20
451.478476
 30
0.0
 11
66.014714
 21
451.478476
 31
0.0
  0
LINE
  8
0
  6
CONTINUOUS
 62
     7
  5
6F0
 10
65.957271
 20
448.478476
 30
0.0
 11
66.049471
 21
448.478476
 31
0.0
  0
LINE
  8
0
  6
CONTINUOUS
 62
     7
  5
6F1
 10
66.349469
 20
451.478476
 30
0.0
 11
66.049471
 21
451.478476
 31
0.0
  0
LINE
  8
0
  6
CONTINUOUS
 62
     7
  5
6F2
 10
66.049471
 20
448.478476
 30
0.0
 11
66.349469
 21
448.478476
 31
0.0
  0
LINE
  8
0
  6
CONTINUOUS
 62
     7
  5
6F3
 10
66.014714
 20
392.878476
 30
0.0
 11
66.349361
 21
392.878476
 31
0.0
  0
LINE
  8
0
  6
CONTINUOUS
 62
     7
  5
6F4
 10
66.349361
 20
454.078476
 30
0.0
 11
66.014714
 21
454.078476
 31
0.0
  0
LINE
  8
0
  6
CONTINUOUS
 62
     7
  5
6F5
 10
66.313047
 20
448.478476
 30
0.0
 11
66.313047
 21
398.478476
 31
0.0
  0
LINE
  8
0
  6
CONTINUOUS
 62
     7
  5
6F6
 10
66.258934
 20
448.478476
 30
0.0
 11
66.258934
 21
398.478476
 31
0.0
  0
LINE
  8
0
  6
CONTINUOUS
 62
     7
  5
6F7
 10
69.713017
 20
448.478476
 30
0.0
 11
69.713017
 21
398.478476
 31
0.0
  0
LINE
  8
0
  6
CONTINUOUS
 62
     7
  5
6F8
 10
88.188887
 20
423.692835
 30
0.0
 11
88.163912
 21
423.692835
 31
0.0
  0
LINE
  8
0
  6
CONTINUOUS
 62
     7
  5
6F9
 10
88.188887
 20
420.478476
 30
0.0
 11
88.188887
 21
423.692835
 31
0.0
  0
LINE
  8
0
  6
CONTINUOUS
 62
     7
  5
6FA
 10
88.163912
 20
423.692835
 30
0.0
 11
88.163912
 21
420.478476
 31
0.0
  0
LINE
  8
0
  6
CONTINUOUS
 62
     7
  5
6FB
 10
88.188887
 20
420.478476
 30
0.0
 11
88.163912
 21
420.478476
 31
0.0
  0
LINE
  8
0
  6
CONTINUOUS
 62
     7
  5
6FC
 10
89.028167
 20
423.546524
 30
0.0
 11
88.98888
 21
423.478476
 31
0.0
  0
LINE
  8
0
  6
CONTINUOUS
 62
     7
  5
6FD
 10
88.98888
 20
423.478476
 30
0.0
 11
88.98888
 21
420.478476
 31
0.0
  0
LINE
  8
0
  6
CONTINUOUS
 62
     7
  5
6FE
 10
88.188887
 20
423.692835
 30
0.0
 11
89.028167
 21
425.146524
 31
0.0
  0
LINE
  8
0
  6
CONTINUOUS
 62
     7
  5
6FF
 10
88.98888
 20
420.478476
 30
0.0
 11
88.188887
 21
420.478476
 31
0.0
  0
LINE
  8
0
  6
CONTINUOUS
 62
     7
  5
700
 10
89.028167
 20
425.189782
 30
0.0
 11
88.163912
 21
423.692835
 31
0.0
  0
LINE
  8
0
  6
CONTINUOUS
 62
     7
  5
701
 10
70.685953
 20
448.478476
 30
0.0
 11
70.685953
 21
398.478476
 31
0.0
  0
LINE
  8
0
  6
CONTINUOUS
 62
     7
  5
702
 10
96.109937
 20
454.478476
 30
0.0
 11
100.976506
 21
454.478476
 31
0.0
  0
LINE
  8
0
  6
CONTINUOUS
 62
     7
  5
703
 10
100.976506
 20
392.478476
 30
0.0
 11
96.109937
 21
392.478476
 31
0.0
  0
LINE
  8
0
  6
CONTINUOUS
 62
     7
  5
704
 10
106.477643
 20
420.478476
 30
0.0
 11
106.105229
 21
420.478476
 31
0.0
  0
LINE
  8
0
  6
CONTINUOUS
 62
     7
  5
705
 10
106.105229
 20
420.478476
 30
0.0
 11
106.105229
 21
423.692835
 31
0.0
  0
LINE
  8
0
  6
CONTINUOUS
 62
     7
  5
706
 10
106.105229
 20
423.692835
 30
0.0
 11
107.689373
 21
427.692835
 31
0.0
  0
LINE
  8
0
  6
CONTINUOUS
 62
     7
  5
707
 10
107.689373
 20
427.692835
 30
0.0
 11
107.689373
 21
448.478476
 31
0.0
  0
LINE
  8
0
  6
CONTINUOUS
 62
     7
  5
708
 10
107.689373
 20
420.478476
 30
0.0
 11
107.689373
 21
398.478476
 31
0.0
  0
LINE
  8
0
  6
CONTINUOUS
 62
     7
  5
709
 10
125.443226
 20
454.478476
 30
0.0
 11
124.831169
 21
454.478476
 31
0.0
  0
LINE
  8
0
  6
CONTINUOUS
 62
     7
  5
70A
 10
124.831169
 20
454.478476
 30
0.0
 11
124.831169
 21
454.078476
 31
0.0
  0
LINE
  8
0
  6
CONTINUOUS
 62
     7
  5
70B
 10
125.443226
 20
392.478476
 30
0.0
 11
124.831169
 21
392.478476
 31
0.0
  0
LINE
  8
0
  6
CONTINUOUS
 62
     7
  5
70C
 10
124.831169
 20
392.878476
 30
0.0
 11
124.831169
 21
392.478476
 31
0.0
  0
LINE
  8
0
  6
CONTINUOUS
 62
     7
  5
70D
 10
88.542526
 20
448.478476
 30
0.0
 11
88.542526
 21
424.34862
 31
0.0
  0
LINE
  8
0
  6
CONTINUOUS
 62
     7
  5
70E
 10
88.542526
 20
420.478476
 30
0.0
 11
88.542526
 21
398.478476
 31
0.0
  0
LINE
  8
0
  6
CONTINUOUS
 62
     7
  5
70F
 10
118.476506
 20
454.478476
 30
0.0
 11
124.831169
 21
454.478476
 31
0.0
  0
LINE
  8
0
  6
CONTINUOUS
 62
     7
  5
710
 10
124.831169
 20
392.478476
 30
0.0
 11
118.476506
 21
392.478476
 31
0.0
  0
LINE
  8
0
  6
CONTINUOUS
 62
     7
  5
711
 10
154.131643
 20
454.478476
 30
0.0
 11
150.998242
 21
454.478476
 31
0.0
  0
LINE
  8
0
  6
CONTINUOUS
 62
     7
  5
712
 10
150.998242
 20
454.478476
 30
0.0
 11
150.998242
 21
454.078476
 31
0.0
  0
LINE
  8
0
  6
CONTINUOUS
 62
     7
  5
713
 10
146.631006
 20
454.478476
 30
0.0
 11
150.998242
 21
454.478476
 31
0.0
  0
LINE
  8
0
  6
CONTINUOUS
 62
     7
  5
714
 10
141.631006
 20
451.478476
 30
0.0
 11
138.081006
 21
451.478476
 31
0.0
  0
LINE
  8
0
  6
CONTINUOUS
 62
     7
  5
715
 10
138.081006
 20
451.478476
 30
0.0
 11
136.823957
 21
451.478476
 31
0.0
  0
LINE
  8
0
  6
CONTINUOUS
 62
     7
  5
716
 10
136.823957
 20
448.478476
 30
0.0
 11
149.981006
 21
448.478476
 31
0.0
  0
LINE
  8
0
  6
CONTINUOUS
 62
     7
  5
717
 10
136.823957
 20
448.478476
 30
0.0
 11
136.823957
 21
451.473476
 31
0.0
  0
LINE
  8
0
  6
CONTINUOUS
 62
     7
  5
718
 10
136.823957
 20
451.473476
 30
0.0
 11
136.823957
 21
451.478476
 31
0.0
  0
LINE
  8
0
  6
CONTINUOUS
 62
     7
  5
719
 10
136.708588
 20
448.478476
 30
0.0
 11
136.708588
 21
451.478476
 31
0.0
  0
LINE
  8
0
  6
CONTINUOUS
 62
     7
  5
71A
 10
136.708588
 20
448.478476
 30
0.0
 11
136.823957
 21
448.478476
 31
0.0
  0
LINE
  8
0
  6
CONTINUOUS
 62
     7
  5
71B
 10
136.823957
 20
451.478476
 30
0.0
 11
136.708588
 21
451.478476
 31
0.0
  0
LINE
  8
0
  6
CONTINUOUS
 62
     7
  5
71C
 10
129.000717
 20
451.478476
 30
0.0
 11
129.000717
 21
454.078476
 31
0.0
  0
LINE
  8
0
  6
CONTINUOUS
 62
     7
  5
71D
 10
116.261959
 20
451.478476
 30
0.0
 11
116.261959
 21
448.478476
 31
0.0
  0
LINE
  8
0
  6
CONTINUOUS
 62
     7
  5
71E
 10
108.554088
 20
451.478476
 30
0.0
 11
116.261959
 21
451.478476
 31
0.0
  0
LINE
  8
0
  6
CONTINUOUS
 62
     7
  5
71F
 10
108.554088
 20
451.478476
 30
0.0
 11
108.554088
 21
454.078476
 31
0.0
  0
LINE
  8
0
  6
CONTINUOUS
 62
     7
  5
720
 10
129.000717
 20
454.078476
 30
0.0
 11
108.554088
 21
454.078476
 31
0.0
  0
LINE
  8
0
  6
CONTINUOUS
 62
     7
  5
721
 10
116.261959
 20
448.478476
 30
0.0
 11
136.708588
 21
448.478476
 31
0.0
  0
LINE
  8
0
  6
CONTINUOUS
 62
     7
  5
722
 10
136.708588
 20
451.478476
 30
0.0
 11
129.000717
 21
451.478476
 31
0.0
  0
LINE
  8
0
  6
CONTINUOUS
 62
     7
  5
723
 10
108.554088
 20
392.878476
 30
0.0
 11
108.554088
 21
395.478476
 31
0.0
  0
LINE
  8
0
  6
CONTINUOUS
 62
     7
  5
724
 10
116.261959
 20
395.478476
 30
0.0
 11
108.554088
 21
395.478476
 31
0.0
  0
LINE
  8
0
  6
CONTINUOUS
 62
     7
  5
725
 10
116.261959
 20
398.478476
 30
0.0
 11
116.261959
 21
395.478476
 31
0.0
  0
LINE
  8
0
  6
CONTINUOUS
 62
     7
  5
726
 10
108.554088
 20
392.878476
 30
0.0
 11
127.131006
 21
392.878476
 31
0.0
  0
LINE
  8
0
  6
CONTINUOUS
 62
     7
  5
727
 10
127.131006
 20
398.478476
 30
0.0
 11
116.261959
 21
398.478476
 31
0.0
  0
LINE
  8
0
  6
CONTINUOUS
 62
     7
  5
728
 10
130.19232
 20
454.078476
 30
0.0
 11
130.19232
 21
451.478476
 31
0.0
  0
LINE
  8
0
  6
CONTINUOUS
 62
     7
  5
729
 10
130.19232
 20
454.078476
 30
0.0
 11
129.000717
 21
454.078476
 31
0.0
  0
LINE
  8
0
  6
CONTINUOUS
 62
     7
  5
72A
 10
128.746847
 20
448.478476
 30
0.0
 11
128.746847
 21
440.094316
 31
0.0
  0
LINE
  8
0
  6
CONTINUOUS
 62
     7
  5
72B
 10
116.746568
 20
448.478476
 30
0.0
 11
116.746568
 21
398.478476
 31
0.0
  0
LINE
  8
0
  6
CONTINUOUS
 62
     7
  5
72C
 10
130.054364
 20
448.478476
 30
0.0
 11
130.054364
 21
441.401834
 31
0.0
  0
LINE
  8
0
  6
CONTINUOUS
 62
     7
  5
72D
 10
136.631006
 20
454.478476
 30
0.0
 11
146.246498
 21
454.478476
 31
0.0
  0
LINE
  8
0
  6
CONTINUOUS
 62
     9
  5
72E
 10
146.246498
 20
454.078476
 30
0.0
 11
146.246498
 21
454.478476
 31
0.0
  0
LINE
  8
0
  6
CONTINUOUS
 62
     7
  5
72F
 10
146.246498
 20
454.478476
 30
0.0
 11
146.631006
 21
454.478476
 31
0.0
  0
LINE
  8
0
  6
CONTINUOUS
 62
     7
  5
730
 10
103.720843
 20
454.478476
 30
0.0
 11
100.976506
 21
454.478476
 31
0.0
  0
LINE
  8
0
  6
CONTINUOUS
 62
     7
  5
731
 10
103.720843
 20
454.078476
 30
0.0
 11
103.720843
 21
454.478476
 31
0.0
  0
LINE
  8
0
  6
CONTINUOUS
 62
     7
  5
732
 10
105.590392
 20
451.473476
 30
0.0
 11
105.590392
 21
451.478476
 31
0.0
  0
LINE
  8
0
  6
CONTINUOUS
 62
     7
  5
733
 10
105.590392
 20
451.478476
 30
0.0
 11
108.554088
 21
451.478476
 31
0.0
  0
LINE
  8
0
  6
CONTINUOUS
 62
     7
  5
734
 10
108.554088
 20
454.078476
 30
0.0
 11
103.720843
 21
454.078476
 31
0.0
  0
LINE
  8
0
  6
CONTINUOUS
 62
     7
  5
735
 10
103.720843
 20
392.478476
 30
0.0
 11
100.976506
 21
392.478476
 31
0.0
  0
LINE
  8
0
  6
CONTINUOUS
 62
     7
  5
736
 10
105.590392
 20
395.478476
 30
0.0
 11
105.590392
 21
395.483476
 31
0.0
  0
LINE
  8
0
  6
CONTINUOUS
 62
     7
  5
737
 10
103.720843
 20
392.478476
 30
0.0
 11
103.720843
 21
392.878476
 31
0.0
  0
LINE
  8
0
  6
CONTINUOUS
 62
     7
  5
738
 10
108.554088
 20
395.478476
 30
0.0
 11
105.590392
 21
395.478476
 31
0.0
  0
LINE
  8
0
  6
CONTINUOUS
 62
     7
  5
739
 10
103.720843
 20
392.878476
 30
0.0
 11
108.554088
 21
392.878476
 31
0.0
  0
LINE
  8
0
  6
CONTINUOUS
 62
     7
  5
73A
 10
103.720843
 20
454.478476
 30
0.0
 11
108.476506
 21
454.478476
 31
0.0
  0
LINE
  8
0
  6
CONTINUOUS
 62
     7
  5
73B
 10
108.476506
 20
392.478476
 30
0.0
 11
103.720843
 21
392.478476
 31
0.0
  0
LINE
  8
0
  6
CONTINUOUS
 62
     7
  5
73C
 10
134.822449
 20
443.478476
 30
0.0
 11
134.822449
 21
448.478476
 31
0.0
  0
LINE
  8
0
  6
CONTINUOUS
 62
     7
  5
73D
 10
135.130101
 20
448.478476
 30
0.0
 11
135.130101
 21
443.478476
 31
0.0
  0
LINE
  8
0
  6
CONTINUOUS
 62
     7
  5
73E
 10
163.781006
 20
451.478476
 30
0.0
 11
163.781006
 21
454.078476
 31
0.0
  0
LINE
  8
0
  6
CONTINUOUS
 62
     7
  5
73F
 10
149.981006
 20
448.478476
 30
0.0
 11
172.131006
 21
448.478476
 31
0.0
  0
LINE
  8
0
  6
CONTINUOUS
 62
     7
  5
740
 10
141.631006
 20
451.478476
 30
0.0
 11
149.981006
 21
451.478476
 31
0.0
  0
LINE
  8
0
  6
CONTINUOUS
 62
     7
  5
741
 10
163.781006
 20
454.078476
 30
0.0
 11
141.631006
 21
454.078476
 31
0.0
  0
LINE
  8
0
  6
CONTINUOUS
 62
     7
  5
742
 10
172.131006
 20
448.478476
 30
0.0
 11
172.131006
 21
451.478476
 31
0.0
  0
LINE
  8
0
  6
CONTINUOUS
 62
     7
  5
743
 10
149.981006
 20
451.478476
 30
0.0
 11
149.981006
 21
448.478476
 31
0.0
  0
LINE
  8
0
  6
CONTINUOUS
 62
     7
  5
744
 10
141.631006
 20
451.478476
 30
0.0
 11
141.631006
 21
454.078476
 31
0.0
  0
LINE
  8
0
  6
CONTINUOUS
 62
     7
  5
745
 10
172.131006
 20
451.478476
 30
0.0
 11
163.781006
 21
451.478476
 31
0.0
  0
LINE
  8
0
  6
CONTINUOUS
 62
     7
  5
746
 10
172.131006
 20
448.478476
 30
0.0
 11
180.481006
 21
448.478476
 31
0.0
  0
LINE
  8
0
  6
CONTINUOUS
 62
     7
  5
747
 10
135.631006
 20
454.478476
 30
0.0
 11
129.131006
 21
454.478476
 31
0.0
  0
LINE
  8
0
  6
CONTINUOUS
 62
     7
  5
748
 10
135.631006
 20
454.078476
 30
0.0
 11
135.631006
 21
454.478476
 31
0.0
  0
LINE
  8
0
  6
CONTINUOUS
 62
     7
  5
749
 10
138.081006
 20
451.473476
 30
0.0
 11
138.081006
 21
451.478476
 31
0.0
  0
LINE
  8
0
  6
CONTINUOUS
 62
     7
  5
74A
 10
138.081006
 20
451.478476
 30
0.0
 11
141.631006
 21
451.478476
 31
0.0
  0
LINE
  8
0
  6
CONTINUOUS
 62
     7
  5
74B
 10
141.631006
 20
454.078476
 30
0.0
 11
135.631006
 21
454.078476
 31
0.0
  0
LINE
  8
0
  6
CONTINUOUS
 62
     7
  5
74C
 10
163.381006
 20
448.478476
 30
0.0
 11
163.381006
 21
443.478476
 31
0.0
  0
LINE
  8
0
  6
CONTINUOUS
 62
     7
  5
74D
 10
150.381006
 20
448.478476
 30
0.0
 11
150.381006
 21
443.478476
 31
0.0
  0
LINE
  8
0
  6
CONTINUOUS
 62
     7
  5
74E
 10
167.131006
 20
454.478476
 30
0.0
 11
167.131006
 21
454.078476
 31
0.0
  0
LINE
  8
0
  6
CONTINUOUS
 62
     7
  5
74F
 10
167.131006
 20
454.478476
 30
0.0
 11
177.131006
 21
454.478476
 31
0.0
  0
LINE
  8
0
  6
CONTINUOUS
 62
     7
  5
750
 10
177.131006
 20
454.078476
 30
0.0
 11
177.131006
 21
454.478476
 31
0.0
  0
LINE
  8
0
  6
CONTINUOUS
 62
     7
  5
751
 10
233.131006
 20
448.478476
 30
0.0
 11
233.131006
 21
451.478476
 31
0.0
  0
LINE
  8
0
  6
CONTINUOUS
 62
     7
  5
752
 10
210.981006
 20
448.478476
 30
0.0
 11
233.131006
 21
448.478476
 31
0.0
  0
LINE
  8
0
  6
CONTINUOUS
 62
     7
  5
753
 10
202.631006
 20
451.478476
 30
0.0
 11
210.981006
 21
451.478476
 31
0.0
  0
LINE
  8
0
  6
CONTINUOUS
 62
     7
  5
754
 10
233.131006
 20
451.478476
 30
0.0
 11
224.781006
 21
451.478476
 31
0.0
  0
LINE
  8
0
  6
CONTINUOUS
 62
     7
  5
755
 10
210.981006
 20
451.478476
 30
0.0
 11
210.981006
 21
448.478476
 31
0.0
  0
LINE
  8
0
  6
CONTINUOUS
 62
     7
  5
756
 10
224.781006
 20
451.478476
 30
0.0
 11
224.781006
 21
454.078476
 31
0.0
  0
LINE
  8
0
  6
CONTINUOUS
 62
     7
  5
757
 10
202.631006
 20
451.478476
 30
0.0
 11
202.631006
 21
454.078476
 31
0.0
  0
LINE
  8
0
  6
CONTINUOUS
 62
     7
  5
758
 10
224.781006
 20
454.078476
 30
0.0
 11
202.631006
 21
454.078476
 31
0.0
  0
LINE
  8
0
  6
CONTINUOUS
 62
     7
  5
759
 10
233.131006
 20
448.478476
 30
0.0
 11
241.481006
 21
448.478476
 31
0.0
  0
LINE
  8
0
  6
CONTINUOUS
 62
     7
  5
75A
 10
196.631006
 20
454.478476
 30
0.0
 11
190.131006
 21
454.478476
 31
0.0
  0
LINE
  8
0
  6
CONTINUOUS
 62
     7
  5
75B
 10
196.631006
 20
454.078476
 30
0.0
 11
196.631006
 21
454.478476
 31
0.0
  0
LINE
  8
0
  6
CONTINUOUS
 62
     7
  5
75C
 10
202.631006
 20
454.078476
 30
0.0
 11
196.631006
 21
454.078476
 31
0.0
  0
LINE
  8
0
  6
CONTINUOUS
 62
     7
  5
75D
 10
211.381006
 20
448.478476
 30
0.0
 11
211.381006
 21
443.478476
 31
0.0
  0
LINE
  8
0
  6
CONTINUOUS
 62
     7
  5
75E
 10
224.381006
 20
448.478476
 30
0.0
 11
224.381006
 21
443.478476
 31
0.0
  0
LINE
  8
0
  6
CONTINUOUS
 62
     7
  5
75F
 10
228.131006
 20
454.478476
 30
0.0
 11
228.131006
 21
454.078476
 31
0.0
  0
LINE
  8
0
  6
CONTINUOUS
 62
     7
  5
760
 10
238.131006
 20
454.078476
 30
0.0
 11
238.131006
 21
454.478476
 31
0.0
  0
LINE
  8
0
  6
CONTINUOUS
 62
     7
  5
761
 10
228.131006
 20
454.478476
 30
0.0
 11
238.131006
 21
454.478476
 31
0.0
  0
LINE
  8
0
  6
CONTINUOUS
 62
     7
  5
762
 10
263.631006
 20
451.478476
 30
0.0
 11
255.281006
 21
451.478476
 31
0.0
  0
LINE
  8
0
  6
CONTINUOUS
 62
     7
  5
763
 10
241.481006
 20
448.478476
 30
0.0
 11
263.631006
 21
448.478476
 31
0.0
  0
LINE
  8
0
  6
CONTINUOUS
 62
     7
  5
764
 10
233.131006
 20
451.478476
 30
0.0
 11
233.131006
 21
454.078476
 31
0.0
  0
LINE
  8
0
  6
CONTINUOUS
 62
     7
  5
765
 10
241.481006
 20
451.478476
 30
0.0
 11
241.481006
 21
448.478476
 31
0.0
  0
LINE
  8
0
  6
CONTINUOUS
 62
     7
  5
766
 10
233.131006
 20
451.478476
 30
0.0
 11
241.481006
 21
451.478476
 31
0.0
  0
LINE
  8
0
  6
CONTINUOUS
 62
     7
  5
767
 10
263.631006
 20
448.478476
 30
0.0
 11
263.631006
 21
451.478476
 31
0.0
  0
LINE
  8
0
  6
CONTINUOUS
 62
     7
  5
768
 10
255.281006
 20
454.078476
 30
0.0
 11
233.131006
 21
454.078476
 31
0.0
  0
LINE
  8
0
  6
CONTINUOUS
 62
     7
  5
769
 10
255.281006
 20
451.478476
 30
0.0
 11
255.281006
 21
454.078476
 31
0.0
  0
LINE
  8
0
  6
CONTINUOUS
 62
     7
  5
76A
 10
227.131006
 20
454.478476
 30
0.0
 11
220.631006
 21
454.478476
 31
0.0
  0
LINE
  8
0
  6
CONTINUOUS
 62
     7
  5
76B
 10
227.131006
 20
454.078476
 30
0.0
 11
227.131006
 21
454.478476
 31
0.0
  0
LINE
  8
0
  6
CONTINUOUS
 62
     7
  5
76C
 10
233.131006
 20
454.078476
 30
0.0
 11
227.131006
 21
454.078476
 31
0.0
  0
LINE
  8
0
  6
CONTINUOUS
 62
     7
  5
76D
 10
263.631006
 20
448.478476
 30
0.0
 11
271.981006
 21
448.478476
 31
0.0
  0
LINE
  8
0
  6
CONTINUOUS
 62
     7
  5
76E
 10
254.881006
 20
448.478476
 30
0.0
 11
254.881006
 21
443.478476
 31
0.0
  0
LINE
  8
0
  6
CONTINUOUS
 62
     7
  5
76F
 10
241.881006
 20
448.478476
 30
0.0
 11
241.881006
 21
443.478476
 31
0.0
  0
LINE
  8
0
  6
CONTINUOUS
 62
     7
  5
770
 10
258.631006
 20
454.478476
 30
0.0
 11
258.631006
 21
454.078476
 31
0.0
  0
LINE
  8
0
  6
CONTINUOUS
 62
     7
  5
771
 10
258.631006
 20
454.478476
 30
0.0
 11
268.631006
 21
454.478476
 31
0.0
  0
LINE
  8
0
  6
CONTINUOUS
 62
     7
  5
772
 10
268.631006
 20
454.078476
 30
0.0
 11
268.631006
 21
454.478476
 31
0.0
  0
LINE
  8
0
  6
CONTINUOUS
 62
     7
  5
773
 10
271.981006
 20
448.478476
 30
0.0
 11
294.131006
 21
448.478476
 31
0.0
  0
LINE
  8
0
  6
CONTINUOUS
 62
     7
  5
774
 10
285.781006
 20
454.078476
 30
0.0
 11
263.631006
 21
454.078476
 31
0.0
  0
LINE
  8
0
  6
CONTINUOUS
 62
     7
  5
775
 10
263.631006
 20
451.478476
 30
0.0
 11
263.631006
 21
454.078476
 31
0.0
  0
LINE
  8
0
  6
CONTINUOUS
 62
     7
  5
776
 10
263.631006
 20
451.478476
 30
0.0
 11
271.981006
 21
451.478476
 31
0.0
  0
LINE
  8
0
  6
CONTINUOUS
 62
     7
  5
777
 10
271.981006
 20
451.478476
 30
0.0
 11
271.981006
 21
448.478476
 31
0.0
  0
LINE
  8
0
  6
CONTINUOUS
 62
     7
  5
778
 10
294.131006
 20
448.478476
 30
0.0
 11
294.131006
 21
451.478476
 31
0.0
  0
LINE
  8
0
  6
CONTINUOUS
 62
     7
  5
779
 10
285.781006
 20
451.478476
 30
0.0
 11
285.781006
 21
454.078476
 31
0.0
  0
LINE
  8
0
  6
CONTINUOUS
 62
     7
  5
77A
 10
294.131006
 20
451.478476
 30
0.0
 11
285.781006
 21
451.478476
 31
0.0
  0
LINE
  8
0
  6
CONTINUOUS
 62
     7
  5
77B
 10
257.631006
 20
454.478476
 30
0.0
 11
251.131006
 21
454.478476
 31
0.0
  0
LINE
  8
0
  6
CONTINUOUS
 62
     7
  5
77C
 10
257.631006
 20
454.078476
 30
0.0
 11
257.631006
 21
454.478476
 31
0.0
  0
LINE
  8
0
  6
CONTINUOUS
 62
     7
  5
77D
 10
263.631006
 20
454.078476
 30
0.0
 11
257.631006
 21
454.078476
 31
0.0
  0
LINE
  8
0
  6
CONTINUOUS
 62
     7
  5
77E
 10
296.376001
 20
451.478476
 30
0.0
 11
294.131006
 21
451.478476
 31
0.0
  0
LINE
  8
0
  6
CONTINUOUS
 62
     7
  5
77F
 10
294.131006
 20
448.478476
 30
0.0
 11
296.376001
 21
448.478476
 31
0.0
  0
LINE
  8
0
  6
CONTINUOUS
 62
     7
  5
780
 10
272.381006
 20
448.478476
 30
0.0
 11
272.381006
 21
443.478476
 31
0.0
  0
LINE
  8
0
  6
CONTINUOUS
 62
     7
  5
781
 10
285.381006
 20
448.478476
 30
0.0
 11
285.381006
 21
443.478476
 31
0.0
  0
ARC
  8
0
  6
CONTINUOUS
 62
     7
  5
782
 10
320.631006
 20
382.478476
 30
0.0
 40
2.5
 50
270.0
 51
23.578178
210
0.0
220
0.0
230
1.0
  0
ARC
  8
0
  6
CONTINUOUS
 62
     7
  5
783
 10
320.631006
 20
382.478476
 30
0.0
 40
2.5
 50
156.421822
 51
270.0
210
0.0
220
0.0
230
0.9999999999999999
  0
ARC
  8
0
  6
CONTINUOUS
 62
     7
  5
784
 10
320.631006
 20
382.478476
 30
0.0
 40
3.0
 50
160.528779
 51
270.0
210
0.0
220
0.0
230
1.0
  0
ARC
  8
0
  6
CONTINUOUS
 62
     7
  5
785
 10
320.631006
 20
382.478476
 30
0.0
 40
3.0
 50
270.0
 51
19.471221
210
0.0
220
0.0
230
1.0
  0
CIRCLE
  8
0
  6
CONTINUOUS
 62
     7
  5
786
 10
320.631006
 20
369.478476
 30
0.0
 40
2.5
210
0.0
220
0.0
230
1.0
  0
CIRCLE
  8
0
  6
CONTINUOUS
 62
     7
  5
787
 10
320.631006
 20
369.478476
 30
0.0
 40
3.0
210
0.0
220
0.0
230
1.0
  0
LINE
  8
0
  6
CONTINUOUS
 62
     7
  5
788
 10
328.131006
 20
372.678476
 30
0.0
 11
328.131006
 21
363.478476
 31
0.0
  0
LINE
  8
0
  6
CONTINUOUS
 62
     7
  5
789
 10
328.131006
 20
363.478476
 30
0.0
 11
313.131006
 21
363.478476
 31
0.0
  0
LINE
  8
0
  6
CONTINUOUS
 62
     7
  5
78A
 10
313.131006
 20
363.478476
 30
0.0
 11
313.131006
 21
383.478476
 31
0.0
  0
LINE
  8
0
  6
CONTINUOUS
 62
     7
  5
78B
 10
127.131006
 20
383.478476
 30
0.0
 11
334.131006
 21
383.478476
 31
0.0
  0
LINE
  8
0
  6
CONTINUOUS
 62
     7
  5
78C
 10
127.131006
 20
438.478476
 30
0.0
 11
127.131006
 21
383.478476
 31
0.0
  0
LINE
  8
0
  6
CONTINUOUS
 62
     7
  5
78D
 10
132.131006
 20
443.478476
 30
0.0
 11
329.131006
 21
443.478476
 31
0.0
  0
LINE
  8
0
  6
CONTINUOUS
 62
     7
  5
78E
 10
334.131006
 20
438.478476
 30
0.0
 11
329.131006
 21
443.478476
 31
0.0
  0
LINE
  8
0
  6
CONTINUOUS
 62
     7
  5
78F
 10
334.131006
 20
438.478476
 30
0.0
 11
334.131006
 21
383.478476
 31
0.0
  0
LINE
  8
0
  6
CONTINUOUS
 62
     7
  5
790
 10
132.131006
 20
443.478476
 30
0.0
 11
127.131006
 21
438.478476
 31
0.0
  0
LINE
  8
0
  6
CONTINUOUS
 62
     7
  5
791
 10
296.376001
 20
448.478476
 30
0.0
 11
302.131006
 21
448.478476
 31
0.0
  0
LINE
  8
0
  6
CONTINUOUS
 62
     7
  5
792
 10
296.376001
 20
451.478476
 30
0.0
 11
296.376001
 21
448.478476
 31
0.0
  0
LINE
  8
0
  6
CONTINUOUS
 62
     7
  5
793
 10
294.131006
 20
451.478476
 30
0.0
 11
296.376001
 21
451.478476
 31
0.0
  0
LINE
  8
0
  6
CONTINUOUS
 62
     9
  5
794
 10
294.131006
 20
454.478476
 30
0.0
 11
294.131006
 21
451.478476
 31
0.0
  0
LINE
  8
0
  6
CONTINUOUS
 62
     7
  5
795
 10
294.131006
 20
454.478476
 30
0.0
 11
332.131006
 21
454.478476
 31
0.0
  0
LINE
  8
0
  6
CONTINUOUS
 62
     7
  5
796
 10
332.131006
 20
454.478476
 30
0.0
 11
332.131006
 21
442.478476
 31
0.0
  0
LINE
  8
0
  6
CONTINUOUS
 62
     7
  5
797
 10
334.131006
 20
442.478476
 30
0.0
 11
332.131006
 21
442.478476
 31
0.0
  0
LINE
  8
0
  6
CONTINUOUS
 62
     7
  5
798
 10
302.131006
 20
448.478476
 30
0.0
 11
302.131006
 21
443.478476
 31
0.0
  0
LINE
  8
0
  6
CONTINUOUS
 62
     7
  5
799
 10
334.131006
 20
442.478476
 30
0.0
 11
334.131006
 21
438.478476
 31
0.0
  0
LINE
  8
0
  6
CONTINUOUS
 62
     7
  5
79A
 10
281.631006
 20
454.478476
 30
0.0
 11
294.131006
 21
454.478476
 31
0.0
  0
LINE
  8
0
  6
CONTINUOUS
 62
     7
  5
79B
 10
335.631006
 20
428.478476
 30
0.0
 11
349.131006
 21
428.478476
 31
0.0
  0
LINE
  8
0
  6
CONTINUOUS
 62
     7
  5
79C
 10
335.631006
 20
426.478476
 30
0.0
 11
335.631006
 21
428.478476
 31
0.0
  0
LINE
  8
0
  6
CONTINUOUS
 62
     7
  5
79D
 10
349.131006
 20
426.478476
 30
0.0
 11
335.631006
 21
426.478476
 31
0.0
  0
LINE
  8
0
  6
CONTINUOUS
 62
     7
  5
79E
 10
349.131006
 20
426.478476
 30
0.0
 11
349.131006
 21
420.478476
 31
0.0
  0
LINE
  8
0
  6
CONTINUOUS
 62
     7
  5
79F
 10
335.631006
 20
420.478476
 30
0.0
 11
349.131006
 21
420.478476
 31
0.0
  0
LINE
  8
0
  6
CONTINUOUS
 62
     7
  5
7A0
 10
335.631006
 20
418.478476
 30
0.0
 11
335.631006
 21
420.478476
 31
0.0
  0
LINE
  8
0
  6
CONTINUOUS
 62
     7
  5
7A1
 10
349.131006
 20
418.478476
 30
0.0
 11
335.631006
 21
418.478476
 31
0.0
  0
LINE
  8
0
  6
CONTINUOUS
 62
     7
  5
7A2
 10
349.131006
 20
418.478476
 30
0.0
 11
349.131006
 21
412.478476
 31
0.0
  0
LINE
  8
0
  6
CONTINUOUS
 62
     7
  5
7A3
 10
335.631006
 20
412.478476
 30
0.0
 11
349.131006
 21
412.478476
 31
0.0
  0
LINE
  8
0
  6
CONTINUOUS
 62
     7
  5
7A4
 10
335.631006
 20
410.478476
 30
0.0
 11
335.631006
 21
412.478476
 31
0.0
  0
LINE
  8
0
  6
CONTINUOUS
 62
     7
  5
7A5
 10
349.131006
 20
410.478476
 30
0.0
 11
335.631006
 21
410.478476
 31
0.0
  0
LINE
  8
0
  6
CONTINUOUS
 62
     7
  5
7A6
 10
349.131006
 20
410.478476
 30
0.0
 11
349.131006
 21
404.478476
 31
0.0
  0
LINE
  8
0
  6
CONTINUOUS
 62
     7
  5
7A7
 10
349.131006
 20
434.478476
 30
0.0
 11
335.631006
 21
434.478476
 31
0.0
  0
LINE
  8
0
  6
CONTINUOUS
 62
     7
  5
7A8
 10
349.131006
 20
442.478476
 30
0.0
 11
349.131006
 21
436.478476
 31
0.0
  0
LINE
  8
0
  6
CONTINUOUS
 62
     7
  5
7A9
 10
349.131006
 20
434.478476
 30
0.0
 11
349.131006
 21
428.478476
 31
0.0
  0
LINE
  8
0
  6
CONTINUOUS
 62
     7
  5
7AA
 10
335.631006
 20
434.478476
 30
0.0
 11
335.631006
 21
436.478476
 31
0.0
  0
LINE
  8
0
  6
CONTINUOUS
 62
     7
  5
7AB
 10
335.631006
 20
436.478476
 30
0.0
 11
349.131006
 21
436.478476
 31
0.0
  0
LINE
  8
0
  6
CONTINUOUS
 62
     7
  5
7AC
 10
334.131006
 20
404.478476
 30
0.0
 11
349.131006
 21
404.478476
 31
0.0
  0
LINE
  8
0
  6
CONTINUOUS
 62
     7
  5
7AD
 10
349.131006
 20
442.478476
 30
0.0
 11
334.131006
 21
442.478476
 31
0.0
  0
LINE
  8
0
  6
CONTINUOUS
 62
     7
  5
7AE
 10
141.131006
 20
372.678476
 30
0.0
 11
141.131006
 21
378.678476
 31
0.0
  0
LINE
  8
0
  6
CONTINUOUS
 62
     7
  5
7AF
 10
127.131006
 20
372.678476
 30
0.0
 11
141.131006
 21
372.678476
 31
0.0
  0
LINE
  8
0
  6
CONTINUOUS
 62
     7
  5
7B0
 10
127.131006
 20
372.678476
 30
0.0
 11
127.131006
 21
378.678476
 31
0.0
  0
LINE
  8
0
  6
CONTINUOUS
 62
     7
  5
7B1
 10
127.131006
 20
378.678476
 30
0.0
 11
141.131006
 21
378.678476
 31
0.0
  0
LINE
  8
0
  6
CONTINUOUS
 62
     7
  5
7B2
 10
334.131006
 20
372.678476
 30
0.0
 11
334.131006
 21
378.678476
 31
0.0
  0
LINE
  8
0
  6
CONTINUOUS
 62
     7
  5
7B3
 10
320.131006
 20
372.678476
 30
0.0
 11
334.131006
 21
372.678476
 31
0.0
  0
LINE
  8
0
  6
CONTINUOUS
 62
     7
  5
7B4
 10
320.131006
 20
372.678476
 30
0.0
 11
320.131006
 21
378.678476
 31
0.0
  0
LINE
  8
0
  6
CONTINUOUS
 62
     7
  5
7B5
 10
320.131006
 20
378.678476
 30
0.0
 11
334.131006
 21
378.678476
 31
0.0
  0
LINE
  8
0
  6
CONTINUOUS
 62
     7
  5
7B6
 10
159.631006
 20
454.478476
 30
0.0
 11
159.631006
 21
454.078476
 31
0.0
  0
LINE
  8
0
  6
CONTINUOUS
 62
     7
  5
7B7
 10
215.131006
 20
454.078476
 30
0.0
 11
215.131006
 21
454.478476
 31
0.0
  0
LINE
  8
0
  6
CONTINUOUS
 62
     7
  5
7B8
 10
276.131006
 20
454.078476
 30
0.0
 11
276.131006
 21
454.478476
 31
0.0
  0
LINE
  8
0
  6
CONTINUOUS
 62
     7
  5
7B9
 10
245.631006
 20
454.078476
 30
0.0
 11
245.631006
 21
454.478476
 31
0.0
  0
LINE
  8
0
  6
CONTINUOUS
 62
     7
  5
7BA
 10
184.631006
 20
454.078476
 30
0.0
 11
184.631006
 21
454.478476
 31
0.0
  0
LINE
  8
0
  6
CONTINUOUS
 62
     7
  5
7BB
 10
108.476506
 20
454.478476
 30
0.0
 11
108.476506
 21
454.078476
 31
0.0
  0
LINE
  8
0
  6
CONTINUOUS
 62
     7
  5
7BC
 10
108.476506
 20
392.878476
 30
0.0
 11
108.476506
 21
392.478476
 31
0.0
  0
LINE
  8
0
  6
CONTINUOUS
 62
     7
  5
7BD
 10
118.476506
 20
454.078476
 30
0.0
 11
118.476506
 21
454.478476
 31
0.0
  0
LINE
  8
0
  6
CONTINUOUS
 62
     7
  5
7BE
 10
118.476506
 20
392.478476
 30
0.0
 11
118.476506
 21
392.878476
 31
0.0
  0
LINE
  8
0
  6
CONTINUOUS
 62
     7
  5
7BF
 10
78.609937
 20
454.478476
 30
0.0
 11
78.609937
 21
451.478476
 31
0.0
  0
LINE
  8
0
  6
CONTINUOUS
 62
     7
  5
7C0
 10
78.609937
 20
395.478476
 30
0.0
 11
78.609937
 21
392.478476
 31
0.0
  0
LINE
  8
0
  6
CONTINUOUS
 62
     7
  5
7C1
 10
86.109937
 20
454.478476
 30
0.0
 11
86.109937
 21
454.078476
 31
0.0
  0
LINE
  8
0
  6
CONTINUOUS
 62
     7
  5
7C2
 10
86.109937
 20
392.878476
 30
0.0
 11
86.109937
 21
392.478476
 31
0.0
  0
LINE
  8
0
  6
CONTINUOUS
 62
     7
  5
7C3
 10
96.109937
 20
454.078476
 30
0.0
 11
96.109937
 21
454.478476
 31
0.0
  0
LINE
  8
0
  6
CONTINUOUS
 62
     7
  5
7C4
 10
96.109937
 20
392.478476
 30
0.0
 11
96.109937
 21
392.878476
 31
0.0
  0
LINE
  8
0
  6
CONTINUOUS
 62
     7
  5
7C5
 10
66.349361
 20
454.078476
 30
0.0
 11
66.349361
 21
451.478476
 31
0.0
  0
LINE
  8
0
  6
CONTINUOUS
 62
     7
  5
7C6
 10
66.349361
 20
395.478476
 30
0.0
 11
66.349361
 21
392.878476
 31
0.0
  0
LINE
  8
0
  6
CONTINUOUS
 62
     7
  5
7C7
 10
73.849361
 20
454.478476
 30
0.0
 11
73.849361
 21
454.078476
 31
0.0
  0
LINE
  8
0
  6
CONTINUOUS
 62
     7
  5
7C8
 10
73.849361
 20
392.878476
 30
0.0
 11
73.849361
 21
392.478476
 31
0.0
  0
LINE
  8
0
  6
CONTINUOUS
 62
     7
  5
7C9
 10
125.443226
 20
454.078476
 30
0.0
 11
125.443226
 21
454.478476
 31
0.0
  0
LINE
  8
0
  6
CONTINUOUS
 62
     7
  5
7CA
 10
125.443226
 20
392.478476
 30
0.0
 11
125.443226
 21
392.878476
 31
0.0
  0
LINE
  8
0
  6
CONTINUOUS
 62
     7
  5
7CB
 10
154.131643
 20
454.078476
 30
0.0
 11
154.131643
 21
454.478476
 31
0.0
  0
LINE
  8
0
  6
CONTINUOUS
 62
     7
  5
7CC
 10
136.631006
 20
454.478476
 30
0.0
 11
136.631006
 21
454.078476
 31
0.0
  0
LINE
  8
0
  6
CONTINUOUS
 62
     7
  5
7CD
 10
146.631006
 20
454.078476
 30
0.0
 11
146.631006
 21
454.478476
 31
0.0
  0
LINE
  8
0
  6
CONTINUOUS
 62
     7
  5
7CE
 10
100.976506
 20
454.478476
 30
0.0
 11
100.976506
 21
451.478476
 31
0.0
  0
LINE
  8
0
  6
CONTINUOUS
 62
     7
  5
7CF
 10
100.976506
 20
395.478476
 30
0.0
 11
100.976506
 21
392.478476
 31
0.0
  0
LINE
  8
0
  6
CONTINUOUS
 62
     7
  5
7D0
 10
129.131006
 20
454.478476
 30
0.0
 11
129.131006
 21
454.078476
 31
0.0
  0
LINE
  8
0
  6
CONTINUOUS
 62
     7
  5
7D1
 10
190.131006
 20
454.478476
 30
0.0
 11
190.131006
 21
454.078476
 31
0.0
  0
LINE
  8
0
  6
CONTINUOUS
 62
     7
  5
7D2
 10
220.631006
 20
454.478476
 30
0.0
 11
220.631006
 21
454.078476
 31
0.0
  0
LINE
  8
0
  6
CONTINUOUS
 62
     7
  5
7D3
 10
251.131006
 20
454.478476
 30
0.0
 11
251.131006
 21
454.078476
 31
0.0
  0
LINE
  8
0
  6
CONTINUOUS
 62
     7
  5
7D4
 10
281.631006
 20
454.478476
 30
0.0
 11
281.631006
 21
454.078476
 31
0.0
  0
LINE
  8
0
  6
CONTINUOUS
 62
     7
  5
7D5
 10
324.131006
 20
383.478476
 30
0.0
 11
324.131006
 21
378.678476
 31
0.0
  0
LINE
  8
0
  6
CONTINUOUS
 62
     7
  5
7D6
 10
330.131006
 20
378.678476
 30
0.0
 11
330.131006
 21
383.478476
 31
0.0
  0
LINE
  8
0
  6
CONTINUOUS
 62
     7
  5
7D7
 10
131.131006
 20
383.478476
 30
0.0
 11
131.131006
 21
378.678476
 31
0.0
  0
LINE
  8
0
  6
CONTINUOUS
 62
     7
  5
7D8
 10
137.131006
 20
378.678476
 30
0.0
 11
137.131006
 21
383.478476
 31
0.0
  0
ENDBLK
  8
0
  5
7D9
  0
BLOCK
  8
0
  5
7DC
  2
AID3937
 70
     0
 10
0.0
 20
0.0
 30
0.0
  3
#auxiliary draft view
  0
LINE
  8
0
  6
CONTINUOUS
 62
     7
  5
7DD
 10
159.631006
 20
-89.146701
 30
0.0
 11
166.131006
 21
-89.146701
 31
0.0
  0
LINE
  8
0
  6
CONTINUOUS
 62
     7
  5
7DE
 10
166.131006
 20
-89.546701
 30
0.0
 11
166.131006
 21
-89.146701
 31
0.0
  0
LINE
  8
0
  6
CONTINUOUS
 62
     7
  5
7DF
 10
159.631006
 20
-151.146701
 30
0.0
 11
166.131006
 21
-151.146701
 31
0.0
  0
LINE
  8
0
  6
CONTINUOUS
 62
     7
  5
7E0
 10
166.131006
 20
-151.146701
 30
0.0
 11
166.131006
 21
-150.746701
 31
0.0
  0
LINE
  8
0
  6
CONTINUOUS
 62
     7
  5
7E1
 10
172.131006
 20
-95.146701
 30
0.0
 11
194.281006
 21
-95.146701
 31
0.0
  0
LINE
  8
0
  6
CONTINUOUS
 62
     7
  5
7E2
 10
180.481006
 20
-89.546701
 30
0.0
 11
180.481006
 21
-92.146701
 31
0.0
  0
LINE
  8
0
  6
CONTINUOUS
 62
     7
  5
7E3
 10
202.631006
 20
-89.546701
 30
0.0
 11
180.481006
 21
-89.546701
 31
0.0
  0
LINE
  8
0
  6
CONTINUOUS
 62
     7
  5
7E4
 10
194.281006
 20
-95.146701
 30
0.0
 11
194.281006
 21
-92.146701
 31
0.0
  0
LINE
  8
0
  6
CONTINUOUS
 62
     7
  5
7E5
 10
194.281006
 20
-92.146701
 30
0.0
 11
202.631006
 21
-92.146701
 31
0.0
  0
LINE
  8
0
  6
CONTINUOUS
 62
     7
  5
7E6
 10
202.631006
 20
-89.546701
 30
0.0
 11
202.631006
 21
-92.146701
 31
0.0
  0
LINE
  8
0
  6
CONTINUOUS
 62
     7
  5
7E7
 10
180.481006
 20
-92.146701
 30
0.0
 11
172.131006
 21
-92.146701
 31
0.0
  0
LINE
  8
0
  6
CONTINUOUS
 62
     7
  5
7E8
 10
172.131006
 20
-92.146701
 30
0.0
 11
172.131006
 21
-95.146701
 31
0.0
  0
LINE
  8
0
  6
CONTINUOUS
 62
     7
  5
7E9
 10
180.481006
 20
-148.146701
 30
0.0
 11
180.481006
 21
-150.746701
 31
0.0
  0
LINE
  8
0
  6
CONTINUOUS
 62
     7
  5
7EA
 10
194.281006
 20
-145.146701
 30
0.0
 11
172.131006
 21
-145.146701
 31
0.0
  0
LINE
  8
0
  6
CONTINUOUS
 62
     7
  5
7EB
 10
202.631006
 20
-148.146701
 30
0.0
 11
194.281006
 21
-148.146701
 31
0.0
  0
LINE
  8
0
  6
CONTINUOUS
 62
     7
  5
7EC
 10
202.631006
 20
-148.146701
 30
0.0
 11
202.631006
 21
-150.746701
 31
0.0
  0
LINE
  8
0
  6
CONTINUOUS
 62
     7
  5
7ED
 10
180.481006
 20
-150.746701
 30
0.0
 11
202.631006
 21
-150.746701
 31
0.0
  0
LINE
  8
0
  6
CONTINUOUS
 62
     7
  5
7EE
 10
194.281006
 20
-148.146701
 30
0.0
 11
194.281006
 21
-145.146701
 31
0.0
  0
LINE
  8
0
  6
CONTINUOUS
 62
     7
  5
7EF
 10
172.131006
 20
-145.146701
 30
0.0
 11
172.131006
 21
-148.146701
 31
0.0
  0
LINE
  8
0
  6
CONTINUOUS
 62
     7
  5
7F0
 10
172.131006
 20
-148.146701
 30
0.0
 11
180.481006
 21
-148.146701
 31
0.0
  0
LINE
  8
0
  6
CONTINUOUS
 62
     7
  5
7F1
 10
208.631006
 20
-89.146701
 30
0.0
 11
215.131006
 21
-89.146701
 31
0.0
  0
LINE
  8
0
  6
CONTINUOUS
 62
     7
  5
7F2
 10
208.631006
 20
-89.146701
 30
0.0
 11
208.631006
 21
-89.546701
 31
0.0
  0
LINE
  8
0
  6
CONTINUOUS
 62
     7
  5
7F3
 10
208.631006
 20
-89.546701
 30
0.0
 11
202.631006
 21
-89.546701
 31
0.0
  0
LINE
  8
0
  6
CONTINUOUS
 62
     7
  5
7F4
 10
172.131006
 20
-145.146701
 30
0.0
 11
163.781006
 21
-145.146701
 31
0.0
  0
LINE
  8
0
  6
CONTINUOUS
 62
     7
  5
7F5
 10
163.781006
 20
-95.146701
 30
0.0
 11
172.131006
 21
-95.146701
 31
0.0
  0
LINE
  8
0
  6
CONTINUOUS
 62
     7
  5
7F6
 10
208.631006
 20
-151.146701
 30
0.0
 11
215.131006
 21
-151.146701
 31
0.0
  0
LINE
  8
0
  6
CONTINUOUS
 62
     7
  5
7F7
 10
208.631006
 20
-150.746701
 30
0.0
 11
208.631006
 21
-151.146701
 31
0.0
  0
LINE
  8
0
  6
CONTINUOUS
 62
     7
  5
7F8
 10
202.631006
 20
-150.746701
 30
0.0
 11
208.631006
 21
-150.746701
 31
0.0
  0
LINE
  8
0
  6
CONTINUOUS
 62
     7
  5
7F9
 10
193.881006
 20
-145.146701
 30
0.0
 11
193.881006
 21
-95.146701
 31
0.0
  0
LINE
  8
0
  6
CONTINUOUS
 62
     7
  5
7FA
 10
180.881006
 20
-145.146701
 30
0.0
 11
180.881006
 21
-95.146701
 31
0.0
  0
LINE
  8
0
  6
CONTINUOUS
 62
     7
  5
7FB
 10
177.131006
 20
-89.546701
 30
0.0
 11
177.131006
 21
-89.146701
 31
0.0
  0
LINE
  8
0
  6
CONTINUOUS
 62
     7
  5
7FC
 10
167.131006
 20
-89.146701
 30
0.0
 11
167.131006
 21
-89.546701
 31
0.0
  0
LINE
  8
0
  6
CONTINUOUS
 62
     7
  5
7FD
 10
167.131006
 20
-89.146701
 30
0.0
 11
177.131006
 21
-89.146701
 31
0.0
  0
LINE
  8
0
  6
CONTINUOUS
 62
     7
  5
7FE
 10
177.131006
 20
-151.146701
 30
0.0
 11
177.131006
 21
-150.746701
 31
0.0
  0
LINE
  8
0
  6
CONTINUOUS
 62
     7
  5
7FF
 10
177.131006
 20
-151.146701
 30
0.0
 11
167.131006
 21
-151.146701
 31
0.0
  0
LINE
  8
0
  6
CONTINUOUS
 62
     7
  5
800
 10
167.131006
 20
-150.746701
 30
0.0
 11
167.131006
 21
-151.146701
 31
0.0
  0
LINE
  8
0
  6
CONTINUOUS
 62
     7
  5
801
 10
285.781006
 20
-92.146701
 30
0.0
 11
294.131006
 21
-92.146701
 31
0.0
  0
LINE
  8
0
  6
CONTINUOUS
 62
     7
  5
802
 10
263.631006
 20
-95.146701
 30
0.0
 11
285.781006
 21
-95.146701
 31
0.0
  0
LINE
  8
0
  6
CONTINUOUS
 62
     7
  5
803
 10
263.631006
 20
-92.146701
 30
0.0
 11
263.631006
 21
-95.146701
 31
0.0
  0
LINE
  8
0
  6
CONTINUOUS
 62
     7
  5
804
 10
271.981006
 20
-92.146701
 30
0.0
 11
263.631006
 21
-92.146701
 31
0.0
  0
LINE
  8
0
  6
CONTINUOUS
 62
     7
  5
805
 10
271.981006
 20
-89.546701
 30
0.0
 11
271.981006
 21
-92.146701
 31
0.0
  0
LINE
  8
0
  6
CONTINUOUS
 62
     7
  5
806
 10
294.131006
 20
-89.546701
 30
0.0
 11
271.981006
 21
-89.546701
 31
0.0
  0
LINE
  8
0
  6
CONTINUOUS
 62
     7
  5
807
 10
294.131006
 20
-89.546701
 30
0.0
 11
294.131006
 21
-92.146701
 31
0.0
  0
LINE
  8
0
  6
CONTINUOUS
 62
     7
  5
808
 10
285.781006
 20
-95.146701
 30
0.0
 11
285.781006
 21
-92.146701
 31
0.0
  0
LINE
  8
0
  6
CONTINUOUS
 62
     7
  5
809
 10
271.981006
 20
-148.146701
 30
0.0
 11
271.981006
 21
-150.746701
 31
0.0
  0
LINE
  8
0
  6
CONTINUOUS
 62
     7
  5
80A
 10
263.631006
 20
-148.146701
 30
0.0
 11
271.981006
 21
-148.146701
 31
0.0
  0
LINE
  8
0
  6
CONTINUOUS
 62
     7
  5
80B
 10
285.781006
 20
-148.146701
 30
0.0
 11
285.781006
 21
-145.146701
 31
0.0
  0
LINE
  8
0
  6
CONTINUOUS
 62
     7
  5
80C
 10
271.981006
 20
-150.746701
 30
0.0
 11
294.131006
 21
-150.746701
 31
0.0
  0
LINE
  8
0
  6
CONTINUOUS
 62
     7
  5
80D
 10
294.131006
 20
-148.146701
 30
0.0
 11
294.131006
 21
-150.746701
 31
0.0
  0
LINE
  8
0
  6
CONTINUOUS
 62
     7
  5
80E
 10
294.131006
 20
-148.146701
 30
0.0
 11
285.781006
 21
-148.146701
 31
0.0
  0
LINE
  8
0
  6
CONTINUOUS
 62
     7
  5
80F
 10
285.781006
 20
-145.146701
 30
0.0
 11
263.631006
 21
-145.146701
 31
0.0
  0
LINE
  8
0
  6
CONTINUOUS
 62
     7
  5
810
 10
263.631006
 20
-145.146701
 30
0.0
 11
263.631006
 21
-148.146701
 31
0.0
  0
LINE
  8
0
  6
CONTINUOUS
 62
     7
  5
811
 10
263.631006
 20
-145.146701
 30
0.0
 11
255.281006
 21
-145.146701
 31
0.0
  0
LINE
  8
0
  6
CONTINUOUS
 62
     7
  5
812
 10
300.131006
 20
-89.546701
 30
0.0
 11
294.131006
 21
-89.546701
 31
0.0
  0
LINE
  8
0
  6
CONTINUOUS
 62
     7
  5
813
 10
294.131006
 20
-92.146701
 30
0.0
 11
297.681006
 21
-92.146701
 31
0.0
  0
LINE
  8
0
  6
CONTINUOUS
 62
     7
  5
814
 10
255.281006
 20
-95.146701
 30
0.0
 11
263.631006
 21
-95.146701
 31
0.0
  0
LINE
  8
0
  6
CONTINUOUS
 62
     7
  5
815
 10
294.131006
 20
-150.746701
 30
0.0
 11
300.131006
 21
-150.746701
 31
0.0
  0
LINE
  8
0
  6
CONTINUOUS
 62
     7
  5
816
 10
297.681006
 20
-148.146701
 30
0.0
 11
294.131006
 21
-148.146701
 31
0.0
  0
LINE
  8
0
  6
CONTINUOUS
 62
     7
  5
817
 10
272.381006
 20
-145.146701
 30
0.0
 11
272.381006
 21
-95.146701
 31
0.0
  0
LINE
  8
0
  6
CONTINUOUS
 62
     7
  5
818
 10
285.381006
 20
-145.146701
 30
0.0
 11
285.381006
 21
-95.146701
 31
0.0
  0
LINE
  8
0
  6
CONTINUOUS
 62
     7
  5
819
 10
268.631006
 20
-151.146701
 30
0.0
 11
268.631006
 21
-150.746701
 31
0.0
  0
LINE
  8
0
  6
CONTINUOUS
 62
     7
  5
81A
 10
258.631006
 20
-150.746701
 30
0.0
 11
258.631006
 21
-151.146701
 31
0.0
  0
LINE
  8
0
  6
CONTINUOUS
 62
     7
  5
81B
 10
268.631006
 20
-151.146701
 30
0.0
 11
258.631006
 21
-151.146701
 31
0.0
  0
LINE
  8
0
  6
CONTINUOUS
 62
     7
  5
81C
 10
268.631006
 20
-89.546701
 30
0.0
 11
268.631006
 21
-89.146701
 31
0.0
  0
LINE
  8
0
  6
CONTINUOUS
 62
     7
  5
81D
 10
258.631006
 20
-89.146701
 30
0.0
 11
258.631006
 21
-89.546701
 31
0.0
  0
LINE
  8
0
  6
CONTINUOUS
 62
     7
  5
81E
 10
258.631006
 20
-89.146701
 30
0.0
 11
268.631006
 21
-89.146701
 31
0.0
  0
LINE
  8
0
  6
CONTINUOUS
 62
     7
  5
81F
 10
255.281006
 20
-92.146701
 30
0.0
 11
263.631006
 21
-92.146701
 31
0.0
  0
LINE
  8
0
  6
CONTINUOUS
 62
     7
  5
820
 10
255.281006
 20
-95.146701
 30
0.0
 11
255.281006
 21
-92.146701
 31
0.0
  0
LINE
  8
0
  6
CONTINUOUS
 62
     7
  5
821
 10
233.131006
 20
-95.146701
 30
0.0
 11
255.281006
 21
-95.146701
 31
0.0
  0
LINE
  8
0
  6
CONTINUOUS
 62
     7
  5
822
 10
241.481006
 20
-89.546701
 30
0.0
 11
241.481006
 21
-92.146701
 31
0.0
  0
LINE
  8
0
  6
CONTINUOUS
 62
     7
  5
823
 10
233.131006
 20
-92.146701
 30
0.0
 11
233.131006
 21
-95.146701
 31
0.0
  0
LINE
  8
0
  6
CONTINUOUS
 62
     7
  5
824
 10
241.481006
 20
-92.146701
 30
0.0
 11
233.131006
 21
-92.146701
 31
0.0
  0
LINE
  8
0
  6
CONTINUOUS
 62
     7
  5
825
 10
263.631006
 20
-89.546701
 30
0.0
 11
263.631006
 21
-92.146701
 31
0.0
  0
LINE
  8
0
  6
CONTINUOUS
 62
     7
  5
826
 10
263.631006
 20
-89.546701
 30
0.0
 11
241.481006
 21
-89.546701
 31
0.0
  0
LINE
  8
0
  6
CONTINUOUS
 62
     7
  5
827
 10
233.131006
 20
-145.146701
 30
0.0
 11
233.131006
 21
-148.146701
 31
0.0
  0
LINE
  8
0
  6
CONTINUOUS
 62
     7
  5
828
 10
263.631006
 20
-148.146701
 30
0.0
 11
255.281006
 21
-148.146701
 31
0.0
  0
LINE
  8
0
  6
CONTINUOUS
 62
     7
  5
829
 10
263.631006
 20
-148.146701
 30
0.0
 11
263.631006
 21
-150.746701
 31
0.0
  0
LINE
  8
0
  6
CONTINUOUS
 62
     7
  5
82A
 10
241.481006
 20
-150.746701
 30
0.0
 11
263.631006
 21
-150.746701
 31
0.0
  0
LINE
  8
0
  6
CONTINUOUS
 62
     7
  5
82B
 10
255.281006
 20
-148.146701
 30
0.0
 11
255.281006
 21
-145.146701
 31
0.0
  0
LINE
  8
0
  6
CONTINUOUS
 62
     7
  5
82C
 10
255.281006
 20
-145.146701
 30
0.0
 11
233.131006
 21
-145.146701
 31
0.0
  0
LINE
  8
0
  6
CONTINUOUS
 62
     7
  5
82D
 10
241.481006
 20
-148.146701
 30
0.0
 11
241.481006
 21
-150.746701
 31
0.0
  0
LINE
  8
0
  6
CONTINUOUS
 62
     7
  5
82E
 10
233.131006
 20
-148.146701
 30
0.0
 11
241.481006
 21
-148.146701
 31
0.0
  0
LINE
  8
0
  6
CONTINUOUS
 62
     7
  5
82F
 10
269.631006
 20
-151.146701
 30
0.0
 11
276.131006
 21
-151.146701
 31
0.0
  0
LINE
  8
0
  6
CONTINUOUS
 62
     7
  5
830
 10
269.631006
 20
-150.746701
 30
0.0
 11
269.631006
 21
-151.146701
 31
0.0
  0
LINE
  8
0
  6
CONTINUOUS
 62
     7
  5
831
 10
263.631006
 20
-150.746701
 30
0.0
 11
269.631006
 21
-150.746701
 31
0.0
  0
LINE
  8
0
  6
CONTINUOUS
 62
     7
  5
832
 10
224.781006
 20
-95.146701
 30
0.0
 11
233.131006
 21
-95.146701
 31
0.0
  0
LINE
  8
0
  6
CONTINUOUS
 62
     7
  5
833
 10
233.131006
 20
-145.146701
 30
0.0
 11
224.781006
 21
-145.146701
 31
0.0
  0
LINE
  8
0
  6
CONTINUOUS
 62
     7
  5
834
 10
269.631006
 20
-89.146701
 30
0.0
 11
276.131006
 21
-89.146701
 31
0.0
  0
LINE
  8
0
  6
CONTINUOUS
 62
     7
  5
835
 10
269.631006
 20
-89.146701
 30
0.0
 11
269.631006
 21
-89.546701
 31
0.0
  0
LINE
  8
0
  6
CONTINUOUS
 62
     7
  5
836
 10
269.631006
 20
-89.546701
 30
0.0
 11
263.631006
 21
-89.546701
 31
0.0
  0
LINE
  8
0
  6
CONTINUOUS
 62
     7
  5
837
 10
241.881006
 20
-145.146701
 30
0.0
 11
241.881006
 21
-95.146701
 31
0.0
  0
LINE
  8
0
  6
CONTINUOUS
 62
     7
  5
838
 10
254.881006
 20
-145.146701
 30
0.0
 11
254.881006
 21
-95.146701
 31
0.0
  0
LINE
  8
0
  6
CONTINUOUS
 62
     7
  5
839
 10
238.131006
 20
-89.546701
 30
0.0
 11
238.131006
 21
-89.146701
 31
0.0
  0
LINE
  8
0
  6
CONTINUOUS
 62
     7
  5
83A
 10
228.131006
 20
-89.146701
 30
0.0
 11
228.131006
 21
-89.546701
 31
0.0
  0
LINE
  8
0
  6
CONTINUOUS
 62
     7
  5
83B
 10
228.131006
 20
-89.146701
 30
0.0
 11
238.131006
 21
-89.146701
 31
0.0
  0
LINE
  8
0
  6
CONTINUOUS
 62
     7
  5
83C
 10
238.131006
 20
-151.146701
 30
0.0
 11
238.131006
 21
-150.746701
 31
0.0
  0
LINE
  8
0
  6
CONTINUOUS
 62
     7
  5
83D
 10
228.131006
 20
-150.746701
 30
0.0
 11
228.131006
 21
-151.146701
 31
0.0
  0
LINE
  8
0
  6
CONTINUOUS
 62
     7
  5
83E
 10
238.131006
 20
-151.146701
 30
0.0
 11
228.131006
 21
-151.146701
 31
0.0
  0
LINE
  8
0
  6
CONTINUOUS
 62
     7
  5
83F
 10
233.131006
 20
-89.546701
 30
0.0
 11
233.131006
 21
-92.146701
 31
0.0
  0
LINE
  8
0
  6
CONTINUOUS
 62
     7
  5
840
 10
224.781006
 20
-92.146701
 30
0.0
 11
233.131006
 21
-92.146701
 31
0.0
  0
LINE
  8
0
  6
CONTINUOUS
 62
     7
  5
841
 10
224.781006
 20
-95.146701
 30
0.0
 11
224.781006
 21
-92.146701
 31
0.0
  0
LINE
  8
0
  6
CONTINUOUS
 62
     7
  5
842
 10
202.631006
 20
-95.146701
 30
0.0
 11
224.781006
 21
-95.146701
 31
0.0
  0
LINE
  8
0
  6
CONTINUOUS
 62
     7
  5
843
 10
210.981006
 20
-89.546701
 30
0.0
 11
210.981006
 21
-92.146701
 31
0.0
  0
LINE
  8
0
  6
CONTINUOUS
 62
     7
  5
844
 10
210.981006
 20
-92.146701
 30
0.0
 11
202.631006
 21
-92.146701
 31
0.0
  0
LINE
  8
0
  6
CONTINUOUS
 62
     7
  5
845
 10
233.131006
 20
-89.546701
 30
0.0
 11
210.981006
 21
-89.546701
 31
0.0
  0
LINE
  8
0
  6
CONTINUOUS
 62
     7
  5
846
 10
202.631006
 20
-92.146701
 30
0.0
 11
202.631006
 21
-95.146701
 31
0.0
  0
LINE
  8
0
  6
CONTINUOUS
 62
     7
  5
847
 10
210.981006
 20
-150.746701
 30
0.0
 11
233.131006
 21
-150.746701
 31
0.0
  0
LINE
  8
0
  6
CONTINUOUS
 62
     7
  5
848
 10
224.781006
 20
-145.146701
 30
0.0
 11
202.631006
 21
-145.146701
 31
0.0
  0
LINE
  8
0
  6
CONTINUOUS
 62
     7
  5
849
 10
233.131006
 20
-148.146701
 30
0.0
 11
224.781006
 21
-148.146701
 31
0.0
  0
LINE
  8
0
  6
CONTINUOUS
 62
     7
  5
84A
 10
224.781006
 20
-148.146701
 30
0.0
 11
224.781006
 21
-145.146701
 31
0.0
  0
LINE
  8
0
  6
CONTINUOUS
 62
     7
  5
84B
 10
210.981006
 20
-148.146701
 30
0.0
 11
210.981006
 21
-150.746701
 31
0.0
  0
LINE
  8
0
  6
CONTINUOUS
 62
     7
  5
84C
 10
202.631006
 20
-148.146701
 30
0.0
 11
210.981006
 21
-148.146701
 31
0.0
  0
LINE
  8
0
  6
CONTINUOUS
 62
     7
  5
84D
 10
233.131006
 20
-148.146701
 30
0.0
 11
233.131006
 21
-150.746701
 31
0.0
  0
LINE
  8
0
  6
CONTINUOUS
 62
     7
  5
84E
 10
202.631006
 20
-145.146701
 30
0.0
 11
202.631006
 21
-148.146701
 31
0.0
  0
LINE
  8
0
  6
CONTINUOUS
 62
     7
  5
84F
 10
202.631006
 20
-145.146701
 30
0.0
 11
194.281006
 21
-145.146701
 31
0.0
  0
LINE
  8
0
  6
CONTINUOUS
 62
     7
  5
850
 10
239.131006
 20
-89.146701
 30
0.0
 11
245.631006
 21
-89.146701
 31
0.0
  0
LINE
  8
0
  6
CONTINUOUS
 62
     7
  5
851
 10
239.131006
 20
-89.146701
 30
0.0
 11
239.131006
 21
-89.546701
 31
0.0
  0
LINE
  8
0
  6
CONTINUOUS
 62
     7
  5
852
 10
239.131006
 20
-89.546701
 30
0.0
 11
233.131006
 21
-89.546701
 31
0.0
  0
LINE
  8
0
  6
CONTINUOUS
 62
     7
  5
853
 10
194.281006
 20
-95.146701
 30
0.0
 11
202.631006
 21
-95.146701
 31
0.0
  0
LINE
  8
0
  6
CONTINUOUS
 62
     7
  5
854
 10
239.131006
 20
-151.146701
 30
0.0
 11
245.631006
 21
-151.146701
 31
0.0
  0
LINE
  8
0
  6
CONTINUOUS
 62
     7
  5
855
 10
239.131006
 20
-150.746701
 30
0.0
 11
239.131006
 21
-151.146701
 31
0.0
  0
LINE
  8
0
  6
CONTINUOUS
 62
     7
  5
856
 10
233.131006
 20
-150.746701
 30
0.0
 11
239.131006
 21
-150.746701
 31
0.0
  0
LINE
  8
0
  6
CONTINUOUS
 62
     7
  5
857
 10
211.381006
 20
-145.146701
 30
0.0
 11
211.381006
 21
-95.146701
 31
0.0
  0
LINE
  8
0
  6
CONTINUOUS
 62
     7
  5
858
 10
224.381006
 20
-145.146701
 30
0.0
 11
224.381006
 21
-95.146701
 31
0.0
  0
LINE
  8
0
  6
CONTINUOUS
 62
     7
  5
859
 10
197.631006
 20
-89.146701
 30
0.0
 11
207.631006
 21
-89.146701
 31
0.0
  0
LINE
  8
0
  6
CONTINUOUS
 62
     7
  5
85A
 10
207.631006
 20
-89.546701
 30
0.0
 11
207.631006
 21
-89.146701
 31
0.0
  0
LINE
  8
0
  6
CONTINUOUS
 62
     7
  5
85B
 10
197.631006
 20
-89.146701
 30
0.0
 11
197.631006
 21
-89.546701
 31
0.0
  0
LINE
  8
0
  6
CONTINUOUS
 62
     7
  5
85C
 10
207.631006
 20
-151.146701
 30
0.0
 11
207.631006
 21
-150.746701
 31
0.0
  0
LINE
  8
0
  6
CONTINUOUS
 62
     7
  5
85D
 10
197.631006
 20
-150.746701
 30
0.0
 11
197.631006
 21
-151.146701
 31
0.0
  0
LINE
  8
0
  6
CONTINUOUS
 62
     7
  5
85E
 10
207.631006
 20
-151.146701
 30
0.0
 11
197.631006
 21
-151.146701
 31
0.0
  0
LINE
  8
0
  6
CONTINUOUS
 62
     7
  5
85F
 10
163.781006
 20
-92.146701
 30
0.0
 11
172.131006
 21
-92.146701
 31
0.0
  0
LINE
  8
0
  6
CONTINUOUS
 62
     7
  5
860
 10
163.781006
 20
-95.146701
 30
0.0
 11
163.781006
 21
-92.146701
 31
0.0
  0
LINE
  8
0
  6
CONTINUOUS
 62
     7
  5
861
 10
141.631006
 20
-95.146701
 30
0.0
 11
163.781006
 21
-95.146701
 31
0.0
  0
LINE
  8
0
  6
CONTINUOUS
 62
     7
  5
862
 10
149.981006
 20
-89.546701
 30
0.0
 11
149.981006
 21
-92.146701
 31
0.0
  0
LINE
  8
0
  6
CONTINUOUS
 62
     7
  5
863
 10
172.131006
 20
-89.546701
 30
0.0
 11
149.981006
 21
-89.546701
 31
0.0
  0
LINE
  8
0
  6
CONTINUOUS
 62
     7
  5
864
 10
149.981006
 20
-92.146701
 30
0.0
 11
141.631006
 21
-92.146701
 31
0.0
  0
LINE
  8
0
  6
CONTINUOUS
 62
     7
  5
865
 10
172.131006
 20
-89.546701
 30
0.0
 11
172.131006
 21
-92.146701
 31
0.0
  0
LINE
  8
0
  6
CONTINUOUS
 62
     7
  5
866
 10
141.631006
 20
-92.146701
 30
0.0
 11
141.631006
 21
-95.146701
 31
0.0
  0
LINE
  8
0
  6
CONTINUOUS
 62
     7
  5
867
 10
163.781006
 20
-145.146701
 30
0.0
 11
141.631006
 21
-145.146701
 31
0.0
  0
LINE
  8
0
  6
CONTINUOUS
 62
     7
  5
868
 10
149.981006
 20
-150.746701
 30
0.0
 11
172.131006
 21
-150.746701
 31
0.0
  0
LINE
  8
0
  6
CONTINUOUS
 62
     7
  5
869
 10
163.781006
 20
-148.146701
 30
0.0
 11
163.781006
 21
-145.146701
 31
0.0
  0
LINE
  8
0
  6
CONTINUOUS
 62
     7
  5
86A
 10
172.131006
 20
-148.146701
 30
0.0
 11
163.781006
 21
-148.146701
 31
0.0
  0
LINE
  8
0
  6
CONTINUOUS
 62
     7
  5
86B
 10
172.131006
 20
-148.146701
 30
0.0
 11
172.131006
 21
-150.746701
 31
0.0
  0
LINE
  8
0
  6
CONTINUOUS
 62
     7
  5
86C
 10
149.981006
 20
-148.146701
 30
0.0
 11
149.981006
 21
-150.746701
 31
0.0
  0
LINE
  8
0
  6
CONTINUOUS
 62
     7
  5
86D
 10
141.631006
 20
-145.146701
 30
0.0
 11
141.631006
 21
-148.146701
 31
0.0
  0
LINE
  8
0
  6
CONTINUOUS
 62
     7
  5
86E
 10
141.631006
 20
-148.146701
 30
0.0
 11
149.981006
 21
-148.146701
 31
0.0
  0
LINE
  8
0
  6
CONTINUOUS
 62
     7
  5
86F
 10
141.631006
 20
-145.146701
 30
0.0
 11
130.48391
 21
-145.146701
 31
0.0
  0
LINE
  8
0
  6
CONTINUOUS
 62
     7
  5
870
 10
178.131006
 20
-151.146701
 30
0.0
 11
184.631006
 21
-151.146701
 31
0.0
  0
LINE
  8
0
  6
CONTINUOUS
 62
     7
  5
871
 10
178.131006
 20
-150.746701
 30
0.0
 11
178.131006
 21
-151.146701
 31
0.0
  0
LINE
  8
0
  6
CONTINUOUS
 62
     7
  5
872
 10
172.131006
 20
-150.746701
 30
0.0
 11
178.131006
 21
-150.746701
 31
0.0
  0
LINE
  8
0
  6
CONTINUOUS
 62
     7
  5
873
 10
178.131006
 20
-89.146701
 30
0.0
 11
184.631006
 21
-89.146701
 31
0.0
  0
LINE
  8
0
  6
CONTINUOUS
 62
     7
  5
874
 10
178.131006
 20
-89.146701
 30
0.0
 11
178.131006
 21
-89.546701
 31
0.0
  0
LINE
  8
0
  6
CONTINUOUS
 62
     7
  5
875
 10
178.131006
 20
-89.546701
 30
0.0
 11
172.131006
 21
-89.546701
 31
0.0
  0
LINE
  8
0
  6
CONTINUOUS
 62
     7
  5
876
 10
130.48391
 20
-95.146701
 30
0.0
 11
141.631006
 21
-95.146701
 31
0.0
  0
LINE
  8
0
  6
CONTINUOUS
 62
     7
  5
877
 10
163.381006
 20
-145.146701
 30
0.0
 11
163.381006
 21
-95.146701
 31
0.0
  0
LINE
  8
0
  6
CONTINUOUS
 62
     7
  5
878
 10
150.381006
 20
-145.146701
 30
0.0
 11
150.381006
 21
-95.146701
 31
0.0
  0
LINE
  8
0
  6
CONTINUOUS
 62
     7
  5
879
 10
136.631006
 20
-150.746701
 30
0.0
 11
136.631006
 21
-151.146701
 31
0.0
  0
LINE
  8
0
  6
CONTINUOUS
 62
     7
  5
87A
 10
143.552291
 20
-151.146701
 30
0.0
 11
136.631006
 21
-151.146701
 31
0.0
  0
LINE
  8
0
  6
CONTINUOUS
 62
     7
  5
87B
 10
136.631006
 20
-89.146701
 30
0.0
 11
136.631006
 21
-89.546701
 31
0.0
  0
LINE
  8
0
  6
CONTINUOUS
 62
     7
  5
87C
 10
136.631006
 20
-89.146701
 30
0.0
 11
143.552291
 21
-89.146701
 31
0.0
  0
LINE
  8
0
  6
CONTINUOUS
 62
     7
  5
87D
 10
112.991621
 20
-124.146701
 30
0.0
 11
112.604004
 21
-124.146701
 31
0.0
  0
LINE
  8
0
  6
CONTINUOUS
 62
     7
  5
87E
 10
112.991621
 20
-145.146701
 30
0.0
 11
112.991621
 21
-124.146701
 31
0.0
  0
LINE
  8
0
  6
CONTINUOUS
 62
     7
  5
87F
 10
112.991621
 20
-95.146701
 30
0.0
 11
112.991621
 21
-119.146701
 31
0.0
  0
LINE
  8
0
  6
CONTINUOUS
 62
     7
  5
880
 10
112.604004
 20
-119.146701
 30
0.0
 11
112.991621
 21
-119.146701
 31
0.0
  0
LINE
  8
0
  6
CONTINUOUS
 62
     7
  5
881
 10
111.421522
 20
-120.146701
 30
0.0
 11
111.019861
 21
-120.146701
 31
0.0
  0
LINE
  8
0
  6
CONTINUOUS
 62
     7
  5
882
 10
112.991621
 20
-124.146701
 30
0.0
 11
111.421522
 21
-120.146701
 31
0.0
  0
LINE
  8
0
  6
CONTINUOUS
 62
     7
  5
883
 10
111.421522
 20
-120.146701
 30
0.0
 11
111.421522
 21
-119.146701
 31
0.0
  0
LINE
  8
0
  6
CONTINUOUS
 62
     7
  5
884
 10
100.873026
 20
-145.146701
 30
0.0
 11
100.873026
 21
-95.146701
 31
0.0
  0
LINE
  8
0
  6
CONTINUOUS
 62
     7
  5
885
 10
66.396604
 20
-89.146701
 30
0.0
 11
67.731667
 21
-89.146701
 31
0.0
  0
LINE
  8
0
  6
CONTINUOUS
 62
     7
  5
886
 10
66.396604
 20
-89.146701
 30
0.0
 11
66.396604
 21
-89.546701
 31
0.0
  0
LINE
  8
0
  6
CONTINUOUS
 62
     7
  5
887
 10
66.396604
 20
-151.146701
 30
0.0
 11
67.731667
 21
-151.146701
 31
0.0
  0
LINE
  8
0
  6
CONTINUOUS
 62
     7
  5
888
 10
66.396604
 20
-150.746701
 30
0.0
 11
66.396604
 21
-151.146701
 31
0.0
  0
LINE
  8
0
  6
CONTINUOUS
 62
     7
  5
889
 10
79.260182
 20
-145.146701
 30
0.0
 11
79.260182
 21
-95.146701
 31
0.0
  0
LINE
  8
0
  6
CONTINUOUS
 62
     7
  5
88A
 10
66.222403
 20
-150.746701
 30
0.0
 11
67.731667
 21
-150.746701
 31
0.0
  0
LINE
  8
0
  6
CONTINUOUS
 62
     7
  5
88B
 10
67.731667
 20
-150.746701
 30
0.0
 11
67.731667
 21
-151.146701
 31
0.0
  0
LINE
  8
0
  6
CONTINUOUS
 62
     7
  5
88C
 10
66.722426
 20
-148.146701
 30
0.0
 11
66.222403
 21
-148.146701
 31
0.0
  0
LINE
  8
0
  6
CONTINUOUS
 62
     7
  5
88D
 10
66.722426
 20
-148.141701
 30
0.0
 11
66.722426
 21
-148.146701
 31
0.0
  0
LINE
  8
0
  6
CONTINUOUS
 62
     7
  5
88E
 10
66.959708
 20
-148.141701
 30
0.0
 11
66.722426
 21
-148.141701
 31
0.0
  0
LINE
  8
0
  6
CONTINUOUS
 62
     7
  5
88F
 10
67.731667
 20
-151.146701
 30
0.0
 11
83.038968
 21
-151.146701
 31
0.0
  0
LINE
  8
0
  6
CONTINUOUS
 62
     7
  5
890
 10
66.222403
 20
-92.146701
 30
0.0
 11
66.722426
 21
-92.146701
 31
0.0
  0
LINE
  8
0
  6
CONTINUOUS
 62
     7
  5
891
 10
66.722426
 20
-92.146701
 30
0.0
 11
66.722426
 21
-92.151701
 31
0.0
  0
LINE
  8
0
  6
CONTINUOUS
 62
     7
  5
892
 10
67.731667
 20
-89.546701
 30
0.0
 11
66.222403
 21
-89.546701
 31
0.0
  0
LINE
  8
0
  6
CONTINUOUS
 62
     7
  5
893
 10
67.731667
 20
-89.146701
 30
0.0
 11
67.731667
 21
-89.546701
 31
0.0
  0
LINE
  8
0
  6
CONTINUOUS
 62
     7
  5
894
 10
66.722426
 20
-92.151701
 30
0.0
 11
66.959708
 21
-92.151701
 31
0.0
  0
LINE
  8
0
  6
CONTINUOUS
 62
     7
  5
895
 10
67.731667
 20
-89.146701
 30
0.0
 11
83.038968
 21
-89.146701
 31
0.0
  0
LINE
  8
0
  6
CONTINUOUS
 62
     7
  5
896
 10
65.922514
 20
-148.146701
 30
0.0
 11
65.922514
 21
-150.746701
 31
0.0
  0
LINE
  8
0
  6
CONTINUOUS
 62
     7
  5
897
 10
66.222403
 20
-148.146701
 30
0.0
 11
65.922514
 21
-148.146701
 31
0.0
  0
LINE
  8
0
  6
CONTINUOUS
 62
     7
  5
898
 10
65.922514
 20
-150.746701
 30
0.0
 11
66.222403
 21
-150.746701
 31
0.0
  0
LINE
  8
0
  6
CONTINUOUS
 62
     7
  5
899
 10
65.922514
 20
-89.546701
 30
0.0
 11
65.922514
 21
-92.146701
 31
0.0
  0
LINE
  8
0
  6
CONTINUOUS
 62
     7
  5
89A
 10
65.922514
 20
-92.146701
 30
0.0
 11
66.222403
 21
-92.146701
 31
0.0
  0
LINE
  8
0
  6
CONTINUOUS
 62
     7
  5
89B
 10
66.222403
 20
-89.546701
 30
0.0
 11
65.922514
 21
-89.546701
 31
0.0
  0
LINE
  8
0
  6
CONTINUOUS
 62
     7
  5
89C
 10
66.222403
 20
-95.146701
 30
0.0
 11
65.957271
 21
-95.146701
 31
0.0
  0
LINE
  8
0
  6
CONTINUOUS
 62
     7
  5
89D
 10
65.957271
 20
-95.146701
 30
0.0
 11
65.957271
 21
-92.146701
 31
0.0
  0
LINE
  8
0
  6
CONTINUOUS
 62
     7
  5
89E
 10
65.957271
 20
-145.146701
 30
0.0
 11
66.222403
 21
-145.146701
 31
0.0
  0
LINE
  8
0
  6
CONTINUOUS
 62
     7
  5
89F
 10
65.957271
 20
-148.146701
 30
0.0
 11
65.957271
 21
-145.146701
 31
0.0
  0
LINE
  8
0
  6
CONTINUOUS
 62
     7
  5
8A0
 10
69.416663
 20
-145.146701
 30
0.0
 11
69.416663
 21
-95.146701
 31
0.0
  0
LINE
  8
0
  6
CONTINUOUS
 62
     7
  5
8A1
 10
69.659952
 20
-95.146701
 30
0.0
 11
69.659952
 21
-145.146701
 31
0.0
  0
LINE
  8
0
  6
CONTINUOUS
 62
     7
  5
8A2
 10
66.258934
 20
-145.146701
 30
0.0
 11
66.258934
 21
-95.146701
 31
0.0
  0
LINE
  8
0
  6
CONTINUOUS
 62
     7
  5
8A3
 10
69.713017
 20
-145.146701
 30
0.0
 11
69.713017
 21
-95.146701
 31
0.0
  0
LINE
  8
0
  6
CONTINUOUS
 62
     7
  5
8A4
 10
88.542526
 20
-121.016845
 30
0.0
 11
88.163912
 21
-120.36106
 31
0.0
  0
LINE
  8
0
  6
CONTINUOUS
 62
     7
  5
8A5
 10
88.163912
 20
-120.36106
 30
0.0
 11
88.163912
 21
-117.146701
 31
0.0
  0
LINE
  8
0
  6
CONTINUOUS
 62
     7
  5
8A6
 10
88.163912
 20
-117.146701
 30
0.0
 11
88.542526
 21
-117.146701
 31
0.0
  0
LINE
  8
0
  6
CONTINUOUS
 62
     7
  5
8A7
 10
81.969848
 20
-148.141701
 30
0.0
 11
81.13598
 21
-148.141701
 31
0.0
  0
LINE
  8
0
  6
CONTINUOUS
 62
     7
  5
8A8
 10
103.193347
 20
-151.146701
 30
0.0
 11
103.193347
 21
-150.746701
 31
0.0
  0
LINE
  8
0
  6
CONTINUOUS
 62
     7
  5
8A9
 10
83.038968
 20
-151.146701
 30
0.0
 11
103.193347
 21
-151.146701
 31
0.0
  0
LINE
  8
0
  6
CONTINUOUS
 62
     7
  5
8AA
 10
83.038968
 20
-150.746701
 30
0.0
 11
83.038968
 21
-151.146701
 31
0.0
  0
LINE
  8
0
  6
CONTINUOUS
 62
     7
  5
8AB
 10
79.263054
 20
-150.746701
 30
0.0
 11
83.038968
 21
-150.746701
 31
0.0
  0
LINE
  8
0
  6
CONTINUOUS
 62
     7
  5
8AC
 10
79.263054
 20
-148.146701
 30
0.0
 11
79.263054
 21
-150.746701
 31
0.0
  0
LINE
  8
0
  6
CONTINUOUS
 62
     7
  5
8AD
 10
81.13598
 20
-148.146701
 30
0.0
 11
79.263054
 21
-148.146701
 31
0.0
  0
LINE
  8
0
  6
CONTINUOUS
 62
     7
  5
8AE
 10
81.13598
 20
-148.141701
 30
0.0
 11
81.13598
 21
-148.146701
 31
0.0
  0
LINE
  8
0
  6
CONTINUOUS
 62
     7
  5
8AF
 10
83.038968
 20
-89.146701
 30
0.0
 11
103.193347
 21
-89.146701
 31
0.0
  0
LINE
  8
0
  6
CONTINUOUS
 62
     7
  5
8B0
 10
103.193347
 20
-89.546701
 30
0.0
 11
103.193347
 21
-89.146701
 31
0.0
  0
LINE
  8
0
  6
CONTINUOUS
 62
     7
  5
8B1
 10
81.13598
 20
-92.151701
 30
0.0
 11
81.969848
 21
-92.151701
 31
0.0
  0
LINE
  8
0
  6
CONTINUOUS
 62
     7
  5
8B2
 10
81.13598
 20
-92.146701
 30
0.0
 11
81.13598
 21
-92.151701
 31
0.0
  0
LINE
  8
0
  6
CONTINUOUS
 62
     7
  5
8B3
 10
79.263054
 20
-92.146701
 30
0.0
 11
81.13598
 21
-92.146701
 31
0.0
  0
LINE
  8
0
  6
CONTINUOUS
 62
     7
  5
8B4
 10
79.263054
 20
-89.546701
 30
0.0
 11
79.263054
 21
-92.146701
 31
0.0
  0
LINE
  8
0
  6
CONTINUOUS
 62
     7
  5
8B5
 10
83.038968
 20
-89.546701
 30
0.0
 11
79.263054
 21
-89.546701
 31
0.0
  0
LINE
  8
0
  6
CONTINUOUS
 62
     7
  5
8B6
 10
83.038968
 20
-89.146701
 30
0.0
 11
83.038968
 21
-89.546701
 31
0.0
  0
LINE
  8
0
  6
CONTINUOUS
 62
     7
  5
8B7
 10
78.987365
 20
-89.546701
 30
0.0
 11
78.987365
 21
-92.146701
 31
0.0
  0
LINE
  8
0
  6
CONTINUOUS
 62
     7
  5
8B8
 10
78.987365
 20
-92.146701
 30
0.0
 11
79.263054
 21
-92.146701
 31
0.0
  0
LINE
  8
0
  6
CONTINUOUS
 62
     7
  5
8B9
 10
79.263054
 20
-89.546701
 30
0.0
 11
78.987365
 21
-89.546701
 31
0.0
  0
LINE
  8
0
  6
CONTINUOUS
 62
     7
  5
8BA
 10
78.987365
 20
-148.146701
 30
0.0
 11
78.987365
 21
-150.746701
 31
0.0
  0
LINE
  8
0
  6
CONTINUOUS
 62
     7
  5
8BB
 10
79.263054
 20
-148.146701
 30
0.0
 11
78.987365
 21
-148.146701
 31
0.0
  0
LINE
  8
0
  6
CONTINUOUS
 62
     7
  5
8BC
 10
78.987365
 20
-150.746701
 30
0.0
 11
79.263054
 21
-150.746701
 31
0.0
  0
LINE
  8
0
  6
CONTINUOUS
 62
     7
  5
8BD
 10
70.252525
 20
-148.146701
 30
0.0
 11
70.252525
 21
-150.746701
 31
0.0
  0
LINE
  8
0
  6
CONTINUOUS
 62
     7
  5
8BE
 10
66.959708
 20
-148.146701
 30
0.0
 11
70.252525
 21
-148.146701
 31
0.0
  0
LINE
  8
0
  6
CONTINUOUS
 62
     7
  5
8BF
 10
66.959708
 20
-145.146701
 30
0.0
 11
66.959708
 21
-148.146701
 31
0.0
  0
LINE
  8
0
  6
CONTINUOUS
 62
     7
  5
8C0
 10
75.694548
 20
-145.146701
 30
0.0
 11
66.959708
 21
-145.146701
 31
0.0
  0
LINE
  8
0
  6
CONTINUOUS
 62
     7
  5
8C1
 10
75.694548
 20
-148.146701
 30
0.0
 11
75.694548
 21
-145.146701
 31
0.0
  0
LINE
  8
0
  6
CONTINUOUS
 62
     7
  5
8C2
 10
78.987365
 20
-148.146701
 30
0.0
 11
75.694548
 21
-148.146701
 31
0.0
  0
LINE
  8
0
  6
CONTINUOUS
 62
     7
  5
8C3
 10
70.252525
 20
-150.746701
 30
0.0
 11
78.987365
 21
-150.746701
 31
0.0
  0
LINE
  8
0
  6
CONTINUOUS
 62
     7
  5
8C4
 10
75.694548
 20
-95.146701
 30
0.0
 11
75.694548
 21
-92.146701
 31
0.0
  0
LINE
  8
0
  6
CONTINUOUS
 62
     7
  5
8C5
 10
66.959708
 20
-95.146701
 30
0.0
 11
75.694548
 21
-95.146701
 31
0.0
  0
LINE
  8
0
  6
CONTINUOUS
 62
     7
  5
8C6
 10
66.959708
 20
-92.146701
 30
0.0
 11
66.959708
 21
-95.146701
 31
0.0
  0
LINE
  8
0
  6
CONTINUOUS
 62
     7
  5
8C7
 10
70.252525
 20
-92.146701
 30
0.0
 11
66.959708
 21
-92.146701
 31
0.0
  0
LINE
  8
0
  6
CONTINUOUS
 62
     7
  5
8C8
 10
70.252525
 20
-89.546701
 30
0.0
 11
70.252525
 21
-92.146701
 31
0.0
  0
LINE
  8
0
  6
CONTINUOUS
 62
     7
  5
8C9
 10
75.694548
 20
-92.146701
 30
0.0
 11
78.987365
 21
-92.146701
 31
0.0
  0
LINE
  8
0
  6
CONTINUOUS
 62
     7
  5
8CA
 10
78.987365
 20
-89.546701
 30
0.0
 11
70.252525
 21
-89.546701
 31
0.0
  0
LINE
  8
0
  6
CONTINUOUS
 62
     7
  5
8CB
 10
78.250061
 20
-95.146701
 30
0.0
 11
75.694548
 21
-95.146701
 31
0.0
  0
LINE
  8
0
  6
CONTINUOUS
 62
     7
  5
8CC
 10
75.694548
 20
-145.146701
 30
0.0
 11
78.250061
 21
-145.146701
 31
0.0
  0
LINE
  8
0
  6
CONTINUOUS
 62
     7
  5
8CD
 10
75.812496
 20
-145.146701
 30
0.0
 11
75.812496
 21
-95.146701
 31
0.0
  0
LINE
  8
0
  6
CONTINUOUS
 62
     7
  5
8CE
 10
78.71435
 20
-145.146701
 30
0.0
 11
78.71435
 21
-95.146701
 31
0.0
  0
LINE
  8
0
  6
CONTINUOUS
 62
     7
  5
8CF
 10
70.685953
 20
-145.146701
 30
0.0
 11
70.685953
 21
-95.146701
 31
0.0
  0
LINE
  8
0
  6
CONTINUOUS
 62
     7
  5
8D0
 10
78.837717
 20
-95.146701
 30
0.0
 11
78.837717
 21
-145.146701
 31
0.0
  0
LINE
  8
0
  6
CONTINUOUS
 62
     7
  5
8D1
 10
66.222403
 20
-95.146701
 30
0.0
 11
66.959708
 21
-95.146701
 31
0.0
  0
LINE
  8
0
  6
CONTINUOUS
 62
     7
  5
8D2
 10
66.959708
 20
-92.146701
 30
0.0
 11
66.722426
 21
-92.146701
 31
0.0
  0
LINE
  8
0
  6
CONTINUOUS
 62
     7
  5
8D3
 10
66.722426
 20
-92.146701
 30
0.0
 11
66.222403
 21
-92.146701
 31
0.0
  0
LINE
  8
0
  6
CONTINUOUS
 62
     7
  5
8D4
 10
66.222403
 20
-148.146701
 30
0.0
 11
66.722426
 21
-148.146701
 31
0.0
  0
LINE
  8
0
  6
CONTINUOUS
 62
     7
  5
8D5
 10
66.722426
 20
-148.146701
 30
0.0
 11
66.959708
 21
-148.146701
 31
0.0
  0
LINE
  8
0
  6
CONTINUOUS
 62
     7
  5
8D6
 10
66.959708
 20
-145.146701
 30
0.0
 11
66.222403
 21
-145.146701
 31
0.0
  0
LINE
  8
0
  6
CONTINUOUS
 62
     7
  5
8D7
 10
109.78702
 20
-89.146701
 30
0.0
 11
125.443226
 21
-89.146701
 31
0.0
  0
LINE
  8
0
  6
CONTINUOUS
 62
     7
  5
8D8
 10
107.304996
 20
-92.151701
 30
0.0
 11
108.597547
 21
-92.151701
 31
0.0
  0
LINE
  8
0
  6
CONTINUOUS
 62
     7
  5
8D9
 10
107.304996
 20
-92.146701
 30
0.0
 11
107.304996
 21
-92.151701
 31
0.0
  0
LINE
  8
0
  6
CONTINUOUS
 62
     7
  5
8DA
 10
104.368799
 20
-92.146701
 30
0.0
 11
107.304996
 21
-92.146701
 31
0.0
  0
LINE
  8
0
  6
CONTINUOUS
 62
     7
  5
8DB
 10
104.368799
 20
-89.546701
 30
0.0
 11
104.368799
 21
-92.146701
 31
0.0
  0
LINE
  8
0
  6
CONTINUOUS
 62
     7
  5
8DC
 10
109.78702
 20
-89.546701
 30
0.0
 11
104.368799
 21
-89.546701
 31
0.0
  0
LINE
  8
0
  6
CONTINUOUS
 62
     7
  5
8DD
 10
109.78702
 20
-89.146701
 30
0.0
 11
109.78702
 21
-89.546701
 31
0.0
  0
LINE
  8
0
  6
CONTINUOUS
 62
     7
  5
8DE
 10
108.597547
 20
-148.141701
 30
0.0
 11
107.304996
 21
-148.141701
 31
0.0
  0
LINE
  8
0
  6
CONTINUOUS
 62
     7
  5
8DF
 10
109.78702
 20
-150.746701
 30
0.0
 11
109.78702
 21
-151.146701
 31
0.0
  0
LINE
  8
0
  6
CONTINUOUS
 62
     7
  5
8E0
 10
104.368799
 20
-150.746701
 30
0.0
 11
109.78702
 21
-150.746701
 31
0.0
  0
LINE
  8
0
  6
CONTINUOUS
 62
     7
  5
8E1
 10
104.368799
 20
-148.146701
 30
0.0
 11
104.368799
 21
-150.746701
 31
0.0
  0
LINE
  8
0
  6
CONTINUOUS
 62
     7
  5
8E2
 10
107.304996
 20
-148.146701
 30
0.0
 11
104.368799
 21
-148.146701
 31
0.0
  0
LINE
  8
0
  6
CONTINUOUS
 62
     7
  5
8E3
 10
107.304996
 20
-148.141701
 30
0.0
 11
107.304996
 21
-148.146701
 31
0.0
  0
LINE
  8
0
  6
CONTINUOUS
 62
     7
  5
8E4
 10
109.78702
 20
-151.146701
 30
0.0
 11
125.443226
 21
-151.146701
 31
0.0
  0
LINE
  8
0
  6
CONTINUOUS
 62
     7
  5
8E5
 10
104.163013
 20
-89.546701
 30
0.0
 11
104.163013
 21
-92.146701
 31
0.0
  0
LINE
  8
0
  6
CONTINUOUS
 62
     7
  5
8E6
 10
98.087179
 20
-95.146701
 30
0.0
 11
98.087179
 21
-92.146701
 31
0.0
  0
LINE
  8
0
  6
CONTINUOUS
 62
     7
  5
8E7
 10
81.969848
 20
-95.146701
 30
0.0
 11
98.087179
 21
-95.146701
 31
0.0
  0
LINE
  8
0
  6
CONTINUOUS
 62
     7
  5
8E8
 10
81.969848
 20
-92.146701
 30
0.0
 11
81.969848
 21
-95.146701
 31
0.0
  0
LINE
  8
0
  6
CONTINUOUS
 62
     7
  5
8E9
 10
88.045681
 20
-92.146701
 30
0.0
 11
81.969848
 21
-92.146701
 31
0.0
  0
LINE
  8
0
  6
CONTINUOUS
 62
     7
  5
8EA
 10
88.045681
 20
-89.546701
 30
0.0
 11
88.045681
 21
-92.146701
 31
0.0
  0
LINE
  8
0
  6
CONTINUOUS
 62
     7
  5
8EB
 10
98.087179
 20
-92.146701
 30
0.0
 11
104.163013
 21
-92.146701
 31
0.0
  0
LINE
  8
0
  6
CONTINUOUS
 62
     7
  5
8EC
 10
104.163013
 20
-89.546701
 30
0.0
 11
88.045681
 21
-89.546701
 31
0.0
  0
LINE
  8
0
  6
CONTINUOUS
 62
     7
  5
8ED
 10
88.045681
 20
-148.146701
 30
0.0
 11
88.045681
 21
-150.746701
 31
0.0
  0
LINE
  8
0
  6
CONTINUOUS
 62
     7
  5
8EE
 10
81.969848
 20
-148.146701
 30
0.0
 11
88.045681
 21
-148.146701
 31
0.0
  0
LINE
  8
0
  6
CONTINUOUS
 62
     7
  5
8EF
 10
81.969848
 20
-145.146701
 30
0.0
 11
81.969848
 21
-148.146701
 31
0.0
  0
LINE
  8
0
  6
CONTINUOUS
 62
     7
  5
8F0
 10
98.087179
 20
-145.146701
 30
0.0
 11
81.969848
 21
-145.146701
 31
0.0
  0
LINE
  8
0
  6
CONTINUOUS
 62
     7
  5
8F1
 10
98.087179
 20
-148.146701
 30
0.0
 11
98.087179
 21
-145.146701
 31
0.0
  0
LINE
  8
0
  6
CONTINUOUS
 62
     7
  5
8F2
 10
104.163013
 20
-148.146701
 30
0.0
 11
104.163013
 21
-150.746701
 31
0.0
  0
LINE
  8
0
  6
CONTINUOUS
 62
     7
  5
8F3
 10
104.163013
 20
-148.146701
 30
0.0
 11
98.087179
 21
-148.146701
 31
0.0
  0
LINE
  8
0
  6
CONTINUOUS
 62
     7
  5
8F4
 10
88.045681
 20
-150.746701
 30
0.0
 11
104.163013
 21
-150.746701
 31
0.0
  0
LINE
  8
0
  6
CONTINUOUS
 62
     7
  5
8F5
 10
104.163013
 20
-92.146701
 30
0.0
 11
104.368799
 21
-92.146701
 31
0.0
  0
LINE
  8
0
  6
CONTINUOUS
 62
     7
  5
8F6
 10
104.368799
 20
-89.546701
 30
0.0
 11
104.163013
 21
-89.546701
 31
0.0
  0
LINE
  8
0
  6
CONTINUOUS
 62
     7
  5
8F7
 10
104.368799
 20
-148.146701
 30
0.0
 11
104.163013
 21
-148.146701
 31
0.0
  0
LINE
  8
0
  6
CONTINUOUS
 62
     7
  5
8F8
 10
104.163013
 20
-150.746701
 30
0.0
 11
104.368799
 21
-150.746701
 31
0.0
  0
LINE
  8
0
  6
CONTINUOUS
 62
     7
  5
8F9
 10
100.212665
 20
-95.146701
 30
0.0
 11
98.087179
 21
-95.146701
 31
0.0
  0
LINE
  8
0
  6
CONTINUOUS
 62
     7
  5
8FA
 10
100.212665
 20
-92.151701
 30
0.0
 11
100.212665
 21
-95.146701
 31
0.0
  0
LINE
  8
0
  6
CONTINUOUS
 62
     7
  5
8FB
 10
98.087179
 20
-145.146701
 30
0.0
 11
100.212665
 21
-145.146701
 31
0.0
  0
LINE
  8
0
  6
CONTINUOUS
 62
     7
  5
8FC
 10
100.212665
 20
-145.146701
 30
0.0
 11
100.212665
 21
-148.141701
 31
0.0
  0
LINE
  8
0
  6
CONTINUOUS
 62
     7
  5
8FD
 10
88.542526
 20
-145.146701
 30
0.0
 11
88.542526
 21
-95.146701
 31
0.0
  0
LINE
  8
0
  6
CONTINUOUS
 62
     7
  5
8FE
 10
98.001908
 20
-145.146701
 30
0.0
 11
98.001908
 21
-95.146701
 31
0.0
  0
LINE
  8
0
  6
CONTINUOUS
 62
     7
  5
8FF
 10
100.167984
 20
-145.146701
 30
0.0
 11
100.167984
 21
-95.146701
 31
0.0
  0
LINE
  8
0
  6
CONTINUOUS
 62
     7
  5
900
 10
100.443226
 20
-145.146701
 30
0.0
 11
100.212665
 21
-145.146701
 31
0.0
  0
LINE
  8
0
  6
CONTINUOUS
 62
     7
  5
901
 10
100.212665
 20
-95.146701
 30
0.0
 11
100.443226
 21
-95.146701
 31
0.0
  0
LINE
  8
0
  6
CONTINUOUS
 62
     7
  5
902
 10
79.263054
 20
-148.146701
 30
0.0
 11
81.13598
 21
-148.146701
 31
0.0
  0
LINE
  8
0
  6
CONTINUOUS
 62
     7
  5
903
 10
81.13598
 20
-148.146701
 30
0.0
 11
81.969848
 21
-148.146701
 31
0.0
  0
LINE
  8
0
  6
CONTINUOUS
 62
     7
  5
904
 10
81.969848
 20
-145.146701
 30
0.0
 11
78.250061
 21
-145.146701
 31
0.0
  0
LINE
  8
0
  6
CONTINUOUS
 62
     7
  5
905
 10
78.250061
 20
-95.146701
 30
0.0
 11
81.969848
 21
-95.146701
 31
0.0
  0
LINE
  8
0
  6
CONTINUOUS
 62
     7
  5
906
 10
81.969848
 20
-92.146701
 30
0.0
 11
81.13598
 21
-92.146701
 31
0.0
  0
LINE
  8
0
  6
CONTINUOUS
 62
     7
  5
907
 10
81.13598
 20
-92.146701
 30
0.0
 11
79.263054
 21
-92.146701
 31
0.0
  0
LINE
  8
0
  6
CONTINUOUS
 62
     7
  5
908
 10
106.105229
 20
-120.36106
 30
0.0
 11
110.471098
 21
-120.36106
 31
0.0
  0
LINE
  8
0
  6
CONTINUOUS
 62
     7
  5
909
 10
106.105229
 20
-117.146701
 30
0.0
 11
106.105229
 21
-120.36106
 31
0.0
  0
LINE
  8
0
  6
CONTINUOUS
 62
     7
  5
90A
 10
106.105229
 20
-117.146701
 30
0.0
 11
110.471098
 21
-117.146701
 31
0.0
  0
LINE
  8
0
  6
CONTINUOUS
 62
     7
  5
90B
 10
110.471098
 20
-120.36106
 30
0.0
 11
110.471098
 21
-117.146701
 31
0.0
  0
LINE
  8
0
  6
CONTINUOUS
 62
     7
  5
90C
 10
107.689373
 20
-124.36106
 30
0.0
 11
112.055241
 21
-124.36106
 31
0.0
  0
LINE
  8
0
  6
CONTINUOUS
 62
     7
  5
90D
 10
106.105229
 20
-120.36106
 30
0.0
 11
107.689373
 21
-124.36106
 31
0.0
  0
LINE
  8
0
  6
CONTINUOUS
 62
     7
  5
90E
 10
112.055241
 20
-124.36106
 30
0.0
 11
110.471098
 21
-120.36106
 31
0.0
  0
LINE
  8
0
  6
CONTINUOUS
 62
     7
  5
90F
 10
112.055241
 20
-145.146701
 30
0.0
 11
112.055241
 21
-124.36106
 31
0.0
  0
LINE
  8
0
  6
CONTINUOUS
 62
     7
  5
910
 10
111.019861
 20
-117.146701
 30
0.0
 11
111.019861
 21
-120.146701
 31
0.0
  0
LINE
  8
0
  6
CONTINUOUS
 62
     7
  5
911
 10
111.019861
 20
-120.146701
 30
0.0
 11
112.604004
 21
-124.146701
 31
0.0
  0
LINE
  8
0
  6
CONTINUOUS
 62
     7
  5
912
 10
112.604004
 20
-124.146701
 30
0.0
 11
112.604004
 21
-145.146701
 31
0.0
  0
LINE
  8
0
  6
CONTINUOUS
 62
     7
  5
913
 10
110.471098
 20
-117.146701
 30
0.0
 11
111.019861
 21
-117.146701
 31
0.0
  0
LINE
  8
0
  6
CONTINUOUS
 62
     7
  5
914
 10
112.055241
 20
-95.146701
 30
0.0
 11
112.055241
 21
-119.146701
 31
0.0
  0
LINE
  8
0
  6
CONTINUOUS
 62
     7
  5
915
 10
112.604004
 20
-119.146701
 30
0.0
 11
112.604004
 21
-95.146701
 31
0.0
  0
LINE
  8
0
  6
CONTINUOUS
 62
     7
  5
916
 10
112.055241
 20
-119.146701
 30
0.0
 11
112.604004
 21
-119.146701
 31
0.0
  0
LINE
  8
0
  6
CONTINUOUS
 62
     7
  5
917
 10
112.055241
 20
-119.146701
 30
0.0
 11
111.019861
 21
-119.146701
 31
0.0
  0
LINE
  8
0
  6
CONTINUOUS
 62
     7
  5
918
 10
107.689373
 20
-117.146701
 30
0.0
 11
107.689373
 21
-95.146701
 31
0.0
  0
LINE
  8
0
  6
CONTINUOUS
 62
     7
  5
919
 10
107.689373
 20
-124.36106
 30
0.0
 11
107.689373
 21
-145.146701
 31
0.0
  0
LINE
  8
0
  6
CONTINUOUS
 62
     7
  5
91A
 10
141.631006
 20
-148.141701
 30
0.0
 11
140.901703
 21
-148.141701
 31
0.0
  0
LINE
  8
0
  6
CONTINUOUS
 62
     7
  5
91B
 10
143.552291
 20
-151.146701
 30
0.0
 11
154.131643
 21
-151.146701
 31
0.0
  0
LINE
  8
0
  6
CONTINUOUS
 62
     7
  5
91C
 10
143.552291
 20
-150.746701
 30
0.0
 11
143.552291
 21
-151.146701
 31
0.0
  0
LINE
  8
0
  6
CONTINUOUS
 62
     7
  5
91D
 10
137.387816
 20
-150.746701
 30
0.0
 11
143.552291
 21
-150.746701
 31
0.0
  0
LINE
  8
0
  6
CONTINUOUS
 62
     7
  5
91E
 10
137.387816
 20
-148.146701
 30
0.0
 11
137.387816
 21
-150.746701
 31
0.0
  0
LINE
  8
0
  6
CONTINUOUS
 62
     7
  5
91F
 10
140.901703
 20
-148.146701
 30
0.0
 11
137.387816
 21
-148.146701
 31
0.0
  0
LINE
  8
0
  6
CONTINUOUS
 62
     7
  5
920
 10
140.901703
 20
-148.141701
 30
0.0
 11
140.901703
 21
-148.146701
 31
0.0
  0
LINE
  8
0
  6
CONTINUOUS
 62
     7
  5
921
 10
143.552291
 20
-89.146701
 30
0.0
 11
154.131643
 21
-89.146701
 31
0.0
  0
LINE
  8
0
  6
CONTINUOUS
 62
     7
  5
922
 10
140.901703
 20
-92.151701
 30
0.0
 11
141.631006
 21
-92.151701
 31
0.0
  0
LINE
  8
0
  6
CONTINUOUS
 62
     7
  5
923
 10
140.901703
 20
-92.146701
 30
0.0
 11
140.901703
 21
-92.151701
 31
0.0
  0
LINE
  8
0
  6
CONTINUOUS
 62
     7
  5
924
 10
137.387816
 20
-92.146701
 30
0.0
 11
140.901703
 21
-92.146701
 31
0.0
  0
LINE
  8
0
  6
CONTINUOUS
 62
     7
  5
925
 10
137.387816
 20
-89.546701
 30
0.0
 11
137.387816
 21
-92.146701
 31
0.0
  0
LINE
  8
0
  6
CONTINUOUS
 62
     7
  5
926
 10
143.552291
 20
-89.546701
 30
0.0
 11
137.387816
 21
-89.546701
 31
0.0
  0
LINE
  8
0
  6
CONTINUOUS
 62
     7
  5
927
 10
143.552291
 20
-89.146701
 30
0.0
 11
143.552291
 21
-89.546701
 31
0.0
  0
LINE
  8
0
  6
CONTINUOUS
 62
     7
  5
928
 10
116.451589
 20
-148.146701
 30
0.0
 11
116.451589
 21
-150.746701
 31
0.0
  0
LINE
  8
0
  6
CONTINUOUS
 62
     7
  5
929
 10
108.597547
 20
-148.146701
 30
0.0
 11
116.451589
 21
-148.146701
 31
0.0
  0
LINE
  8
0
  6
CONTINUOUS
 62
     7
  5
92A
 10
108.597547
 20
-145.146701
 30
0.0
 11
108.597547
 21
-148.146701
 31
0.0
  0
LINE
  8
0
  6
CONTINUOUS
 62
     7
  5
92B
 10
129.431922
 20
-145.146701
 30
0.0
 11
108.597547
 21
-145.146701
 31
0.0
  0
LINE
  8
0
  6
CONTINUOUS
 62
     7
  5
92C
 10
129.431922
 20
-148.146701
 30
0.0
 11
129.431922
 21
-145.146701
 31
0.0
  0
LINE
  8
0
  6
CONTINUOUS
 62
     7
  5
92D
 10
137.285964
 20
-148.146701
 30
0.0
 11
137.285964
 21
-150.746701
 31
0.0
  0
LINE
  8
0
  6
CONTINUOUS
 62
     7
  5
92E
 10
137.285964
 20
-148.146701
 30
0.0
 11
129.431922
 21
-148.146701
 31
0.0
  0
LINE
  8
0
  6
CONTINUOUS
 62
     7
  5
92F
 10
116.451589
 20
-150.746701
 30
0.0
 11
137.285964
 21
-150.746701
 31
0.0
  0
LINE
  8
0
  6
CONTINUOUS
 62
     7
  5
930
 10
137.285964
 20
-89.546701
 30
0.0
 11
137.285964
 21
-92.146701
 31
0.0
  0
LINE
  8
0
  6
CONTINUOUS
 62
     7
  5
931
 10
137.285964
 20
-92.146701
 30
0.0
 11
137.387816
 21
-92.146701
 31
0.0
  0
LINE
  8
0
  6
CONTINUOUS
 62
     7
  5
932
 10
137.387816
 20
-89.546701
 30
0.0
 11
137.285964
 21
-89.546701
 31
0.0
  0
LINE
  8
0
  6
CONTINUOUS
 62
     7
  5
933
 10
129.431922
 20
-95.146701
 30
0.0
 11
129.431922
 21
-92.146701
 31
0.0
  0
LINE
  8
0
  6
CONTINUOUS
 62
     7
  5
934
 10
108.597547
 20
-95.146701
 30
0.0
 11
129.431922
 21
-95.146701
 31
0.0
  0
LINE
  8
0
  6
CONTINUOUS
 62
     7
  5
935
 10
108.597547
 20
-92.146701
 30
0.0
 11
108.597547
 21
-95.146701
 31
0.0
  0
LINE
  8
0
  6
CONTINUOUS
 62
     7
  5
936
 10
116.451589
 20
-92.146701
 30
0.0
 11
108.597547
 21
-92.146701
 31
0.0
  0
LINE
  8
0
  6
CONTINUOUS
 62
     7
  5
937
 10
116.451589
 20
-89.546701
 30
0.0
 11
116.451589
 21
-92.146701
 31
0.0
  0
LINE
  8
0
  6
CONTINUOUS
 62
     7
  5
938
 10
129.431922
 20
-92.146701
 30
0.0
 11
137.285964
 21
-92.146701
 31
0.0
  0
LINE
  8
0
  6
CONTINUOUS
 62
     7
  5
939
 10
137.285964
 20
-89.546701
 30
0.0
 11
116.451589
 21
-89.546701
 31
0.0
  0
LINE
  8
0
  6
CONTINUOUS
 62
     7
  5
93A
 10
137.387816
 20
-148.146701
 30
0.0
 11
137.285964
 21
-148.146701
 31
0.0
  0
LINE
  8
0
  6
CONTINUOUS
 62
     7
  5
93B
 10
137.285964
 20
-150.746701
 30
0.0
 11
137.387816
 21
-150.746701
 31
0.0
  0
LINE
  8
0
  6
CONTINUOUS
 62
     7
  5
93C
 10
130.48391
 20
-92.151701
 30
0.0
 11
130.48391
 21
-95.146701
 31
0.0
  0
LINE
  8
0
  6
CONTINUOUS
 62
     7
  5
93D
 10
130.48391
 20
-95.146701
 30
0.0
 11
129.431922
 21
-95.146701
 31
0.0
  0
LINE
  8
0
  6
CONTINUOUS
 62
     7
  5
93E
 10
130.48391
 20
-145.146701
 30
0.0
 11
130.48391
 21
-148.141701
 31
0.0
  0
LINE
  8
0
  6
CONTINUOUS
 62
     7
  5
93F
 10
129.431922
 20
-145.146701
 30
0.0
 11
130.48391
 21
-145.146701
 31
0.0
  0
LINE
  8
0
  6
CONTINUOUS
 62
     7
  5
940
 10
116.929683
 20
-145.146701
 30
0.0
 11
116.929683
 21
-95.146701
 31
0.0
  0
LINE
  8
0
  6
CONTINUOUS
 62
     7
  5
941
 10
129.157533
 20
-145.146701
 30
0.0
 11
129.157533
 21
-95.146701
 31
0.0
  0
LINE
  8
0
  6
CONTINUOUS
 62
     7
  5
942
 10
130.229611
 20
-145.146701
 30
0.0
 11
130.229611
 21
-95.146701
 31
0.0
  0
LINE
  8
0
  6
CONTINUOUS
 62
     7
  5
943
 10
100.443226
 20
-95.146701
 30
0.0
 11
108.597547
 21
-95.146701
 31
0.0
  0
LINE
  8
0
  6
CONTINUOUS
 62
     7
  5
944
 10
108.554088
 20
-92.146701
 30
0.0
 11
107.304996
 21
-92.146701
 31
0.0
  0
LINE
  8
0
  6
CONTINUOUS
 62
     7
  5
945
 10
107.304996
 20
-92.146701
 30
0.0
 11
104.368799
 21
-92.146701
 31
0.0
  0
LINE
  8
0
  6
CONTINUOUS
 62
     7
  5
946
 10
104.368799
 20
-92.146701
 30
0.0
 11
104.163013
 21
-92.146701
 31
0.0
  0
LINE
  8
0
  6
CONTINUOUS
 62
     7
  5
947
 10
104.163013
 20
-148.146701
 30
0.0
 11
104.368799
 21
-148.146701
 31
0.0
  0
LINE
  8
0
  6
CONTINUOUS
 62
     7
  5
948
 10
104.368799
 20
-148.146701
 30
0.0
 11
107.304996
 21
-148.146701
 31
0.0
  0
LINE
  8
0
  6
CONTINUOUS
 62
     7
  5
949
 10
107.304996
 20
-148.146701
 30
0.0
 11
108.554088
 21
-148.146701
 31
0.0
  0
LINE
  8
0
  6
CONTINUOUS
 62
     7
  5
94A
 10
108.597547
 20
-145.146701
 30
0.0
 11
100.443226
 21
-145.146701
 31
0.0
  0
LINE
  8
0
  6
CONTINUOUS
 62
     7
  5
94B
 10
107.943226
 20
-89.146701
 30
0.0
 11
109.78702
 21
-89.146701
 31
0.0
  0
LINE
  8
0
  6
CONTINUOUS
 62
     7
  5
94C
 10
109.78702
 20
-151.146701
 30
0.0
 11
107.943226
 21
-151.146701
 31
0.0
  0
LINE
  8
0
  6
CONTINUOUS
 62
     7
  5
94D
 10
130.229611
 20
-124.36106
 30
0.0
 11
134.081468
 21
-124.36106
 31
0.0
  0
LINE
  8
0
  6
CONTINUOUS
 62
     7
  5
94E
 10
130.229611
 20
-120.36106
 30
0.0
 11
133.297412
 21
-120.36106
 31
0.0
  0
LINE
  8
0
  6
CONTINUOUS
 62
     7
  5
94F
 10
134.081468
 20
-124.36106
 30
0.0
 11
133.297412
 21
-120.36106
 31
0.0
  0
LINE
  8
0
  6
CONTINUOUS
 62
     7
  5
950
 10
134.081468
 20
-145.146701
 30
0.0
 11
134.081468
 21
-124.36106
 31
0.0
  0
LINE
  8
0
  6
CONTINUOUS
 62
     7
  5
951
 10
133.297412
 20
-120.36106
 30
0.0
 11
133.297412
 21
-117.146701
 31
0.0
  0
LINE
  8
0
  6
CONTINUOUS
 62
     7
  5
952
 10
133.569017
 20
-117.146701
 30
0.0
 11
133.569017
 21
-120.146701
 31
0.0
  0
LINE
  8
0
  6
CONTINUOUS
 62
     7
  5
953
 10
133.569017
 20
-120.146701
 30
0.0
 11
134.353073
 21
-124.146701
 31
0.0
  0
LINE
  8
0
  6
CONTINUOUS
 62
     7
  5
954
 10
134.353073
 20
-124.146701
 30
0.0
 11
134.353073
 21
-145.146701
 31
0.0
  0
LINE
  8
0
  6
CONTINUOUS
 62
     7
  5
955
 10
133.297412
 20
-117.146701
 30
0.0
 11
133.569017
 21
-117.146701
 31
0.0
  0
LINE
  8
0
  6
CONTINUOUS
 62
     7
  5
956
 10
130.229611
 20
-117.146701
 30
0.0
 11
133.297412
 21
-117.146701
 31
0.0
  0
LINE
  8
0
  6
CONTINUOUS
 62
     7
  5
957
 10
134.081468
 20
-95.146701
 30
0.0
 11
134.081468
 21
-119.146701
 31
0.0
  0
LINE
  8
0
  6
CONTINUOUS
 62
     7
  5
958
 10
134.353073
 20
-119.146701
 30
0.0
 11
134.353073
 21
-95.146701
 31
0.0
  0
LINE
  8
0
  6
CONTINUOUS
 62
     7
  5
959
 10
134.081468
 20
-119.146701
 30
0.0
 11
134.353073
 21
-119.146701
 31
0.0
  0
LINE
  8
0
  6
CONTINUOUS
 62
     7
  5
95A
 10
134.081468
 20
-119.146701
 30
0.0
 11
133.569017
 21
-119.146701
 31
0.0
  0
LINE
  8
0
  6
CONTINUOUS
 62
     7
  5
95B
 10
103.193347
 20
-151.146701
 30
0.0
 11
107.943226
 21
-151.146701
 31
0.0
  0
LINE
  8
0
  6
CONTINUOUS
 62
     7
  5
95C
 10
103.193347
 20
-89.146701
 30
0.0
 11
107.943226
 21
-89.146701
 31
0.0
  0
LINE
  8
0
  6
CONTINUOUS
 62
     7
  5
95D
 10
135.130101
 20
-124.146701
 30
0.0
 11
134.353073
 21
-124.146701
 31
0.0
  0
LINE
  8
0
  6
CONTINUOUS
 62
     7
  5
95E
 10
135.130101
 20
-145.146701
 30
0.0
 11
135.130101
 21
-124.146701
 31
0.0
  0
LINE
  8
0
  6
CONTINUOUS
 62
     7
  5
95F
 10
134.241988
 20
-120.146701
 30
0.0
 11
133.569017
 21
-120.146701
 31
0.0
  0
LINE
  8
0
  6
CONTINUOUS
 62
     7
  5
960
 10
135.130101
 20
-124.146701
 30
0.0
 11
134.241988
 21
-120.146701
 31
0.0
  0
LINE
  8
0
  6
CONTINUOUS
 62
     7
  5
961
 10
135.130101
 20
-95.146701
 30
0.0
 11
135.130101
 21
-119.146701
 31
0.0
  0
LINE
  8
0
  6
CONTINUOUS
 62
     7
  5
962
 10
134.353073
 20
-119.146701
 30
0.0
 11
135.130101
 21
-119.146701
 31
0.0
  0
LINE
  8
0
  6
CONTINUOUS
 62
     7
  5
963
 10
134.241988
 20
-120.146701
 30
0.0
 11
134.241988
 21
-119.146701
 31
0.0
  0
LINE
  8
0
  6
CONTINUOUS
 62
     7
  5
964
 10
116.746568
 20
-145.146701
 30
0.0
 11
116.746568
 21
-95.146701
 31
0.0
  0
LINE
  8
0
  6
CONTINUOUS
 62
     7
  5
965
 10
129.131006
 20
-89.146701
 30
0.0
 11
135.631006
 21
-89.146701
 31
0.0
  0
LINE
  8
0
  6
CONTINUOUS
 62
     7
  5
966
 10
135.631006
 20
-89.546701
 30
0.0
 11
135.631006
 21
-89.146701
 31
0.0
  0
LINE
  8
0
  6
CONTINUOUS
 62
     7
  5
967
 10
129.131006
 20
-151.146701
 30
0.0
 11
135.631006
 21
-151.146701
 31
0.0
  0
LINE
  8
0
  6
CONTINUOUS
 62
     7
  5
968
 10
135.631006
 20
-151.146701
 30
0.0
 11
135.631006
 21
-150.746701
 31
0.0
  0
LINE
  8
0
  6
CONTINUOUS
 62
     7
  5
969
 10
190.131006
 20
-151.146701
 30
0.0
 11
196.631006
 21
-151.146701
 31
0.0
  0
LINE
  8
0
  6
CONTINUOUS
 62
     7
  5
96A
 10
196.631006
 20
-151.146701
 30
0.0
 11
196.631006
 21
-150.746701
 31
0.0
  0
LINE
  8
0
  6
CONTINUOUS
 62
     7
  5
96B
 10
190.131006
 20
-89.146701
 30
0.0
 11
196.631006
 21
-89.146701
 31
0.0
  0
LINE
  8
0
  6
CONTINUOUS
 62
     7
  5
96C
 10
196.631006
 20
-89.546701
 30
0.0
 11
196.631006
 21
-89.146701
 31
0.0
  0
LINE
  8
0
  6
CONTINUOUS
 62
     7
  5
96D
 10
220.631006
 20
-151.146701
 30
0.0
 11
227.131006
 21
-151.146701
 31
0.0
  0
LINE
  8
0
  6
CONTINUOUS
 62
     7
  5
96E
 10
227.131006
 20
-151.146701
 30
0.0
 11
227.131006
 21
-150.746701
 31
0.0
  0
LINE
  8
0
  6
CONTINUOUS
 62
     7
  5
96F
 10
220.631006
 20
-89.146701
 30
0.0
 11
227.131006
 21
-89.146701
 31
0.0
  0
LINE
  8
0
  6
CONTINUOUS
 62
     7
  5
970
 10
227.131006
 20
-89.546701
 30
0.0
 11
227.131006
 21
-89.146701
 31
0.0
  0
LINE
  8
0
  6
CONTINUOUS
 62
     7
  5
971
 10
251.131006
 20
-151.146701
 30
0.0
 11
257.631006
 21
-151.146701
 31
0.0
  0
LINE
  8
0
  6
CONTINUOUS
 62
     7
  5
972
 10
257.631006
 20
-151.146701
 30
0.0
 11
257.631006
 21
-150.746701
 31
0.0
  0
LINE
  8
0
  6
CONTINUOUS
 62
     7
  5
973
 10
251.131006
 20
-89.146701
 30
0.0
 11
257.631006
 21
-89.146701
 31
0.0
  0
LINE
  8
0
  6
CONTINUOUS
 62
     7
  5
974
 10
257.631006
 20
-89.546701
 30
0.0
 11
257.631006
 21
-89.146701
 31
0.0
  0
LINE
  8
0
  6
CONTINUOUS
 62
     7
  5
975
 10
323.517758
 20
-66.146701
 30
0.0
 11
322.074382
 21
-68.646701
 31
0.0
  0
LINE
  8
0
  6
CONTINUOUS
 62
     7
  5
976
 10
322.074382
 20
-63.646701
 30
0.0
 11
323.517758
 21
-66.146701
 31
0.0
  0
CIRCLE
  8
0
  6
CONTINUOUS
 62
     7
  5
977
 10
320.631006
 20
-66.146701
 30
0.0
 40
5.0
210
0.0
220
0.0
230
1.0
  0
LINE
  8
0
  6
CONTINUOUS
 62
     7
  5
978
 10
319.187631
 20
-63.646701
 30
0.0
 11
322.074382
 21
-63.646701
 31
0.0
  0
LINE
  8
0
  6
CONTINUOUS
 62
     7
  5
979
 10
317.744255
 20
-66.146701
 30
0.0
 11
319.187631
 21
-63.646701
 31
0.0
  0
LINE
  8
0
  6
CONTINUOUS
 62
     7
  5
97A
 10
319.187631
 20
-68.646701
 30
0.0
 11
317.744255
 21
-66.146701
 31
0.0
  0
LINE
  8
0
  6
CONTINUOUS
 62
     7
  5
97B
 10
322.074382
 20
-68.646701
 30
0.0
 11
319.187631
 21
-68.646701
 31
0.0
  0
LINE
  8
0
  6
CONTINUOUS
 62
     7
  5
97C
 10
319.187631
 20
-81.646701
 30
0.0
 11
317.744255
 21
-79.146701
 31
0.0
  0
LINE
  8
0
  6
CONTINUOUS
 62
     7
  5
97D
 10
322.074382
 20
-81.646701
 30
0.0
 11
319.187631
 21
-81.646701
 31
0.0
  0
LINE
  8
0
  6
CONTINUOUS
 62
     7
  5
97E
 10
323.517758
 20
-79.146701
 30
0.0
 11
322.074382
 21
-81.646701
 31
0.0
  0
LINE
  8
0
  6
CONTINUOUS
 62
     7
  5
97F
 10
322.074382
 20
-76.646701
 30
0.0
 11
323.517758
 21
-79.146701
 31
0.0
  0
LINE
  8
0
  6
CONTINUOUS
 62
     7
  5
980
 10
317.744255
 20
-79.146701
 30
0.0
 11
319.187631
 21
-76.646701
 31
0.0
  0
LINE
  8
0
  6
CONTINUOUS
 62
     7
  5
981
 10
319.187631
 20
-76.646701
 30
0.0
 11
322.074382
 21
-76.646701
 31
0.0
  0
CIRCLE
  8
0
  6
CONTINUOUS
 62
     7
  5
982
 10
320.631006
 20
-79.146701
 30
0.0
 40
5.0
210
0.0
220
0.0
230
1.0
  0
LINE
  8
0
  6
CONTINUOUS
 62
     7
  5
983
 10
328.131006
 20
-60.146701
 30
0.0
 11
328.131006
 21
-150.146701
 31
0.0
  0
LINE
  8
0
  6
CONTINUOUS
 62
     7
  5
984
 10
313.131006
 20
-150.146701
 30
0.0
 11
328.131006
 21
-150.146701
 31
0.0
  0
LINE
  8
0
  6
CONTINUOUS
 62
     7
  5
985
 10
313.131006
 20
-150.146701
 30
0.0
 11
313.131006
 21
-60.146701
 31
0.0
  0
LINE
  8
0
  6
CONTINUOUS
 62
     7
  5
986
 10
313.131006
 20
-60.146701
 30
0.0
 11
328.131006
 21
-60.146701
 31
0.0
  0
LINE
  8
0
  6
CONTINUOUS
 62
     9
  5
987
 10
294.131006
 20
-95.146701
 30
0.0
 11
294.131006
 21
-92.146701
 31
0.0
  0
LINE
  8
0
  6
CONTINUOUS
 62
     7
  5
988
 10
294.131006
 20
-95.146701
 30
0.0
 11
285.781006
 21
-95.146701
 31
0.0
  0
LINE
  8
0
  6
CONTINUOUS
 62
     9
  5
989
 10
294.131006
 20
-148.146701
 30
0.0
 11
294.131006
 21
-145.146701
 31
0.0
  0
LINE
  8
0
  6
CONTINUOUS
 62
     7
  5
98A
 10
285.781006
 20
-145.146701
 30
0.0
 11
294.131006
 21
-145.146701
 31
0.0
  0
LINE
  8
0
  6
CONTINUOUS
 62
     7
  5
98B
 10
332.131006
 20
-101.146701
 30
0.0
 11
334.131006
 21
-101.146701
 31
0.0
  0
LINE
  8
0
  6
CONTINUOUS
 62
     7
  5
98C
 10
302.131006
 20
-95.146701
 30
0.0
 11
294.131006
 21
-95.146701
 31
0.0
  0
LINE
  8
0
  6
CONTINUOUS
 62
     7
  5
98D
 10
332.131006
 20
-151.146701
 30
0.0
 11
332.131006
 21
-139.146701
 31
0.0
  0
LINE
  8
0
  6
CONTINUOUS
 62
     7
  5
98E
 10
328.131006
 20
-89.146701
 30
0.0
 11
332.131006
 21
-89.146701
 31
0.0
  0
LINE
  8
0
  6
CONTINUOUS
 62
     7
  5
98F
 10
300.131006
 20
-89.146701
 30
0.0
 11
313.131006
 21
-89.146701
 31
0.0
  0
LINE
  8
0
  6
CONTINUOUS
 62
     7
  5
990
 10
294.131006
 20
-92.146701
 30
0.0
 11
300.131006
 21
-92.146701
 31
0.0
  0
LINE
  8
0
  6
CONTINUOUS
 62
     7
  5
991
 10
332.131006
 20
-101.146701
 30
0.0
 11
332.131006
 21
-89.146701
 31
0.0
  0
LINE
  8
0
  6
CONTINUOUS
 62
     7
  5
992
 10
300.131006
 20
-92.146701
 30
0.0
 11
300.131006
 21
-89.146701
 31
0.0
  0
LINE
  8
0
  6
CONTINUOUS
 62
     7
  5
993
 10
300.131006
 20
-148.146701
 30
0.0
 11
294.131006
 21
-148.146701
 31
0.0
  0
LINE
  8
0
  6
CONTINUOUS
 62
     7
  5
994
 10
334.131006
 20
-139.146701
 30
0.0
 11
334.131006
 21
-101.146701
 31
0.0
  0
LINE
  8
0
  6
CONTINUOUS
 62
     7
  5
995
 10
300.131006
 20
-151.146701
 30
0.0
 11
332.131006
 21
-151.146701
 31
0.0
  0
LINE
  8
0
  6
CONTINUOUS
 62
     7
  5
996
 10
334.131006
 20
-139.146701
 30
0.0
 11
332.131006
 21
-139.146701
 31
0.0
  0
LINE
  8
0
  6
CONTINUOUS
 62
     7
  5
997
 10
294.131006
 20
-145.146701
 30
0.0
 11
302.131006
 21
-145.146701
 31
0.0
  0
LINE
  8
0
  6
CONTINUOUS
 62
     7
  5
998
 10
300.131006
 20
-151.146701
 30
0.0
 11
300.131006
 21
-148.146701
 31
0.0
  0
LINE
  8
0
  6
CONTINUOUS
 62
     7
  5
999
 10
302.131006
 20
-145.146701
 30
0.0
 11
302.131006
 21
-95.146701
 31
0.0
  0
LINE
  8
0
  6
CONTINUOUS
 62
     7
  5
99A
 10
349.131006
 20
-107.146701
 30
0.0
 11
349.131006
 21
-101.146701
 31
0.0
  0
LINE
  8
0
  6
CONTINUOUS
 62
     7
  5
99B
 10
335.631006
 20
-107.146701
 30
0.0
 11
335.631006
 21
-109.146701
 31
0.0
  0
LINE
  8
0
  6
CONTINUOUS
 62
     7
  5
99C
 10
335.631006
 20
-109.146701
 30
0.0
 11
349.131006
 21
-109.146701
 31
0.0
  0
LINE
  8
0
  6
CONTINUOUS
 62
     7
  5
99D
 10
349.131006
 20
-115.146701
 30
0.0
 11
349.131006
 21
-109.146701
 31
0.0
  0
LINE
  8
0
  6
CONTINUOUS
 62
     7
  5
99E
 10
349.131006
 20
-115.146701
 30
0.0
 11
335.631006
 21
-115.146701
 31
0.0
  0
LINE
  8
0
  6
CONTINUOUS
 62
     7
  5
99F
 10
335.631006
 20
-115.146701
 30
0.0
 11
335.631006
 21
-117.146701
 31
0.0
  0
LINE
  8
0
  6
CONTINUOUS
 62
     7
  5
9A0
 10
335.631006
 20
-117.146701
 30
0.0
 11
349.131006
 21
-117.146701
 31
0.0
  0
LINE
  8
0
  6
CONTINUOUS
 62
     7
  5
9A1
 10
349.131006
 20
-123.146701
 30
0.0
 11
335.631006
 21
-123.146701
 31
0.0
  0
LINE
  8
0
  6
CONTINUOUS
 62
     7
  5
9A2
 10
335.631006
 20
-123.146701
 30
0.0
 11
335.631006
 21
-125.146701
 31
0.0
  0
LINE
  8
0
  6
CONTINUOUS
 62
     7
  5
9A3
 10
335.631006
 20
-125.146701
 30
0.0
 11
349.131006
 21
-125.146701
 31
0.0
  0
LINE
  8
0
  6
CONTINUOUS
 62
     7
  5
9A4
 10
349.131006
 20
-131.146701
 30
0.0
 11
349.131006
 21
-125.146701
 31
0.0
  0
LINE
  8
0
  6
CONTINUOUS
 62
     7
  5
9A5
 10
349.131006
 20
-131.146701
 30
0.0
 11
335.631006
 21
-131.146701
 31
0.0
  0
LINE
  8
0
  6
CONTINUOUS
 62
     7
  5
9A6
 10
335.631006
 20
-131.146701
 30
0.0
 11
335.631006
 21
-133.146701
 31
0.0
  0
LINE
  8
0
  6
CONTINUOUS
 62
     7
  5
9A7
 10
349.131006
 20
-139.146701
 30
0.0
 11
349.131006
 21
-133.146701
 31
0.0
  0
LINE
  8
0
  6
CONTINUOUS
 62
     7
  5
9A8
 10
349.131006
 20
-107.146701
 30
0.0
 11
335.631006
 21
-107.146701
 31
0.0
  0
LINE
  8
0
  6
CONTINUOUS
 62
     7
  5
9A9
 10
349.131006
 20
-123.146701
 30
0.0
 11
349.131006
 21
-117.146701
 31
0.0
  0
LINE
  8
0
  6
CONTINUOUS
 62
     7
  5
9AA
 10
335.631006
 20
-133.146701
 30
0.0
 11
349.131006
 21
-133.146701
 31
0.0
  0
LINE
  8
0
  6
CONTINUOUS
 62
     7
  5
9AB
 10
334.131006
 20
-101.146701
 30
0.0
 11
349.131006
 21
-101.146701
 31
0.0
  0
LINE
  8
0
  6
CONTINUOUS
 62
     7
  5
9AC
 10
349.131006
 20
-139.146701
 30
0.0
 11
334.131006
 21
-139.146701
 31
0.0
  0
LINE
  8
0
  6
CONTINUOUS
 62
     7
  5
9AD
 10
289.131006
 20
-151.146701
 30
0.0
 11
299.131006
 21
-151.146701
 31
0.0
  0
LINE
  8
0
  6
CONTINUOUS
 62
     7
  5
9AE
 10
289.131006
 20
-151.146701
 30
0.0
 11
289.131006
 21
-150.746701
 31
0.0
  0
LINE
  8
0
  6
CONTINUOUS
 62
     7
  5
9AF
 10
299.131006
 20
-150.746701
 30
0.0
 11
299.131006
 21
-151.146701
 31
0.0
  0
LINE
  8
0
  6
CONTINUOUS
 62
     7
  5
9B0
 10
289.131006
 20
-89.546701
 30
0.0
 11
289.131006
 21
-89.146701
 31
0.0
  0
LINE
  8
0
  6
CONTINUOUS
 62
     7
  5
9B1
 10
299.131006
 20
-89.146701
 30
0.0
 11
289.131006
 21
-89.146701
 31
0.0
  0
LINE
  8
0
  6
CONTINUOUS
 62
     7
  5
9B2
 10
299.131006
 20
-89.146701
 30
0.0
 11
299.131006
 21
-89.546701
 31
0.0
  0
LINE
  8
0
  6
CONTINUOUS
 62
     7
  5
9B3
 10
127.131006
 20
-83.146701
 30
0.0
 11
313.131006
 21
-83.146701
 31
0.0
  0
LINE
  8
0
  6
CONTINUOUS
 62
     7
  5
9B4
 10
328.131006
 20
-83.146701
 30
0.0
 11
334.131006
 21
-83.146701
 31
0.0
  0
LINE
  8
0
  6
CONTINUOUS
 62
     7
  5
9B5
 10
127.131006
 20
-80.146701
 30
0.0
 11
313.131006
 21
-80.146701
 31
0.0
  0
LINE
  8
0
  6
CONTINUOUS
 62
     7
  5
9B6
 10
328.131006
 20
-80.146701
 30
0.0
 11
334.131006
 21
-80.146701
 31
0.0
  0
LINE
  8
0
  6
CONTINUOUS
 62
     7
  5
9B7
 10
334.131006
 20
-80.146701
 30
0.0
 11
334.131006
 21
-83.146701
 31
0.0
  0
LINE
  8
0
  6
CONTINUOUS
 62
     7
  5
9B8
 10
127.131006
 20
-80.146701
 30
0.0
 11
127.131006
 21
-83.146701
 31
0.0
  0
LINE
  8
0
  6
CONTINUOUS
 62
     7
  5
9B9
 10
300.131006
 20
-151.146701
 30
0.0
 11
299.131006
 21
-151.146701
 31
0.0
  0
LINE
  8
0
  6
CONTINUOUS
 62
     7
  5
9BA
 10
289.131006
 20
-151.146701
 30
0.0
 11
281.631006
 21
-151.146701
 31
0.0
  0
LINE
  8
0
  6
CONTINUOUS
 62
     7
  5
9BB
 10
281.631006
 20
-89.146701
 30
0.0
 11
289.131006
 21
-89.146701
 31
0.0
  0
LINE
  8
0
  6
CONTINUOUS
 62
     7
  5
9BC
 10
299.131006
 20
-89.146701
 30
0.0
 11
300.131006
 21
-89.146701
 31
0.0
  0
LINE
  8
0
  6
CONTINUOUS
 62
     7
  5
9BD
 10
127.131006
 20
-69.346701
 30
0.0
 11
127.131006
 21
-75.346701
 31
0.0
  0
LINE
  8
0
  6
CONTINUOUS
 62
     7
  5
9BE
 10
141.131006
 20
-69.346701
 30
0.0
 11
127.131006
 21
-69.346701
 31
0.0
  0
LINE
  8
0
  6
CONTINUOUS
 62
     7
  5
9BF
 10
141.131006
 20
-69.346701
 30
0.0
 11
141.131006
 21
-75.346701
 31
0.0
  0
LINE
  8
0
  6
CONTINUOUS
 62
     7
  5
9C0
 10
141.131006
 20
-75.346701
 30
0.0
 11
127.131006
 21
-75.346701
 31
0.0
  0
LINE
  8
0
  6
CONTINUOUS
 62
     7
  5
9C1
 10
334.131006
 20
-69.346701
 30
0.0
 11
328.131006
 21
-69.346701
 31
0.0
  0
LINE
  8
0
  6
CONTINUOUS
 62
     7
  5
9C2
 10
334.131006
 20
-69.346701
 30
0.0
 11
334.131006
 21
-75.346701
 31
0.0
  0
LINE
  8
0
  6
CONTINUOUS
 62
     7
  5
9C3
 10
334.131006
 20
-75.346701
 30
0.0
 11
328.131006
 21
-75.346701
 31
0.0
  0
LINE
  8
0
  6
CONTINUOUS
 62
     7
  5
9C4
 10
139.131006
 20
-87.146701
 30
0.0
 11
139.131006
 21
-83.146701
 31
0.0
  0
LINE
  8
0
  6
CONTINUOUS
 62
     7
  5
9C5
 10
139.131006
 20
-87.146701
 30
0.0
 11
134.131006
 21
-87.146701
 31
0.0
  0
LINE
  8
0
  6
CONTINUOUS
 62
     7
  5
9C6
 10
134.131006
 20
-87.146701
 30
0.0
 11
134.131006
 21
-83.146701
 31
0.0
  0
LINE
  8
0
  6
CONTINUOUS
 62
     7
  5
9C7
 10
129.131006
 20
-87.146701
 30
0.0
 11
129.131006
 21
-83.146701
 31
0.0
  0
LINE
  8
0
  6
CONTINUOUS
 62
     7
  5
9C8
 10
134.131006
 20
-87.146701
 30
0.0
 11
129.131006
 21
-87.146701
 31
0.0
  0
LINE
  8
0
  6
CONTINUOUS
 62
     7
  5
9C9
 10
332.131006
 20
-87.146701
 30
0.0
 11
332.131006
 21
-83.146701
 31
0.0
  0
LINE
  8
0
  6
CONTINUOUS
 62
     7
  5
9CA
 10
332.131006
 20
-87.146701
 30
0.0
 11
328.131006
 21
-87.146701
 31
0.0
  0
LINE
  8
0
  6
CONTINUOUS
 62
     7
  5
9CB
 10
135.130101
 20
-140.146701
 30
0.0
 11
150.381006
 21
-140.146701
 31
0.0
  0
LINE
  8
0
  6
CONTINUOUS
 62
     7
  5
9CC
 10
163.381006
 20
-140.146701
 30
0.0
 11
180.881006
 21
-140.146701
 31
0.0
  0
LINE
  8
0
  6
CONTINUOUS
 62
     7
  5
9CD
 10
193.881006
 20
-140.146701
 30
0.0
 11
211.381006
 21
-140.146701
 31
0.0
  0
LINE
  8
0
  6
CONTINUOUS
 62
     7
  5
9CE
 10
224.381006
 20
-140.146701
 30
0.0
 11
241.881006
 21
-140.146701
 31
0.0
  0
LINE
  8
0
  6
CONTINUOUS
 62
     7
  5
9CF
 10
254.881006
 20
-140.146701
 30
0.0
 11
272.381006
 21
-140.146701
 31
0.0
  0
LINE
  8
0
  6
CONTINUOUS
 62
     7
  5
9D0
 10
285.381006
 20
-140.146701
 30
0.0
 11
302.131006
 21
-140.146701
 31
0.0
  0
LINE
  8
0
  6
CONTINUOUS
 62
     7
  5
9D1
 10
334.131006
 20
-83.146701
 30
0.0
 11
334.131006
 21
-101.146701
 31
0.0
  0
LINE
  8
0
  6
CONTINUOUS
 62
     7
  5
9D2
 10
127.131006
 20
-83.146701
 30
0.0
 11
127.131006
 21
-89.546701
 31
0.0
  0
LINE
  8
0
  6
CONTINUOUS
 62
     7
  5
9D3
 10
159.631006
 20
-89.146701
 30
0.0
 11
159.631006
 21
-89.546701
 31
0.0
  0
LINE
  8
0
  6
CONTINUOUS
 62
     7
  5
9D4
 10
159.631006
 20
-150.746701
 30
0.0
 11
159.631006
 21
-151.146701
 31
0.0
  0
LINE
  8
0
  6
CONTINUOUS
 62
     7
  5
9D5
 10
215.131006
 20
-89.546701
 30
0.0
 11
215.131006
 21
-89.146701
 31
0.0
  0
LINE
  8
0
  6
CONTINUOUS
 62
     7
  5
9D6
 10
215.131006
 20
-151.146701
 30
0.0
 11
215.131006
 21
-150.746701
 31
0.0
  0
LINE
  8
0
  6
CONTINUOUS
 62
     7
  5
9D7
 10
276.131006
 20
-151.146701
 30
0.0
 11
276.131006
 21
-150.746701
 31
0.0
  0
LINE
  8
0
  6
CONTINUOUS
 62
     7
  5
9D8
 10
276.131006
 20
-89.546701
 30
0.0
 11
276.131006
 21
-89.146701
 31
0.0
  0
LINE
  8
0
  6
CONTINUOUS
 62
     7
  5
9D9
 10
245.631006
 20
-89.546701
 30
0.0
 11
245.631006
 21
-89.146701
 31
0.0
  0
LINE
  8
0
  6
CONTINUOUS
 62
     7
  5
9DA
 10
245.631006
 20
-151.146701
 30
0.0
 11
245.631006
 21
-150.746701
 31
0.0
  0
LINE
  8
0
  6
CONTINUOUS
 62
     7
  5
9DB
 10
184.631006
 20
-151.146701
 30
0.0
 11
184.631006
 21
-150.746701
 31
0.0
  0
LINE
  8
0
  6
CONTINUOUS
 62
     7
  5
9DC
 10
184.631006
 20
-89.546701
 30
0.0
 11
184.631006
 21
-89.146701
 31
0.0
  0
LINE
  8
0
  6
CONTINUOUS
 62
     7
  5
9DD
 10
66.222403
 20
-148.146701
 30
0.0
 11
66.222403
 21
-150.746701
 31
0.0
  0
LINE
  8
0
  6
CONTINUOUS
 62
     7
  5
9DE
 10
66.222403
 20
-89.546701
 30
0.0
 11
66.222403
 21
-92.146701
 31
0.0
  0
LINE
  8
0
  6
CONTINUOUS
 62
     7
  5
9DF
 10
66.222403
 20
-92.146701
 30
0.0
 11
66.222403
 21
-95.146701
 31
0.0
  0
LINE
  8
0
  6
CONTINUOUS
 62
     7
  5
9E0
 10
66.222403
 20
-145.146701
 30
0.0
 11
66.222403
 21
-148.146701
 31
0.0
  0
LINE
  8
0
  6
CONTINUOUS
 62
     7
  5
9E1
 10
125.443226
 20
-89.546701
 30
0.0
 11
125.443226
 21
-89.146701
 31
0.0
  0
LINE
  8
0
  6
CONTINUOUS
 62
     7
  5
9E2
 10
125.443226
 20
-151.146701
 30
0.0
 11
125.443226
 21
-150.746701
 31
0.0
  0
LINE
  8
0
  6
CONTINUOUS
 62
     7
  5
9E3
 10
78.250061
 20
-145.146701
 30
0.0
 11
78.250061
 21
-148.146701
 31
0.0
  0
LINE
  8
0
  6
CONTINUOUS
 62
     7
  5
9E4
 10
78.250061
 20
-92.146701
 30
0.0
 11
78.250061
 21
-95.146701
 31
0.0
  0
LINE
  8
0
  6
CONTINUOUS
 62
     7
  5
9E5
 10
154.131643
 20
-151.146701
 30
0.0
 11
154.131643
 21
-150.746701
 31
0.0
  0
LINE
  8
0
  6
CONTINUOUS
 62
     7
  5
9E6
 10
154.131643
 20
-89.546701
 30
0.0
 11
154.131643
 21
-89.146701
 31
0.0
  0
LINE
  8
0
  6
CONTINUOUS
 62
     7
  5
9E7
 10
100.443226
 20
-92.151701
 30
0.0
 11
100.443226
 21
-95.146701
 31
0.0
  0
LINE
  8
0
  6
CONTINUOUS
 62
     7
  5
9E8
 10
100.443226
 20
-145.146701
 30
0.0
 11
100.443226
 21
-148.141701
 31
0.0
  0
LINE
  8
0
  6
CONTINUOUS
 62
     7
  5
9E9
 10
107.943226
 20
-89.146701
 30
0.0
 11
107.943226
 21
-89.546701
 31
0.0
  0
LINE
  8
0
  6
CONTINUOUS
 62
     7
  5
9EA
 10
107.943226
 20
-150.746701
 30
0.0
 11
107.943226
 21
-151.146701
 31
0.0
  0
LINE
  8
0
  6
CONTINUOUS
 62
     7
  5
9EB
 10
129.131006
 20
-89.146701
 30
0.0
 11
129.131006
 21
-89.546701
 31
0.0
  0
LINE
  8
0
  6
CONTINUOUS
 62
     7
  5
9EC
 10
129.131006
 20
-150.746701
 30
0.0
 11
129.131006
 21
-151.146701
 31
0.0
  0
LINE
  8
0
  6
CONTINUOUS
 62
     7
  5
9ED
 10
190.131006
 20
-150.746701
 30
0.0
 11
190.131006
 21
-151.146701
 31
0.0
  0
LINE
  8
0
  6
CONTINUOUS
 62
     7
  5
9EE
 10
190.131006
 20
-89.146701
 30
0.0
 11
190.131006
 21
-89.546701
 31
0.0
  0
LINE
  8
0
  6
CONTINUOUS
 62
     7
  5
9EF
 10
220.631006
 20
-150.746701
 30
0.0
 11
220.631006
 21
-151.146701
 31
0.0
  0
LINE
  8
0
  6
CONTINUOUS
 62
     7
  5
9F0
 10
220.631006
 20
-89.146701
 30
0.0
 11
220.631006
 21
-89.546701
 31
0.0
  0
LINE
  8
0
  6
CONTINUOUS
 62
     7
  5
9F1
 10
251.131006
 20
-150.746701
 30
0.0
 11
251.131006
 21
-151.146701
 31
0.0
  0
LINE
  8
0
  6
CONTINUOUS
 62
     7
  5
9F2
 10
251.131006
 20
-89.146701
 30
0.0
 11
251.131006
 21
-89.546701
 31
0.0
  0
LINE
  8
0
  6
CONTINUOUS
 62
     7
  5
9F3
 10
281.631006
 20
-150.746701
 30
0.0
 11
281.631006
 21
-151.146701
 31
0.0
  0
LINE
  8
0
  6
CONTINUOUS
 62
     7
  5
9F4
 10
281.631006
 20
-89.146701
 30
0.0
 11
281.631006
 21
-89.546701
 31
0.0
  0
LINE
  8
0
  6
CONTINUOUS
 62
     7
  5
9F5
 10
137.131006
 20
-80.146701
 30
0.0
 11
137.131006
 21
-75.346701
 31
0.0
  0
LINE
  8
0
  6
CONTINUOUS
 62
     7
  5
9F6
 10
131.131006
 20
-75.346701
 30
0.0
 11
131.131006
 21
-80.146701
 31
0.0
  0
LINE
  8
0
  6
CONTINUOUS
 62
     7
  5
9F7
 10
330.131006
 20
-80.146701
 30
0.0
 11
330.131006
 21
-75.346701
 31
0.0
  0
ENDBLK
  8
0
  5
9F8
  0
ENDSEC
  0
SECTION
  2
ENTITIES
  0
INSERT
  8
0
  5
180
  2
AID3
 10
0.0
 20
0.0
 30
0.0
  0
INSERT
  8
0
  5
40B
  2
AID697
 10
0.0
 20
0.0
 30
0.0
  0
INSERT
  8
0
  5
637
  2
AID1995
 10
0.0
 20
0.0
 30
0.0
  0
INSERT
  8
0
  5
7DA
  2
AID3103
 10
0.0
 20
0.0
 30
0.0
  0
INSERT
  8
0
  5
9F9
  2
AID3937
 10
0.0
 20
0.0
 30
0.0
  0
ENDSEC
  0
EOF
