  0
SECTION
  2
HEADER
  9
$ACADVER
  1
AC1009
  9
$DWGCODEPAGE
  3
ansi_1252
  9
$INSBASE
 10
0.0
 20
0.0
 30
0.0
  9
$EXTMIN
 10
-166.713251
 20
-181.894048
 30
0.0
  9
$EXTMAX
 10
618.395975
 20
499.111126
 30
5.0
  9
$LIMMIN
 10
-166.713251
 20
-181.894048
  9
$LIMMAX
 10
618.395975
 20
499.111126
  9
$ORTHOMODE
 70
     0
  9
$REGENMODE
 70
     1
  9
$FILLMODE
 70
     1
  9
$QTEXTMODE
 70
     0
  9
$MIRRTEXT
 70
     1
  9
$DRAGMODE
 70
     2
  9
$LTSCALE
 40
10.0
  9
$OSMODE
 70
     0
  9
$ATTMODE
 70
     1
  9
$TEXTSIZE
 40
0.2
  9
$TRACEWID
 40
0.05
  9
$TEXTSTYLE
  7
STANDARD
  9
$CLAYER
  8
0
  9
$CELTYPE
  6
CONTINUOUS
  9
$CECOLOR
 62
   256
  9
$DIMSCALE
 40
1.0
  9
$DIMASZ
 40
1.25
  9
$DIMEXO
 40
1.0
  9
$DIMDLI
 40
0.38
  9
$DIMRND
 40
0.0
  9
$DIMDLE
 40
0.0
  9
$DIMEXE
 40
0.75
  9
$DIMTP
 40
0.0
  9
$DIMTM
 40
0.0
  9
$DIMTXT
 40
2.5
  9
$DIMCEN
 40
0.09
  9
$DIMTSZ
 40
0.0
  9
$DIMTOL
 70
     0
  9
$DIMLIM
 70
     0
  9
$DIMTIH
 70
     0
  9
$DIMTOH
 70
     0
  9
$DIMSE1
 70
     0
  9
$DIMSE2
 70
     0
  9
$DIMTAD
 70
     1
  9
$DIMZIN
 70
     0
  9
$DIMBLK
  1

  9
$DIMASO
 70
     1
  9
$DIMSHO
 70
     1
  9
$DIMPOST
  1

  9
$DIMAPOST
  1

  9
$DIMALT
 70
     0
  9
$DIMALTD
 70
     2
  9
$DIMALTF
 40
25.4
  9
$DIMLFAC
 40
1.0
  9
$DIMTOFL
 70
     0
  9
$DIMTVP
 40
0.0
  9
$DIMTIX
 70
     0
  9
$DIMSOXD
 70
     0
  9
$DIMSAH
 70
     0
  9
$DIMBLK1
  1

  9
$DIMBLK2
  1

  9
$DIMSTYLE
  2
STANDARD
  9
$DIMCLRD
 70
     7
  9
$DIMCLRE
 70
     7
  9
$DIMCLRT
 70
     7
  9
$DIMTFAC
 40
0.8
  9
$DIMGAP
 40
1.25
  9
$LUNITS
 70
     2
  9
$LUPREC
 70
     4
  9
$AXISMODE
 70
     0
  9
$AXISUNIT
 10
0.0
 20
0.0
  9
$SKETCHINC
 40
0.1
  9
$FILLETRAD
 40
0.0
  9
$AUNITS
 70
     0
  9
$AUPREC
 70
     0
  9
$MENU
  1
acad
  9
$ELEVATION
 40
0.0
  9
$PELEVATION
 40
0.0
  9
$THICKNESS
 40
0.0
  9
$LIMCHECK
 70
     0
  9
$BLIPMODE
 70
     1
  9
$CHAMFERA
 40
0.0
  9
$CHAMFERB
 40
0.0
  9
$SKPOLY
 70
     0
  9
$TDCREATE
 40
2454334.711643518
  9
$TDUPDATE
 40
2454334.627893519
  9
$TDINDWG
 40
0.0000000000
  9
$TDUSRTIMER
 40
0.0000000000
  9
$USRTIMER
 70
     1
  9
$ANGBASE
 50
0.0
  9
$ANGDIR
 70
     0
  9
$PDMODE
 70
     0
  9
$PDSIZE
 40
0.0
  9
$PLINEWID
 40
0.0
  9
$COORDS
 70
     0
  9
$SPLFRAME
 70
     0
  9
$SPLINETYPE
 70
     6
  9
$SPLINESEGS
 70
     8
  9
$ATTDIA
 70
     0
  9
$ATTREQ
 70
     1
  9
$HANDLING
 70
     1
  9
$HANDSEED
  5
9E7
  9
$SURFTAB1
 70
     6
  9
$SURFTAB2
 70
     6
  9
$SURFTYPE
 70
     6
  9
$SURFU
 70
     6
  9
$SURFV
 70
     6
  9
$UCSNAME
  2

  9
$UCSORG
 10
0.0
 20
0.0
 30
0.0
  9
$UCSXDIR
 10
1.0
 20
0.0
 30
0.0
  9
$UCSYDIR
 10
0.0
 20
1.0
 30
0.0
  9
$PUCSNAME
  2

  9
$PUCSORG
 10
0.0
 20
0.0
 30
0.0
  9
$PUCSXDIR
 10
1.0
 20
0.0
 30
0.0
  9
$PUCSYDIR
 10
0.0
 20
1.0
 30
0.0
  9
$USERI1
 70
     0
  9
$USERI2
 70
     0
  9
$USERI3
 70
     0
  9
$USERI4
 70
     0
  9
$USERI5
 70
     0
  9
$USERR1
 40
0.0
  9
$USERR2
 40
0.0
  9
$USERR3
 40
0.0
  9
$USERR4
 40
0.0
  9
$USERR5
 40
0.0
  9
$WORLDVIEW
 70
     1
  9
$SHADEDGE
 70
     3
  9
$SHADEDIF
 70
    70
  9
$TILEMODE
 70
     1
  9
$MAXACTVP
 70
    16
  9
$PINSBASE
 10
0.0
 20
0.0
 30
0.0
  9
$PLIMCHECK
 70
     0
  9
$PEXTMIN
 10
1.000000E+20
 20
1.000000E+20
 30
1.000000E+20
  9
$PEXTMAX
 10
-1.000000E+20
 20
-1.000000E+20
 30
-1.000000E+20
  9
$PLIMMIN
 10
0.0
 20
0.0
  9
$PLIMMAX
 10
12.0
 20
9.0
  9
$UNITMODE
 70
     0
  9
$VISRETAIN
 70
     0
  9
$PLINEGEN
 70
     1
  9
$PSLTSCALE
 70
     0
  9
$TREEDEPTH
 70
  3020
  0
ENDSEC
  0
SECTION
  2
TABLES
  0
TABLE
  2
VPORT
 70
     1
  0
VPORT
  2
*ACTIVE
 70
     0
 10
0.0
 20
0.0
 11
1.0
 21
1.0
 12
6.591288
 22
4.579184
 13
0.0
 23
0.0
 14
1.0
 24
1.0
 15
0.0
 25
0.0
 16
0.0
 26
0.0
 36
1.0
 17
0.0
 27
0.0
 37
0.0
 40
9.158369
 41
0.688564
 42
50.0
 43
0.0
 44
0.0
 50
0.0
 51
0.0
 71
     0
 72
   100
 73
     1
 74
     1
 75
     0
 76
     0
 77
     0
 78
     0
  0
ENDTAB
  0
TABLE
  2
LTYPE
 70
     1
  0
LTYPE
  2
CONTINUOUS
 70
    64
  3
Solid line
 72
    65
 73
     0
 40
0.0
  0
ENDTAB
  0
TABLE
  2
LAYER
 70
     1
  0
LAYER
  2
0
 70
     0
 62
     7
  6
CONTINUOUS
  0
ENDTAB
  0
TABLE
  2
STYLE
 70
     1
  0
STYLE
  2
STANDARD
 70
     0
 40
0.0
 41
1.0
 50
0.0
 71
     0
 42
0.0
  3
IsonormD
  4

  0
ENDTAB
  0
TABLE
  2
VIEW
 70
     0
  0
ENDTAB
  0
TABLE
  2
UCS
 70
     0
  0
ENDTAB
  0
TABLE
  2
APPID
 70
     2
  0
APPID
  2
ACAD
 70
     0
  0
APPID
  2
TopSolid_Draft
 70
     0
  0
ENDTAB
  0
TABLE
  2
DIMSTYLE
 70
     1
  0
DIMSTYLE
  2
STANDARD
 70
     0
  3

  4

  5

  6

  7

 40
1.0
 41
1.25
 42
1.0
 43
0.38
 44
0.75
 45
0.0
 46
0.0
 47
0.0
 48
0.0
 71
     0
 72
     0
 73
     0
 74
     0
 75
     0
 76
     0
 77
     1
 78
     0
140
2.5
141
0.09
142
0.0
143
25.4
144
1.0
145
0.0
146
0.8
147
1.25
170
     0
171
     2
172
     0
173
     0
174
     0
175
     0
176
     7
177
     7
178
     7
  0
ENDTAB
  0
ENDSEC
  0
SECTION
  2
BLOCKS
  0
BLOCK
  8
0
  5
25
  2
AID3
 70
     0
 10
0.0
 20
0.0
 30
0.0
  3
#draft view
  0
ARC
  8
0
  6
CONTINUOUS
 62
     7
  5
26
 10
247.391713
 20
233.746233
 30
0.0
 40
5.0
 50
0.0
 51
180.0
210
0.0
220
0.0
230
1.0
  0
ARC
  8
0
  6
CONTINUOUS
 62
     7
  5
27
 10
247.391713
 20
233.746233
 30
0.0
 40
5.0
 50
180.0
 51
360.0
210
0.0
220
0.0
230
1.0
  0
ARC
  8
0
  6
CONTINUOUS
 62
     7
  5
28
 10
277.891713
 20
233.746233
 30
0.0
 40
12.5
 50
298.685402
 51
61.314598
210
0.0
220
0.0
230
1.0
  0
LINE
  8
0
  6
CONTINUOUS
 62
     7
  5
29
 10
283.891713
 20
244.712089
 30
0.0
 11
283.891713
 21
222.780377
 31
0.0
  0
LINE
  8
0
  6
CONTINUOUS
 62
     7
  5
2A
 10
277.891713
 20
220.946233
 30
0.0
 11
255.741713
 21
220.946233
 31
0.0
  0
LINE
  8
0
  6
CONTINUOUS
 62
     7
  5
2B
 10
255.741713
 20
243.44765
 30
0.0
 11
255.741713
 21
246.546233
 31
0.0
  0
LINE
  8
0
  6
CONTINUOUS
 62
     7
  5
2C
 10
255.741713
 20
246.546233
 30
0.0
 11
277.891713
 21
246.546233
 31
0.0
  0
LINE
  8
0
  6
CONTINUOUS
 62
     7
  5
2D
 10
277.891713
 20
246.546233
 30
0.0
 11
277.891713
 21
246.246233
 31
0.0
  0
LINE
  8
0
  6
CONTINUOUS
 62
     7
  5
2E
 10
277.891713
 20
221.246233
 30
0.0
 11
277.891713
 21
220.946233
 31
0.0
  0
ARC
  8
0
  6
CONTINUOUS
 62
     7
  5
2F
 10
247.391713
 20
233.746233
 30
0.0
 40
12.8
 50
310.718545
 51
360.0
210
0.0
220
0.0
230
1.0
  0
ARC
  8
0
  6
CONTINUOUS
 62
     7
  5
30
 10
247.391713
 20
233.746233
 30
0.0
 40
12.8
 50
0.0
 51
49.281455
210
0.0
220
0.0
230
1.0
  0
LINE
  8
0
  6
CONTINUOUS
 62
     7
  5
31
 10
255.741713
 20
220.946233
 30
0.0
 11
255.741713
 21
224.044816
 31
0.0
  0
ARC
  8
0
  6
CONTINUOUS
 62
     7
  5
32
 10
277.891713
 20
233.746233
 30
0.0
 40
12.5
 50
61.314598
 51
90.0
210
0.0
220
0.0
230
1.0
  0
ARC
  8
0
  6
CONTINUOUS
 62
     7
  5
33
 10
277.891713
 20
233.746233
 30
0.0
 40
12.5
 50
270.0
 51
298.685402
210
0.0
220
0.0
230
1.0
  0
LINE
  8
0
  6
CONTINUOUS
 62
     7
  5
34
 10
255.741713
 20
220.946233
 30
0.0
 11
247.391713
 21
220.946233
 31
0.0
  0
LINE
  8
0
  6
CONTINUOUS
 62
     7
  5
35
 10
247.391713
 20
246.546233
 30
0.0
 11
255.741713
 21
246.546233
 31
0.0
  0
ARC
  8
0
  6
CONTINUOUS
 62
     7
  5
36
 10
247.391713
 20
233.746233
 30
0.0
 40
12.5
 50
298.685402
 51
61.314598
210
0.0
220
0.0
230
1.0
  0
LINE
  8
0
  6
CONTINUOUS
 62
     7
  5
37
 10
253.391713
 20
244.712089
 30
0.0
 11
253.391713
 21
222.780377
 31
0.0
  0
ARC
  8
0
  6
CONTINUOUS
 62
     7
  5
38
 10
216.891713
 20
233.746233
 30
0.0
 40
5.0
 50
0.0
 51
180.0
210
0.0
220
0.0
230
1.0
  0
ARC
  8
0
  6
CONTINUOUS
 62
     7
  5
39
 10
216.891713
 20
233.746233
 30
0.0
 40
5.0
 50
180.0
 51
360.0
210
0.0
220
0.0
230
1.0
  0
LINE
  8
0
  6
CONTINUOUS
 62
     7
  5
3A
 10
247.391713
 20
220.946233
 30
0.0
 11
225.241713
 21
220.946233
 31
0.0
  0
LINE
  8
0
  6
CONTINUOUS
 62
     7
  5
3B
 10
247.391713
 20
221.246233
 30
0.0
 11
247.391713
 21
220.946233
 31
0.0
  0
ARC
  8
0
  6
CONTINUOUS
 62
     7
  5
3C
 10
216.891713
 20
233.746233
 30
0.0
 40
12.8
 50
310.718545
 51
360.0
210
0.0
220
0.0
230
1.0
  0
LINE
  8
0
  6
CONTINUOUS
 62
     7
  5
3D
 10
225.241713
 20
243.44765
 30
0.0
 11
225.241713
 21
246.546233
 31
0.0
  0
ARC
  8
0
  6
CONTINUOUS
 62
     7
  5
3E
 10
216.891713
 20
233.746233
 30
0.0
 40
12.8
 50
0.0
 51
49.281455
210
0.0
220
0.0
230
1.0
  0
LINE
  8
0
  6
CONTINUOUS
 62
     7
  5
3F
 10
225.241713
 20
220.946233
 30
0.0
 11
225.241713
 21
224.044816
 31
0.0
  0
LINE
  8
0
  6
CONTINUOUS
 62
     7
  5
40
 10
225.241713
 20
246.546233
 30
0.0
 11
247.391713
 21
246.546233
 31
0.0
  0
LINE
  8
0
  6
CONTINUOUS
 62
     7
  5
41
 10
247.391713
 20
246.546233
 30
0.0
 11
247.391713
 21
246.246233
 31
0.0
  0
ARC
  8
0
  6
CONTINUOUS
 62
     7
  5
42
 10
247.391713
 20
233.746233
 30
0.0
 40
12.5
 50
61.314598
 51
90.0
210
0.0
220
0.0
230
1.0
  0
ARC
  8
0
  6
CONTINUOUS
 62
     7
  5
43
 10
247.391713
 20
233.746233
 30
0.0
 40
12.5
 50
270.0
 51
298.685402
210
0.0
220
0.0
230
1.0
  0
LINE
  8
0
  6
CONTINUOUS
 62
     7
  5
44
 10
225.241713
 20
220.946233
 30
0.0
 11
216.891713
 21
220.946233
 31
0.0
  0
LINE
  8
0
  6
CONTINUOUS
 62
     7
  5
45
 10
216.891713
 20
246.546233
 30
0.0
 11
225.241713
 21
246.546233
 31
0.0
  0
ARC
  8
0
  6
CONTINUOUS
 62
     7
  5
46
 10
216.891713
 20
233.746233
 30
0.0
 40
12.5
 50
298.685402
 51
61.314598
210
0.0
220
0.0
230
1.0
  0
LINE
  8
0
  6
CONTINUOUS
 62
     7
  5
47
 10
222.891713
 20
244.712089
 30
0.0
 11
222.891713
 21
222.780377
 31
0.0
  0
ARC
  8
0
  6
CONTINUOUS
 62
     7
  5
48
 10
186.391713
 20
233.746233
 30
0.0
 40
5.0
 50
180.0
 51
360.0
210
0.0
220
0.0
230
1.0
  0
ARC
  8
0
  6
CONTINUOUS
 62
     7
  5
49
 10
186.391713
 20
233.746233
 30
0.0
 40
5.0
 50
0.0
 51
180.0
210
0.0
220
0.0
230
1.0
  0
LINE
  8
0
  6
CONTINUOUS
 62
     7
  5
4A
 10
216.891713
 20
220.946233
 30
0.0
 11
194.741713
 21
220.946233
 31
0.0
  0
LINE
  8
0
  6
CONTINUOUS
 62
     7
  5
4B
 10
216.891713
 20
221.246233
 30
0.0
 11
216.891713
 21
220.946233
 31
0.0
  0
LINE
  8
0
  6
CONTINUOUS
 62
     7
  5
4C
 10
216.891713
 20
246.546233
 30
0.0
 11
216.891713
 21
246.246233
 31
0.0
  0
LINE
  8
0
  6
CONTINUOUS
 62
     7
  5
4D
 10
194.741713
 20
220.946233
 30
0.0
 11
194.741713
 21
224.044816
 31
0.0
  0
ARC
  8
0
  6
CONTINUOUS
 62
     7
  5
4E
 10
186.391713
 20
233.746233
 30
0.0
 40
12.8
 50
0.0
 51
49.281455
210
0.0
220
0.0
230
1.0
  0
ARC
  8
0
  6
CONTINUOUS
 62
     7
  5
4F
 10
186.391713
 20
233.746233
 30
0.0
 40
12.8
 50
310.718545
 51
360.0
210
0.0
220
0.0
230
1.0
  0
LINE
  8
0
  6
CONTINUOUS
 62
     7
  5
50
 10
194.741713
 20
243.44765
 30
0.0
 11
194.741713
 21
246.546233
 31
0.0
  0
LINE
  8
0
  6
CONTINUOUS
 62
     7
  5
51
 10
194.741713
 20
246.546233
 30
0.0
 11
216.891713
 21
246.546233
 31
0.0
  0
ARC
  8
0
  6
CONTINUOUS
 62
     7
  5
52
 10
216.891713
 20
233.746233
 30
0.0
 40
12.5
 50
61.314598
 51
90.0
210
0.0
220
0.0
230
1.0
  0
ARC
  8
0
  6
CONTINUOUS
 62
     7
  5
53
 10
216.891713
 20
233.746233
 30
0.0
 40
12.5
 50
270.0
 51
298.685402
210
0.0
220
0.0
230
1.0
  0
LINE
  8
0
  6
CONTINUOUS
 62
     7
  5
54
 10
186.391713
 20
220.946233
 30
0.0
 11
186.391713
 21
221.246233
 31
0.0
  0
LINE
  8
0
  6
CONTINUOUS
 62
     7
  5
55
 10
194.741713
 20
220.946233
 30
0.0
 11
186.391713
 21
220.946233
 31
0.0
  0
LINE
  8
0
  6
CONTINUOUS
 62
     7
  5
56
 10
186.433069
 20
246.546233
 30
0.0
 11
194.741713
 21
246.546233
 31
0.0
  0
ARC
  8
0
  6
CONTINUOUS
 62
     7
  5
57
 10
186.391713
 20
233.746233
 30
0.0
 40
12.5
 50
298.315164
 51
60.94436
210
0.0
220
0.0
230
1.0
  0
LINE
  8
0
  6
CONTINUOUS
 62
     7
  5
58
 10
192.462447
 20
244.673089
 30
0.0
 11
192.320728
 21
222.741835
 31
0.0
  0
ARC
  8
0
  6
CONTINUOUS
 62
     7
  5
59
 10
155.89235
 20
233.943319
 30
0.0
 40
5.0
 50
179.629762
 51
359.629762
210
0.0
220
0.0
230
1.0
  0
ARC
  8
0
  6
CONTINUOUS
 62
     7
  5
5A
 10
155.89235
 20
233.943319
 30
0.0
 40
5.0
 50
359.629762
 51
179.629762
210
0.0
220
0.0
230
1.0
  0
LINE
  8
0
  6
CONTINUOUS
 62
     7
  5
5B
 10
186.309002
 20
220.9465
 30
0.0
 11
164.159464
 21
221.08963
 31
0.0
  0
LINE
  8
0
  6
CONTINUOUS
 62
     7
  5
5C
 10
164.159464
 20
221.08963
 30
0.0
 11
164.179487
 21
224.188147
 31
0.0
  0
ARC
  8
0
  6
CONTINUOUS
 62
     7
  5
5D
 10
155.89235
 20
233.943319
 30
0.0
 40
12.8
 50
359.629762
 51
48.911218
210
0.0
220
0.0
230
0.9999999999999999
  0
LINE
  8
0
  6
CONTINUOUS
 62
     7
  5
5E
 10
164.304864
 20
243.590577
 30
0.0
 11
164.324887
 21
246.689095
 31
0.0
  0
LINE
  8
0
  6
CONTINUOUS
 62
     7
  5
5F
 10
164.324887
 20
246.689095
 30
0.0
 11
186.474424
 21
246.545966
 31
0.0
  0
LINE
  8
0
  6
CONTINUOUS
 62
     7
  5
60
 10
186.474424
 20
246.545966
 30
0.0
 11
186.472486
 21
246.245972
 31
0.0
  0
LINE
  8
0
  6
CONTINUOUS
 62
     7
  5
61
 10
186.31094
 20
221.246494
 30
0.0
 11
186.309002
 21
220.9465
 31
0.0
  0
ARC
  8
0
  6
CONTINUOUS
 62
     7
  5
62
 10
155.89235
 20
233.943319
 30
0.0
 40
12.8
 50
310.348307
 51
359.629762
210
0.0
220
0.0
230
1.0
  0
ARC
  8
0
  6
CONTINUOUS
 62
     7
  5
63
 10
186.391713
 20
233.746233
 30
0.0
 40
12.5
 50
60.94436
 51
89.629762
210
0.0
220
0.0
230
1.0
  0
ARC
  8
0
  6
CONTINUOUS
 62
     7
  5
64
 10
186.391713
 20
233.746233
 30
0.0
 40
12.5
 50
269.629762
 51
298.315164
210
0.0
220
0.0
230
1.0
  0
LINE
  8
0
  6
CONTINUOUS
 62
     7
  5
65
 10
155.973123
 20
246.443058
 30
0.0
 11
155.975061
 21
246.743051
 31
0.0
  0
LINE
  8
0
  6
CONTINUOUS
 62
     7
  5
66
 10
164.159464
 20
221.08963
 30
0.0
 11
158.09158
 21
221.12884
 31
0.0
  0
LINE
  8
0
  6
CONTINUOUS
 62
     7
  5
67
 10
155.975061
 20
246.743051
 30
0.0
 11
164.324887
 21
246.689095
 31
0.0
  0
ARC
  8
0
  6
CONTINUOUS
 62
     7
  5
68
 10
105.370644
 20
116.211551
 30
0.0
 40
12.5
 50
75.851704
 51
198.4809
210
0.0
220
0.0
230
1.0
  0
LINE
  8
0
  6
CONTINUOUS
 62
     7
  5
69
 10
93.515277
 20
112.249194
 30
0.0
 11
108.42605
 21
128.33238
 31
0.0
  0
ARC
  8
0
  6
CONTINUOUS
 62
     7
  5
6A
 10
127.737213
 20
95.475433
 30
0.0
 40
5.0
 50
317.166302
 51
137.166302
210
0.0
220
0.0
230
1.0
  0
ARC
  8
0
  6
CONTINUOUS
 62
     7
  5
6B
 10
127.737213
 20
95.475433
 30
0.0
 40
5.0
 50
137.166302
 51
317.166302
210
0.0
220
0.0
230
1.0
  0
LINE
  8
0
  6
CONTINUOUS
 62
     7
  5
6C
 10
114.073015
 20
125.598177
 30
0.0
 11
130.316277
 21
110.538996
 31
0.0
  0
ARC
  8
0
  6
CONTINUOUS
 62
     7
  5
6D
 10
127.737213
 20
95.475433
 30
0.0
 40
12.8
 50
87.884847
 51
137.166302
210
0.0
220
0.0
230
1.0
  0
ARC
  8
0
  6
CONTINUOUS
 62
     7
  5
6E
 10
127.737213
 20
95.475433
 30
0.0
 40
12.8
 50
137.166302
 51
186.447758
210
0.0
220
0.0
230
1.0
  0
LINE
  8
0
  6
CONTINUOUS
 62
     7
  5
6F
 10
115.018177
 20
94.038028
 30
0.0
 11
112.911536
 21
91.765744
 31
0.0
  0
LINE
  8
0
  6
CONTINUOUS
 62
     7
  5
70
 10
112.911536
 20
91.765744
 30
0.0
 11
96.668273
 21
106.824925
 31
0.0
  0
LINE
  8
0
  6
CONTINUOUS
 62
     7
  5
71
 10
96.668273
 20
106.824925
 30
0.0
 11
96.872235
 21
107.044924
 31
0.0
  0
LINE
  8
0
  6
CONTINUOUS
 62
     7
  5
72
 10
113.869053
 20
125.378178
 30
0.0
 11
114.073015
 21
125.598177
 31
0.0
  0
LINE
  8
0
  6
CONTINUOUS
 62
     7
  5
73
 10
130.316277
 20
110.538996
 30
0.0
 11
128.209635
 21
108.266712
 31
0.0
  0
ARC
  8
0
  6
CONTINUOUS
 62
     7
  5
74
 10
105.370644
 20
116.211551
 30
0.0
 40
12.5
 50
198.4809
 51
227.166302
210
0.0
220
0.0
230
1.0
  0
ARC
  8
0
  6
CONTINUOUS
 62
     7
  5
75
 10
105.370644
 20
116.211551
 30
0.0
 40
12.5
 50
47.166302
 51
75.851704
210
0.0
220
0.0
230
1.0
  0
LINE
  8
0
  6
CONTINUOUS
 62
     7
  5
76
 10
119.238804
 20
86.308806
 30
0.0
 11
119.034842
 21
86.088807
 31
0.0
  0
LINE
  8
0
  6
CONTINUOUS
 62
     7
  5
77
 10
119.034842
 20
86.088807
 30
0.0
 11
112.911536
 21
91.765744
 31
0.0
  0
LINE
  8
0
  6
CONTINUOUS
 62
     7
  5
78
 10
130.316277
 20
110.538996
 30
0.0
 11
134.766132
 21
106.413521
 31
0.0
  0
ARC
  8
0
  6
CONTINUOUS
 62
     7
  5
79
 10
105.370644
 20
116.211551
 30
0.0
 40
5.0
 50
293.702399
 51
113.702399
210
0.0
220
0.0
230
1.0
  0
ARC
  8
0
  6
CONTINUOUS
 62
     7
  5
7A
 10
105.370644
 20
116.211551
 30
0.0
 40
5.0
 50
113.702399
 51
293.702399
210
0.0
220
0.0
230
1.0
  0
ARC
  8
0
  6
CONTINUOUS
 62
     7
  5
7B
 10
93.110067
 20
144.138747
 30
0.0
 40
12.5
 50
52.387802
 51
175.016997
210
0.0
220
0.0
230
1.0
  0
LINE
  8
0
  6
CONTINUOUS
 62
     7
  5
7C
 10
80.657311
 20
145.224499
 30
0.0
 11
100.73899
 21
154.040743
 31
0.0
  0
LINE
  8
0
  6
CONTINUOUS
 62
     7
  5
7D
 10
113.734326
 20
129.002615
 30
0.0
 11
110.897122
 21
127.757028
 31
0.0
  0
ARC
  8
0
  6
CONTINUOUS
 62
     7
  5
7E
 10
105.370644
 20
116.211551
 30
0.0
 40
12.8
 50
64.420944
 51
113.702399
210
0.0
220
0.0
230
1.0
  0
ARC
  8
0
  6
CONTINUOUS
 62
     7
  5
7F
 10
105.370644
 20
116.211551
 30
0.0
 40
12.8
 50
113.702399
 51
162.983855
210
0.0
220
0.0
230
1.0
  0
LINE
  8
0
  6
CONTINUOUS
 62
     7
  5
80
 10
90.293794
 20
118.711771
 30
0.0
 11
81.389802
 21
138.993324
 31
0.0
  0
LINE
  8
0
  6
CONTINUOUS
 62
     7
  5
81
 10
81.389802
 20
138.993324
 30
0.0
 11
81.664495
 21
139.11392
 31
0.0
  0
LINE
  8
0
  6
CONTINUOUS
 62
     7
  5
82
 10
104.555639
 20
149.163573
 30
0.0
 11
104.830333
 21
149.284169
 31
0.0
  0
LINE
  8
0
  6
CONTINUOUS
 62
     7
  5
83
 10
93.130998
 20
119.957358
 30
0.0
 11
90.293794
 21
118.711771
 31
0.0
  0
LINE
  8
0
  6
CONTINUOUS
 62
     7
  5
84
 10
104.830333
 20
149.284169
 30
0.0
 11
113.734326
 21
129.002615
 31
0.0
  0
ARC
  8
0
  6
CONTINUOUS
 62
     7
  5
85
 10
93.110067
 20
144.138747
 30
0.0
 40
12.5
 50
175.016997
 51
203.702399
210
0.0
220
0.0
230
1.0
  0
ARC
  8
0
  6
CONTINUOUS
 62
     7
  5
86
 10
93.110067
 20
144.138747
 30
0.0
 40
12.5
 50
23.702399
 51
52.387802
210
0.0
220
0.0
230
1.0
  0
LINE
  8
0
  6
CONTINUOUS
 62
     7
  5
87
 10
93.925072
 20
111.186724
 30
0.0
 11
93.650378
 21
111.066128
 31
0.0
  0
LINE
  8
0
  6
CONTINUOUS
 62
     7
  5
88
 10
93.650378
 20
111.066128
 30
0.0
 11
90.293794
 21
118.711771
 31
0.0
  0
LINE
  8
0
  6
CONTINUOUS
 62
     7
  5
89
 10
113.734326
 20
129.002615
 30
0.0
 11
116.022351
 21
123.790941
 31
0.0
  0
LINE
  8
0
  6
CONTINUOUS
 62
     7
  5
8A
 10
81.992373
 20
180.592784
 30
0.0
 11
103.923896
 21
180.684076
 31
0.0
  0
ARC
  8
0
  6
CONTINUOUS
 62
     7
  5
8B
 10
92.98311
 20
174.638482
 30
0.0
 40
12.5
 50
28.923899
 51
151.553095
210
0.0
220
0.0
230
1.0
  0
ARC
  8
0
  6
CONTINUOUS
 62
     7
  5
8C
 10
93.110067
 20
144.138747
 30
0.0
 40
5.0
 50
90.238497
 51
270.238497
210
0.0
220
0.0
230
1.0
  0
ARC
  8
0
  6
CONTINUOUS
 62
     7
  5
8D
 10
93.110067
 20
144.138747
 30
0.0
 40
5.0
 50
270.238497
 51
90.238497
210
0.0
220
0.0
230
1.0
  0
LINE
  8
0
  6
CONTINUOUS
 62
     7
  5
8E
 10
105.782999
 20
174.691763
 30
0.0
 11
105.875199
 21
152.541955
 31
0.0
  0
LINE
  8
0
  6
CONTINUOUS
 62
     7
  5
8F
 10
105.875199
 20
152.541955
 30
0.0
 11
102.776643
 21
152.529057
 31
0.0
  0
ARC
  8
0
  6
CONTINUOUS
 62
     7
  5
90
 10
93.110067
 20
144.138747
 30
0.0
 40
12.8
 50
40.957041
 51
90.238497
210
0.0
220
0.0
230
1.0
  0
ARC
  8
0
  6
CONTINUOUS
 62
     7
  5
91
 10
93.110067
 20
144.138747
 30
0.0
 40
12.8
 50
90.238497
 51
139.519952
210
0.0
220
0.0
230
1.0
  0
LINE
  8
0
  6
CONTINUOUS
 62
     7
  5
92
 10
83.373977
 20
152.448292
 30
0.0
 11
80.275421
 21
152.435394
 31
0.0
  0
LINE
  8
0
  6
CONTINUOUS
 62
     7
  5
93
 10
80.275421
 20
152.435394
 30
0.0
 11
80.183221
 21
174.585202
 31
0.0
  0
LINE
  8
0
  6
CONTINUOUS
 62
     7
  5
94
 10
80.183221
 20
174.585202
 30
0.0
 11
80.483218
 21
174.586451
 31
0.0
  0
LINE
  8
0
  6
CONTINUOUS
 62
     7
  5
95
 10
105.483001
 20
174.690514
 30
0.0
 11
105.782999
 21
174.691763
 31
0.0
  0
ARC
  8
0
  6
CONTINUOUS
 62
     7
  5
96
 10
92.98311
 20
174.638482
 30
0.0
 40
12.5
 50
151.553095
 51
180.238497
210
0.0
220
0.0
230
1.0
  0
ARC
  8
0
  6
CONTINUOUS
 62
     7
  5
97
 10
92.98311
 20
174.638482
 30
0.0
 40
12.5
 50
0.238497
 51
28.923899
210
0.0
220
0.0
230
1.0
  0
LINE
  8
0
  6
CONTINUOUS
 62
     7
  5
98
 10
80.610176
 20
144.086715
 30
0.0
 11
80.310178
 21
144.085466
 31
0.0
  0
LINE
  8
0
  6
CONTINUOUS
 62
     7
  5
99
 10
105.875199
 20
152.541955
 30
0.0
 11
105.898891
 21
146.850202
 31
0.0
  0
LINE
  8
0
  6
CONTINUOUS
 62
     7
  5
9A
 10
80.310178
 20
144.085466
 30
0.0
 11
80.275421
 21
152.435394
 31
0.0
  0
ARC
  8
0
  6
CONTINUOUS
 62
     7
  5
9B
 10
105.010767
 20
202.66678
 30
0.0
 40
12.5
 50
5.459996
 51
128.089192
210
0.0
220
0.0
230
1.0
  0
LINE
  8
0
  6
CONTINUOUS
 62
     7
  5
9C
 10
97.299675
 20
212.504922
 30
0.0
 11
117.454053
 21
203.856164
 31
0.0
  0
ARC
  8
0
  6
CONTINUOUS
 62
     7
  5
9D
 10
92.98311
 20
174.638482
 30
0.0
 40
5.0
 50
66.774594
 51
246.774594
210
0.0
220
0.0
230
1.0
  0
ARC
  8
0
  6
CONTINUOUS
 62
     7
  5
9E
 10
92.98311
 20
174.638482
 30
0.0
 40
5.0
 50
246.774594
 51
66.774594
210
0.0
220
0.0
230
1.0
  0
LINE
  8
0
  6
CONTINUOUS
 62
     7
  5
9F
 10
116.773463
 20
197.619107
 30
0.0
 11
108.038623
 21
177.26413
 31
0.0
  0
LINE
  8
0
  6
CONTINUOUS
 62
     7
  5
A0
 10
108.038623
 20
177.26413
 30
0.0
 11
105.191147
 21
178.486055
 31
0.0
  0
LINE
  8
0
  6
CONTINUOUS
 62
     7
  5
A1
 10
87.360707
 20
186.137551
 30
0.0
 11
84.513232
 21
187.359476
 31
0.0
  0
LINE
  8
0
  6
CONTINUOUS
 62
     7
  5
A2
 10
84.513232
 20
187.359476
 30
0.0
 11
93.248072
 21
207.714452
 31
0.0
  0
LINE
  8
0
  6
CONTINUOUS
 62
     7
  5
A3
 10
116.497774
 20
197.737412
 30
0.0
 11
116.773463
 21
197.619107
 31
0.0
  0
LINE
  8
0
  6
CONTINUOUS
 62
     7
  5
A4
 10
93.248072
 20
207.714452
 30
0.0
 11
93.52376
 21
207.596148
 31
0.0
  0
ARC
  8
0
  6
CONTINUOUS
 62
     7
  5
A5
 10
92.98311
 20
174.638482
 30
0.0
 40
12.8
 50
17.493139
 51
66.774594
210
0.0
220
0.0
230
1.0
  0
ARC
  8
0
  6
CONTINUOUS
 62
     7
  5
A6
 10
92.98311
 20
174.638482
 30
0.0
 40
12.8
 50
66.774594
 51
116.05605
210
0.0
220
0.0
230
1.0
  0
ARC
  8
0
  6
CONTINUOUS
 62
     7
  5
A7
 10
105.010767
 20
202.66678
 30
0.0
 40
12.5
 50
128.089192
 51
156.774594
210
0.0
220
0.0
230
1.0
  0
ARC
  8
0
  6
CONTINUOUS
 62
     7
  5
A8
 10
105.010767
 20
202.66678
 30
0.0
 40
12.5
 50
336.774594
 51
5.459996
210
0.0
220
0.0
230
1.0
  0
LINE
  8
0
  6
CONTINUOUS
 62
     7
  5
A9
 10
81.496103
 20
179.56785
 30
0.0
 11
81.220414
 21
179.686155
 31
0.0
  0
LINE
  8
0
  6
CONTINUOUS
 62
     7
  5
AA
 10
108.038623
 20
177.26413
 30
0.0
 11
105.794064
 21
172.033588
 31
0.0
  0
LINE
  8
0
  6
CONTINUOUS
 62
     7
  5
AB
 10
81.220414
 20
179.686155
 30
0.0
 11
84.513232
 21
187.359476
 31
0.0
  0
ARC
  8
0
  6
CONTINUOUS
 62
     7
  5
AC
 10
127.203933
 20
223.588381
 30
0.0
 40
12.5
 50
341.996093
 51
104.625289
210
0.0
220
0.0
230
1.0
  0
LINE
  8
0
  6
CONTINUOUS
 62
     7
  5
AD
 10
124.047727
 20
235.683354
 30
0.0
 11
139.091876
 21
219.724858
 31
0.0
  0
ARC
  8
0
  6
CONTINUOUS
 62
     7
  5
AE
 10
105.010767
 20
202.66678
 30
0.0
 40
5.0
 50
43.310691
 51
223.310691
210
0.0
220
0.0
230
1.0
  0
ARC
  8
0
  6
CONTINUOUS
 62
     7
  5
AF
 10
105.010767
 20
202.66678
 30
0.0
 40
5.0
 50
223.310691
 51
43.310691
210
0.0
220
0.0
230
1.0
  0
LINE
  8
0
  6
CONTINUOUS
 62
     7
  5
B0
 10
135.984146
 20
214.274528
 30
0.0
 11
119.866814
 21
199.080644
 31
0.0
  0
LINE
  8
0
  6
CONTINUOUS
 62
     7
  5
B1
 10
119.866814
 20
199.080644
 30
0.0
 11
117.741329
 21
201.335311
 31
0.0
  0
ARC
  8
0
  6
CONTINUOUS
 62
     7
  5
B2
 10
105.010767
 20
202.66678
 30
0.0
 40
12.8
 50
354.029236
 51
43.310691
210
0.0
220
0.0
230
0.9999999999999999
  0
ARC
  8
0
  6
CONTINUOUS
 62
     7
  5
B3
 10
105.010767
 20
202.66678
 30
0.0
 40
12.8
 50
43.310691
 51
92.592147
210
0.0
220
0.0
230
1.0
  0
LINE
  8
0
  6
CONTINUOUS
 62
     7
  5
B4
 10
104.431874
 20
215.453682
 30
0.0
 11
102.306388
 21
217.70835
 31
0.0
  0
LINE
  8
0
  6
CONTINUOUS
 62
     7
  5
B5
 10
135.77836
 20
214.492821
 30
0.0
 11
135.984146
 21
214.274528
 31
0.0
  0
LINE
  8
0
  6
CONTINUOUS
 62
     7
  5
B6
 10
118.42372
 20
232.902234
 30
0.0
 11
118.629506
 21
232.683941
 31
0.0
  0
LINE
  8
0
  6
CONTINUOUS
 62
     7
  5
B7
 10
102.306388
 20
217.70835
 30
0.0
 11
118.42372
 21
232.902234
 31
0.0
  0
ARC
  8
0
  6
CONTINUOUS
 62
     7
  5
B8
 10
127.203933
 20
223.588381
 30
0.0
 40
12.5
 50
104.625289
 51
133.310691
210
0.0
220
0.0
230
1.0
  0
ARC
  8
0
  6
CONTINUOUS
 62
     7
  5
B9
 10
127.203933
 20
223.588381
 30
0.0
 40
12.5
 50
313.310691
 51
341.996093
210
0.0
220
0.0
230
1.0
  0
LINE
  8
0
  6
CONTINUOUS
 62
     7
  5
BA
 10
96.43634
 20
211.762339
 30
0.0
 11
96.230554
 21
211.980633
 31
0.0
  0
LINE
  8
0
  6
CONTINUOUS
 62
     7
  5
BB
 10
119.866814
 20
199.080644
 30
0.0
 11
115.725204
 21
195.176328
 31
0.0
  0
LINE
  8
0
  6
CONTINUOUS
 62
     7
  5
BC
 10
96.230554
 20
211.980633
 30
0.0
 11
102.306388
 21
217.70835
 31
0.0
  0
ARC
  8
0
  6
CONTINUOUS
 62
     7
  5
BD
 10
127.203933
 20
223.588381
 30
0.0
 40
5.0
 50
19.846789
 51
199.846789
210
0.0
220
0.0
230
1.0
  0
ARC
  8
0
  6
CONTINUOUS
 62
     7
  5
BE
 10
127.203933
 20
223.588381
 30
0.0
 40
5.0
 50
199.846789
 51
19.846789
210
0.0
220
0.0
230
0.9999999999999999
  0
ARC
  8
0
  6
CONTINUOUS
 62
     7
  5
BF
 10
155.89235
 20
233.943319
 30
0.0
 40
12.5
 50
318.532191
 51
81.161387
210
0.0
220
0.0
230
1.0
  0
LINE
  8
0
  6
CONTINUOUS
 62
     7
  5
C0
 10
157.812997
 20
246.294882
 30
0.0
 11
165.258948
 21
225.665829
 31
0.0
  0
LINE
  8
0
  6
CONTINUOUS
 62
     7
  5
C1
 10
160.238028
 20
221.903589
 30
0.0
 11
139.403654
 21
214.383528
 31
0.0
  0
LINE
  8
0
  6
CONTINUOUS
 62
     7
  5
C2
 10
139.403654
 20
214.383528
 30
0.0
 11
138.351666
 21
217.298067
 31
0.0
  0
ARC
  8
0
  6
CONTINUOUS
 62
     7
  5
C3
 10
127.203933
 20
223.588381
 30
0.0
 40
12.8
 50
19.846789
 51
69.128244
210
0.0
220
0.0
230
1.0
  0
LINE
  8
0
  6
CONTINUOUS
 62
     7
  5
C4
 10
160.136177
 20
222.185771
 30
0.0
 11
160.238028
 21
221.903589
 31
0.0
  0
ARC
  8
0
  6
CONTINUOUS
 62
     7
  5
C5
 10
127.203933
 20
223.588381
 30
0.0
 40
12.8
 50
330.565333
 51
19.846789
210
0.0
220
0.0
230
1.0
  0
LINE
  8
0
  6
CONTINUOUS
 62
     7
  5
C6
 10
131.764284
 20
235.548448
 30
0.0
 11
130.712296
 21
238.462986
 31
0.0
  0
LINE
  8
0
  6
CONTINUOUS
 62
     7
  5
C7
 10
130.712296
 20
238.462986
 30
0.0
 11
151.546671
 21
245.983048
 31
0.0
  0
LINE
  8
0
  6
CONTINUOUS
 62
     7
  5
C8
 10
151.546671
 20
245.983048
 30
0.0
 11
151.648523
 21
245.700866
 31
0.0
  0
ARC
  8
0
  6
CONTINUOUS
 62
     7
  5
C9
 10
155.89235
 20
233.943319
 30
0.0
 40
12.5
 50
81.161387
 51
109.846789
210
0.0
220
0.0
230
1.0
  0
ARC
  8
0
  6
CONTINUOUS
 62
     7
  5
CA
 10
155.89235
 20
233.943319
 30
0.0
 40
12.5
 50
289.846789
 51
318.532191
210
0.0
220
0.0
230
1.0
  0
LINE
  8
0
  6
CONTINUOUS
 62
     7
  5
CB
 10
122.960106
 20
235.345929
 30
0.0
 11
122.858254
 21
235.62811
 31
0.0
  0
LINE
  8
0
  6
CONTINUOUS
 62
     7
  5
CC
 10
139.403654
 20
214.383528
 30
0.0
 11
134.049922
 21
212.451126
 31
0.0
  0
LINE
  8
0
  6
CONTINUOUS
 62
     7
  5
CD
 10
122.858254
 20
235.62811
 30
0.0
 11
130.712296
 21
238.462986
 31
0.0
  0
ARC
  8
0
  6
CONTINUOUS
 62
     7
  5
CE
 10
155.891713
 20
83.746233
 30
0.0
 40
5.0
 50
337.383329
 51
157.383329
210
0.0
220
0.0
230
1.0
  0
ARC
  8
0
  6
CONTINUOUS
 62
     7
  5
CF
 10
155.891713
 20
83.746233
 30
0.0
 40
5.0
 50
157.383329
 51
337.383329
210
0.0
220
0.0
230
1.0
  0
LINE
  8
0
  6
CONTINUOUS
 62
     7
  5
D0
 10
117.98155
 20
87.660253
 30
0.0
 11
126.415696
 21
107.90538
 31
0.0
  0
ARC
  8
0
  6
CONTINUOUS
 62
     7
  5
D1
 10
127.737213
 20
95.475433
 30
0.0
 40
12.5
 50
96.068731
 51
218.697927
210
0.0
220
0.0
230
1.0
  0
LINE
  8
0
  6
CONTINUOUS
 62
     7
  5
D2
 10
132.659631
 20
107.291092
 30
0.0
 11
153.10626
 21
98.773001
 31
0.0
  0
LINE
  8
0
  6
CONTINUOUS
 62
     7
  5
D3
 10
153.10626
 20
98.773001
 30
0.0
 11
151.914657
 21
95.912704
 31
0.0
  0
ARC
  8
0
  6
CONTINUOUS
 62
     7
  5
D4
 10
155.891713
 20
83.746233
 30
0.0
 40
12.8
 50
108.101873
 51
157.383329
210
0.0
220
0.0
230
1.0
  0
ARC
  8
0
  6
CONTINUOUS
 62
     7
  5
D5
 10
155.891713
 20
83.746233
 30
0.0
 40
12.8
 50
157.383329
 51
206.664784
210
0.0
220
0.0
230
0.9999999999999999
  0
LINE
  8
0
  6
CONTINUOUS
 62
     7
  5
D6
 10
144.453026
 20
78.001979
 30
0.0
 11
143.261423
 21
75.141683
 31
0.0
  0
LINE
  8
0
  6
CONTINUOUS
 62
     7
  5
D7
 10
143.261423
 20
75.141683
 30
0.0
 11
122.814795
 21
83.659774
 31
0.0
  0
LINE
  8
0
  6
CONTINUOUS
 62
     7
  5
D8
 10
122.814795
 20
83.659774
 30
0.0
 11
122.930164
 21
83.936703
 31
0.0
  0
LINE
  8
0
  6
CONTINUOUS
 62
     7
  5
D9
 10
132.544262
 20
107.014162
 30
0.0
 11
132.659631
 21
107.291092
 31
0.0
  0
ARC
  8
0
  6
CONTINUOUS
 62
     7
  5
DA
 10
127.737213
 20
95.475433
 30
0.0
 40
12.5
 50
218.697927
 51
247.383329
210
0.0
220
0.0
230
1.0
  0
ARC
  8
0
  6
CONTINUOUS
 62
     7
  5
DB
 10
127.737213
 20
95.475433
 30
0.0
 40
12.5
 50
67.383329
 51
96.068731
210
0.0
220
0.0
230
1.0
  0
LINE
  8
0
  6
CONTINUOUS
 62
     7
  5
DC
 10
151.084664
 20
72.207503
 30
0.0
 11
150.969295
 21
71.930574
 31
0.0
  0
LINE
  8
0
  6
CONTINUOUS
 62
     7
  5
DD
 10
153.10626
 20
98.773001
 30
0.0
 11
158.451342
 21
96.546233
 31
0.0
  0
LINE
  8
0
  6
CONTINUOUS
 62
     7
  5
DE
 10
150.969295
 20
71.930574
 30
0.0
 11
143.261423
 21
75.141683
 31
0.0
  0
ARC
  8
0
  6
CONTINUOUS
 62
     7
  5
DF
 10
155.891713
 20
83.746233
 30
0.0
 40
12.5
 50
118.685402
 51
241.314598
210
0.0
220
0.0
230
1.0
  0
LINE
  8
0
  6
CONTINUOUS
 62
     7
  5
E0
 10
149.891713
 20
72.780377
 30
0.0
 11
149.891713
 21
94.712089
 31
0.0
  0
ARC
  8
0
  6
CONTINUOUS
 62
     7
  5
E1
 10
186.391713
 20
83.746233
 30
0.0
 40
5.0
 50
180.0
 51
360.0
210
0.0
220
0.0
230
1.0
  0
ARC
  8
0
  6
CONTINUOUS
 62
     7
  5
E2
 10
186.391713
 20
83.746233
 30
0.0
 40
5.0
 50
0.0
 51
180.0
210
0.0
220
0.0
230
1.0
  0
LINE
  8
0
  6
CONTINUOUS
 62
     7
  5
E3
 10
155.891713
 20
96.546233
 30
0.0
 11
178.041713
 21
96.546233
 31
0.0
  0
LINE
  8
0
  6
CONTINUOUS
 62
     7
  5
E4
 10
178.041713
 20
96.546233
 30
0.0
 11
178.041713
 21
93.44765
 31
0.0
  0
ARC
  8
0
  6
CONTINUOUS
 62
     7
  5
E5
 10
186.391713
 20
83.746233
 30
0.0
 40
12.8
 50
130.718545
 51
180.0
210
0.0
220
0.0
230
1.0
  0
ARC
  8
0
  6
CONTINUOUS
 62
     7
  5
E6
 10
186.391713
 20
83.746233
 30
0.0
 40
12.8
 50
180.0
 51
229.281455
210
0.0
220
0.0
230
1.0
  0
LINE
  8
0
  6
CONTINUOUS
 62
     7
  5
E7
 10
155.891713
 20
70.946233
 30
0.0
 11
155.891713
 21
71.246233
 31
0.0
  0
LINE
  8
0
  6
CONTINUOUS
 62
     7
  5
E8
 10
155.891713
 20
96.246233
 30
0.0
 11
155.891713
 21
96.546233
 31
0.0
  0
LINE
  8
0
  6
CONTINUOUS
 62
     7
  5
E9
 10
178.041713
 20
74.044816
 30
0.0
 11
178.041713
 21
70.946233
 31
0.0
  0
LINE
  8
0
  6
CONTINUOUS
 62
     7
  5
EA
 10
178.041713
 20
70.946233
 30
0.0
 11
155.891713
 21
70.946233
 31
0.0
  0
ARC
  8
0
  6
CONTINUOUS
 62
     7
  5
EB
 10
155.891713
 20
83.746233
 30
0.0
 40
12.5
 50
241.314598
 51
270.0
210
0.0
220
0.0
230
1.0
  0
ARC
  8
0
  6
CONTINUOUS
 62
     7
  5
EC
 10
155.891713
 20
83.746233
 30
0.0
 40
12.5
 50
90.0
 51
118.685402
210
0.0
220
0.0
230
1.0
  0
LINE
  8
0
  6
CONTINUOUS
 62
     7
  5
ED
 10
178.041713
 20
96.546233
 30
0.0
 11
186.391713
 21
96.546233
 31
0.0
  0
LINE
  8
0
  6
CONTINUOUS
 62
     7
  5
EE
 10
186.391713
 20
70.946233
 30
0.0
 11
178.041713
 21
70.946233
 31
0.0
  0
ARC
  8
0
  6
CONTINUOUS
 62
     7
  5
EF
 10
216.891713
 20
83.746233
 30
0.0
 40
5.0
 50
180.0
 51
360.0
210
0.0
220
0.0
230
1.0
  0
ARC
  8
0
  6
CONTINUOUS
 62
     7
  5
F0
 10
216.891713
 20
83.746233
 30
0.0
 40
5.0
 50
0.0
 51
180.0
210
0.0
220
0.0
230
1.0
  0
LINE
  8
0
  6
CONTINUOUS
 62
     7
  5
F1
 10
180.391713
 20
72.780377
 30
0.0
 11
180.391713
 21
94.712089
 31
0.0
  0
ARC
  8
0
  6
CONTINUOUS
 62
     7
  5
F2
 10
186.391713
 20
83.746233
 30
0.0
 40
12.5
 50
118.685402
 51
241.314598
210
0.0
220
0.0
230
1.0
  0
ARC
  8
0
  6
CONTINUOUS
 62
     7
  5
F3
 10
216.891713
 20
83.746233
 30
0.0
 40
12.8
 50
130.718545
 51
180.0
210
0.0
220
0.0
230
1.0
  0
ARC
  8
0
  6
CONTINUOUS
 62
     7
  5
F4
 10
216.891713
 20
83.746233
 30
0.0
 40
12.8
 50
180.0
 51
229.281455
210
0.0
220
0.0
230
1.0
  0
LINE
  8
0
  6
CONTINUOUS
 62
     7
  5
F5
 10
208.541713
 20
74.044816
 30
0.0
 11
208.541713
 21
70.946233
 31
0.0
  0
LINE
  8
0
  6
CONTINUOUS
 62
     7
  5
F6
 10
186.391713
 20
70.946233
 30
0.0
 11
186.391713
 21
71.246233
 31
0.0
  0
LINE
  8
0
  6
CONTINUOUS
 62
     7
  5
F7
 10
186.391713
 20
96.246233
 30
0.0
 11
186.391713
 21
96.546233
 31
0.0
  0
LINE
  8
0
  6
CONTINUOUS
 62
     7
  5
F8
 10
208.541713
 20
70.946233
 30
0.0
 11
186.391713
 21
70.946233
 31
0.0
  0
LINE
  8
0
  6
CONTINUOUS
 62
     7
  5
F9
 10
186.391713
 20
96.546233
 30
0.0
 11
208.541713
 21
96.546233
 31
0.0
  0
LINE
  8
0
  6
CONTINUOUS
 62
     7
  5
FA
 10
208.541713
 20
96.546233
 30
0.0
 11
208.541713
 21
93.44765
 31
0.0
  0
ARC
  8
0
  6
CONTINUOUS
 62
     7
  5
FB
 10
186.391713
 20
83.746233
 30
0.0
 40
12.5
 50
241.314598
 51
270.0
210
0.0
220
0.0
230
1.0
  0
ARC
  8
0
  6
CONTINUOUS
 62
     7
  5
FC
 10
186.391713
 20
83.746233
 30
0.0
 40
12.5
 50
90.0
 51
118.685402
210
0.0
220
0.0
230
1.0
  0
LINE
  8
0
  6
CONTINUOUS
 62
     7
  5
FD
 10
216.891713
 20
70.946233
 30
0.0
 11
208.541713
 21
70.946233
 31
0.0
  0
LINE
  8
0
  6
CONTINUOUS
 62
     7
  5
FE
 10
208.541713
 20
96.546233
 30
0.0
 11
216.891713
 21
96.546233
 31
0.0
  0
ARC
  8
0
  6
CONTINUOUS
 62
     7
  5
FF
 10
247.391713
 20
83.746233
 30
0.0
 40
5.0
 50
0.0
 51
180.0
210
0.0
220
0.0
230
1.0
  0
ARC
  8
0
  6
CONTINUOUS
 62
     7
  5
100
 10
247.391713
 20
83.746233
 30
0.0
 40
5.0
 50
180.0
 51
360.0
210
0.0
220
0.0
230
1.0
  0
LINE
  8
0
  6
CONTINUOUS
 62
     7
  5
101
 10
210.891713
 20
72.780377
 30
0.0
 11
210.891713
 21
94.712089
 31
0.0
  0
ARC
  8
0
  6
CONTINUOUS
 62
     7
  5
102
 10
216.891713
 20
83.746233
 30
0.0
 40
12.5
 50
118.685402
 51
241.314598
210
0.0
220
0.0
230
1.0
  0
LINE
  8
0
  6
CONTINUOUS
 62
     7
  5
103
 10
216.891713
 20
96.546233
 30
0.0
 11
239.041713
 21
96.546233
 31
0.0
  0
ARC
  8
0
  6
CONTINUOUS
 62
     7
  5
104
 10
247.391713
 20
83.746233
 30
0.0
 40
12.8
 50
130.718545
 51
180.0
210
0.0
220
0.0
230
1.0
  0
ARC
  8
0
  6
CONTINUOUS
 62
     7
  5
105
 10
247.391713
 20
83.746233
 30
0.0
 40
12.8
 50
180.0
 51
229.281455
210
0.0
220
0.0
230
1.0
  0
LINE
  8
0
  6
CONTINUOUS
 62
     7
  5
106
 10
239.041713
 20
74.044816
 30
0.0
 11
239.041713
 21
70.946233
 31
0.0
  0
LINE
  8
0
  6
CONTINUOUS
 62
     7
  5
107
 10
239.041713
 20
70.946233
 30
0.0
 11
216.891713
 21
70.946233
 31
0.0
  0
LINE
  8
0
  6
CONTINUOUS
 62
     7
  5
108
 10
216.891713
 20
96.246233
 30
0.0
 11
216.891713
 21
96.546233
 31
0.0
  0
LINE
  8
0
  6
CONTINUOUS
 62
     7
  5
109
 10
216.891713
 20
70.946233
 30
0.0
 11
216.891713
 21
71.246233
 31
0.0
  0
LINE
  8
0
  6
CONTINUOUS
 62
     7
  5
10A
 10
239.041713
 20
96.546233
 30
0.0
 11
239.041713
 21
93.44765
 31
0.0
  0
ARC
  8
0
  6
CONTINUOUS
 62
     7
  5
10B
 10
216.891713
 20
83.746233
 30
0.0
 40
12.5
 50
241.314598
 51
270.0
210
0.0
220
0.0
230
1.0
  0
ARC
  8
0
  6
CONTINUOUS
 62
     7
  5
10C
 10
216.891713
 20
83.746233
 30
0.0
 40
12.5
 50
90.0
 51
118.685402
210
0.0
220
0.0
230
1.0
  0
LINE
  8
0
  6
CONTINUOUS
 62
     7
  5
10D
 10
247.391713
 20
70.946233
 30
0.0
 11
239.041713
 21
70.946233
 31
0.0
  0
LINE
  8
0
  6
CONTINUOUS
 62
     7
  5
10E
 10
239.041713
 20
96.546233
 30
0.0
 11
247.391713
 21
96.546233
 31
0.0
  0
ARC
  8
0
  6
CONTINUOUS
 62
     7
  5
10F
 10
277.891713
 20
83.746233
 30
0.0
 40
5.0
 50
180.0
 51
360.0
210
0.0
220
0.0
230
1.0
  0
ARC
  8
0
  6
CONTINUOUS
 62
     7
  5
110
 10
277.891713
 20
83.746233
 30
0.0
 40
5.0
 50
0.0
 51
180.0
210
0.0
220
0.0
230
1.0
  0
LINE
  8
0
  6
CONTINUOUS
 62
     7
  5
111
 10
241.391713
 20
72.780377
 30
0.0
 11
241.391713
 21
94.712089
 31
0.0
  0
ARC
  8
0
  6
CONTINUOUS
 62
     7
  5
112
 10
247.391713
 20
83.746233
 30
0.0
 40
12.5
 50
118.685402
 51
241.314598
210
0.0
220
0.0
230
1.0
  0
LINE
  8
0
  6
CONTINUOUS
 62
     7
  5
113
 10
269.541713
 20
96.546233
 30
0.0
 11
269.541713
 21
93.44765
 31
0.0
  0
LINE
  8
0
  6
CONTINUOUS
 62
     7
  5
114
 10
247.391713
 20
96.246233
 30
0.0
 11
247.391713
 21
96.546233
 31
0.0
  0
LINE
  8
0
  6
CONTINUOUS
 62
     7
  5
115
 10
247.391713
 20
96.546233
 30
0.0
 11
269.541713
 21
96.546233
 31
0.0
  0
ARC
  8
0
  6
CONTINUOUS
 62
     7
  5
116
 10
277.891713
 20
83.746233
 30
0.0
 40
12.8
 50
180.0
 51
229.281455
210
0.0
220
0.0
230
1.0
  0
LINE
  8
0
  6
CONTINUOUS
 62
     7
  5
117
 10
247.391713
 20
70.946233
 30
0.0
 11
247.391713
 21
71.246233
 31
0.0
  0
LINE
  8
0
  6
CONTINUOUS
 62
     7
  5
118
 10
269.541713
 20
74.044816
 30
0.0
 11
269.541713
 21
70.946233
 31
0.0
  0
ARC
  8
0
  6
CONTINUOUS
 62
     7
  5
119
 10
277.891713
 20
83.746233
 30
0.0
 40
12.8
 50
130.718545
 51
180.0
210
0.0
220
0.0
230
1.0
  0
LINE
  8
0
  6
CONTINUOUS
 62
     7
  5
11A
 10
269.541713
 20
70.946233
 30
0.0
 11
247.391713
 21
70.946233
 31
0.0
  0
ARC
  8
0
  6
CONTINUOUS
 62
     7
  5
11B
 10
247.391713
 20
83.746233
 30
0.0
 40
12.5
 50
241.314598
 51
270.0
210
0.0
220
0.0
230
1.0
  0
ARC
  8
0
  6
CONTINUOUS
 62
     7
  5
11C
 10
247.391713
 20
83.746233
 30
0.0
 40
12.5
 50
90.0
 51
118.685402
210
0.0
220
0.0
230
1.0
  0
LINE
  8
0
  6
CONTINUOUS
 62
     7
  5
11D
 10
277.891713
 20
71.246233
 30
0.0
 11
277.891713
 21
70.946233
 31
0.0
  0
LINE
  8
0
  6
CONTINUOUS
 62
     7
  5
11E
 10
277.891713
 20
96.546233
 30
0.0
 11
277.891713
 21
96.246233
 31
0.0
  0
LINE
  8
0
  6
CONTINUOUS
 62
     7
  5
11F
 10
269.541713
 20
96.546233
 30
0.0
 11
277.891713
 21
96.546233
 31
0.0
  0
LINE
  8
0
  6
CONTINUOUS
 62
     7
  5
120
 10
277.891713
 20
70.946233
 30
0.0
 11
269.541713
 21
70.946233
 31
0.0
  0
LINE
  8
0
  6
CONTINUOUS
 62
     7
  5
121
 10
315.891713
 20
81.246233
 30
0.0
 11
290.226521
 21
85.771699
 31
0.0
  0
LINE
  8
0
  6
CONTINUOUS
 62
     7
  5
122
 10
315.891713
 20
71.246233
 30
0.0
 11
315.891713
 21
81.246233
 31
0.0
  0
ARC
  8
0
  6
CONTINUOUS
 62
     7
  5
123
 10
277.891713
 20
83.746233
 30
0.0
 40
5.0
 50
180.0
 51
360.0
210
0.0
220
0.0
230
1.0
  0
LINE
  8
0
  6
CONTINUOUS
 62
     7
  5
124
 10
277.891713
 20
71.246233
 30
0.0
 11
315.891713
 21
71.246233
 31
0.0
  0
ARC
  8
0
  6
CONTINUOUS
 62
     7
  5
125
 10
277.891713
 20
83.746233
 30
0.0
 40
12.5
 50
9.325166
 51
180.0
210
0.0
220
0.0
230
1.0
  0
ARC
  8
0
  6
CONTINUOUS
 62
     7
  5
126
 10
277.891713
 20
83.746233
 30
0.0
 40
5.0
 50
360.0
 51
180.0
210
0.0
220
0.0
230
1.0
  0
ARC
  8
0
  6
CONTINUOUS
 62
     7
  5
127
 10
277.891713
 20
83.746233
 30
0.0
 40
12.5
 50
180.0
 51
270.0
210
0.0
220
0.0
230
1.0
  0
LINE
  8
0
  6
CONTINUOUS
 62
     7
  5
128
 10
332.891713
 20
77.246233
 30
0.0
 11
332.891713
 21
73.246233
 31
0.0
  0
LINE
  8
0
  6
CONTINUOUS
 62
     7
  5
129
 10
332.891713
 20
73.246233
 30
0.0
 11
317.891713
 21
73.246233
 31
0.0
  0
LINE
  8
0
  6
CONTINUOUS
 62
     7
  5
12A
 10
317.891713
 20
73.246233
 30
0.0
 11
317.891713
 21
71.246233
 31
0.0
  0
LINE
  8
0
  6
CONTINUOUS
 62
     7
  5
12B
 10
315.891713
 20
77.246233
 30
0.0
 11
332.891713
 21
77.246233
 31
0.0
  0
LINE
  8
0
  6
CONTINUOUS
 62
     7
  5
12C
 10
317.891713
 20
71.246233
 30
0.0
 11
315.891713
 21
71.246233
 31
0.0
  0
LINE
  8
0
  6
CONTINUOUS
 62
     7
  5
12D
 10
289.891713
 20
66.446233
 30
0.0
 11
313.891713
 21
66.446233
 31
0.0
  0
LINE
  8
0
  6
CONTINUOUS
 62
     7
  5
12E
 10
289.891713
 20
60.446233
 30
0.0
 11
313.891713
 21
60.446233
 31
0.0
  0
LINE
  8
0
  6
CONTINUOUS
 62
     7
  5
12F
 10
313.891713
 20
66.446233
 30
0.0
 11
313.891713
 21
60.446233
 31
0.0
  0
LINE
  8
0
  6
CONTINUOUS
 62
     7
  5
130
 10
289.891713
 20
66.446233
 30
0.0
 11
289.891713
 21
60.446233
 31
0.0
  0
LINE
  8
0
  6
CONTINUOUS
 62
     7
  5
131
 10
313.891713
 20
66.446233
 30
0.0
 11
313.891713
 21
71.246233
 31
0.0
  0
LINE
  8
0
  6
CONTINUOUS
 62
     7
  5
132
 10
289.891713
 20
66.446233
 30
0.0
 11
289.891713
 21
71.246233
 31
0.0
  0
CIRCLE
  8
0
  6
CONTINUOUS
 62
     7
  5
133
 10
277.891713
 20
233.746233
 30
0.0
 40
5.0
210
0.0
220
0.0
230
1.0
  0
LINE
  8
0
  6
CONTINUOUS
 62
     7
  5
134
 10
283.891713
 20
221.246233
 30
0.0
 11
315.891713
 21
221.246233
 31
0.0
  0
LINE
  8
0
  6
CONTINUOUS
 62
     7
  5
135
 10
283.891713
 20
222.552931
 30
0.0
 11
283.891713
 21
221.246233
 31
0.0
  0
LINE
  8
0
  6
CONTINUOUS
 62
     7
  5
136
 10
315.891713
 20
231.246233
 30
0.0
 11
290.435041
 21
235.734931
 31
0.0
  0
LINE
  8
0
  6
CONTINUOUS
 62
     7
  5
137
 10
315.891713
 20
221.246233
 30
0.0
 11
315.891713
 21
231.246233
 31
0.0
  0
ARC
  8
0
  6
CONTINUOUS
 62
     7
  5
138
 10
277.891713
 20
233.746233
 30
0.0
 40
12.7
 50
298.192861
 51
9.009046
210
0.0
220
0.0
230
1.0
  0
LINE
  8
0
  6
CONTINUOUS
 62
     7
  5
139
 10
308.891713
 20
221.246233
 30
0.0
 11
308.891713
 21
216.246233
 31
0.0
  0
LINE
  8
0
  6
CONTINUOUS
 62
     7
  5
13A
 10
308.891713
 20
216.246233
 30
0.0
 11
293.891713
 21
216.246233
 31
0.0
  0
LINE
  8
0
  6
CONTINUOUS
 62
     7
  5
13B
 10
293.891713
 20
216.246233
 30
0.0
 11
293.891713
 21
221.246233
 31
0.0
  0
LINE
  8
0
  6
CONTINUOUS
 62
     7
  5
13C
 10
283.891713
 20
221.246233
 30
0.0
 11
277.891713
 21
221.246233
 31
0.0
  0
LINE
  8
0
  6
CONTINUOUS
 62
     7
  5
13D
 10
290.226521
 20
235.771699
 30
0.0
 11
290.435041
 21
235.734931
 31
0.0
  0
LINE
  8
0
  6
CONTINUOUS
 62
     7
  5
13E
 10
332.891713
 20
223.246233
 30
0.0
 11
317.891713
 21
223.246233
 31
0.0
  0
LINE
  8
0
  6
CONTINUOUS
 62
     7
  5
13F
 10
317.891713
 20
223.246233
 30
0.0
 11
317.891713
 21
221.246233
 31
0.0
  0
LINE
  8
0
  6
CONTINUOUS
 62
     7
  5
140
 10
332.891713
 20
227.246233
 30
0.0
 11
332.891713
 21
223.246233
 31
0.0
  0
LINE
  8
0
  6
CONTINUOUS
 62
     7
  5
141
 10
315.891713
 20
227.246233
 30
0.0
 11
332.891713
 21
227.246233
 31
0.0
  0
LINE
  8
0
  6
CONTINUOUS
 62
     7
  5
142
 10
317.891713
 20
221.246233
 30
0.0
 11
315.891713
 21
221.246233
 31
0.0
  0
CIRCLE
  8
0
  6
CONTINUOUS
 62
     7
  5
143
 10
301.391713
 20
57.246233
 30
0.0
 40
2.5
210
0.0
220
0.0
230
1.0
  0
CIRCLE
  8
0
  6
CONTINUOUS
 62
     7
  5
144
 10
301.391713
 20
57.246233
 30
0.0
 40
3.0
210
0.0
220
0.0
230
1.0
  0
LINE
  8
0
  6
CONTINUOUS
 62
     9
  5
145
 10
308.891713
 20
214.246233
 30
0.0
 11
293.891713
 21
214.246233
 31
0.0
  0
LINE
  8
0
  6
CONTINUOUS
 62
     7
  5
146
 10
308.891713
 20
214.246233
 30
0.0
 11
308.891713
 21
216.246233
 31
0.0
  0
LINE
  8
0
  6
CONTINUOUS
 62
     7
  5
147
 10
293.891713
 20
216.246233
 30
0.0
 11
293.891713
 21
214.246233
 31
0.0
  0
ARC
  8
0
  6
CONTINUOUS
 62
     7
  5
148
 10
301.391713
 20
57.246233
 30
0.0
 40
3.25
 50
0.0
 51
79.936726
210
0.0
220
0.0
230
1.0
  0
ARC
  8
0
  6
CONTINUOUS
 62
     7
  5
149
 10
301.391713
 20
57.246233
 30
0.0
 40
3.25
 50
100.063274
 51
0.0
210
0.0
220
0.0
230
1.0
  0
LINE
  8
0
  6
CONTINUOUS
 62
     7
  5
14A
 10
293.891713
 20
51.246233
 30
0.0
 11
308.891713
 21
51.246233
 31
0.0
  0
LINE
  8
0
  6
CONTINUOUS
 62
     7
  5
14B
 10
308.891713
 20
51.246233
 30
0.0
 11
308.891713
 21
60.446233
 31
0.0
  0
LINE
  8
0
  6
CONTINUOUS
 62
     7
  5
14C
 10
308.891713
 20
82.480522
 30
0.0
 11
308.891713
 21
214.246233
 31
0.0
  0
LINE
  8
0
  6
CONTINUOUS
 62
     7
  5
14D
 10
293.891713
 20
51.246233
 30
0.0
 11
293.891713
 21
60.446233
 31
0.0
  0
LINE
  8
0
  6
CONTINUOUS
 62
     7
  5
14E
 10
293.891713
 20
85.125427
 30
0.0
 11
293.891713
 21
214.246233
 31
0.0
  0
ENDBLK
  8
0
  5
14F
  0
BLOCK
  8
0
  5
152
  2
AID601
 70
     0
 10
0.0
 20
0.0
 30
0.0
  3
#auxiliary draft view
  0
LINE
  8
0
  6
CONTINUOUS
 62
     7
  5
153
 10
-166.313251
 20
244.712089
 30
0.0
 11
-166.713251
 21
244.712089
 31
0.0
  0
LINE
  8
0
  6
CONTINUOUS
 62
     7
  5
154
 10
-166.313251
 20
246.246233
 30
0.0
 11
-166.313251
 21
244.712089
 31
0.0
  0
LINE
  8
0
  6
CONTINUOUS
 62
     7
  5
155
 10
-163.713251
 20
246.246233
 30
0.0
 11
-166.313251
 21
246.246233
 31
0.0
  0
LINE
  8
0
  6
CONTINUOUS
 62
     7
  5
156
 10
-163.713251
 20
245.731536
 30
0.0
 11
-163.713251
 21
246.246233
 31
0.0
  0
LINE
  8
0
  6
CONTINUOUS
 62
     7
  5
157
 10
-163.708251
 20
245.731536
 30
0.0
 11
-163.713251
 21
245.731536
 31
0.0
  0
LINE
  8
0
  6
CONTINUOUS
 62
     7
  5
158
 10
-166.713251
 20
244.712089
 30
0.0
 11
-166.713251
 21
235.734931
 31
0.0
  0
LINE
  8
0
  6
CONTINUOUS
 62
     7
  5
159
 10
-119.713251
 20
245.731536
 30
0.0
 11
-119.718251
 21
245.731536
 31
0.0
  0
LINE
  8
0
  6
CONTINUOUS
 62
     7
  5
15A
 10
-119.713251
 20
246.246233
 30
0.0
 11
-119.713251
 21
245.731536
 31
0.0
  0
LINE
  8
0
  6
CONTINUOUS
 62
     7
  5
15B
 10
-117.113251
 20
246.246233
 30
0.0
 11
-119.713251
 21
246.246233
 31
0.0
  0
LINE
  8
0
  6
CONTINUOUS
 62
     7
  5
15C
 10
-117.113251
 20
244.712089
 30
0.0
 11
-117.113251
 21
246.246233
 31
0.0
  0
LINE
  8
0
  6
CONTINUOUS
 62
     7
  5
15D
 10
-116.713251
 20
244.712089
 30
0.0
 11
-117.113251
 21
244.712089
 31
0.0
  0
LINE
  8
0
  6
CONTINUOUS
 62
     7
  5
15E
 10
-116.713251
 20
244.712089
 30
0.0
 11
-116.713251
 21
235.734931
 31
0.0
  0
LINE
  8
0
  6
CONTINUOUS
 62
     7
  5
15F
 10
-165.713251
 20
220.946233
 30
0.0
 11
-166.313251
 21
220.946233
 31
0.0
  0
LINE
  8
0
  6
CONTINUOUS
 62
     7
  5
160
 10
-166.313251
 20
221.246233
 30
0.0
 11
-166.313251
 21
220.946233
 31
0.0
  0
LINE
  8
0
  6
CONTINUOUS
 62
     7
  5
161
 10
-163.713251
 20
246.546233
 30
0.0
 11
-166.313251
 21
246.546233
 31
0.0
  0
LINE
  8
0
  6
CONTINUOUS
 62
     7
  5
162
 10
-163.713251
 20
246.246233
 30
0.0
 11
-163.713251
 21
246.546233
 31
0.0
  0
LINE
  8
0
  6
CONTINUOUS
 62
     7
  5
163
 10
-166.313251
 20
246.546233
 30
0.0
 11
-166.313251
 21
246.246233
 31
0.0
  0
LINE
  8
0
  6
CONTINUOUS
 62
     7
  5
164
 10
-117.113251
 20
246.546233
 30
0.0
 11
-119.713251
 21
246.546233
 31
0.0
  0
LINE
  8
0
  6
CONTINUOUS
 62
     7
  5
165
 10
-119.713251
 20
246.546233
 30
0.0
 11
-119.713251
 21
246.246233
 31
0.0
  0
LINE
  8
0
  6
CONTINUOUS
 62
     7
  5
166
 10
-117.113251
 20
246.246233
 30
0.0
 11
-117.113251
 21
246.546233
 31
0.0
  0
LINE
  8
0
  6
CONTINUOUS
 62
     7
  5
167
 10
-160.713251
 20
246.546233
 30
0.0
 11
-160.713251
 21
246.246233
 31
0.0
  0
LINE
  8
0
  6
CONTINUOUS
 62
     7
  5
168
 10
-163.713251
 20
246.546233
 30
0.0
 11
-160.713251
 21
246.546233
 31
0.0
  0
LINE
  8
0
  6
CONTINUOUS
 62
     7
  5
169
 10
-160.713251
 20
243.088476
 30
0.0
 11
-122.713251
 21
243.088476
 31
0.0
  0
LINE
  8
0
  6
CONTINUOUS
 62
     7
  5
16A
 10
-122.713251
 20
242.846233
 30
0.0
 11
-160.713251
 21
242.846233
 31
0.0
  0
LINE
  8
0
  6
CONTINUOUS
 62
     7
  5
16B
 10
-122.713251
 20
246.246233
 30
0.0
 11
-122.713251
 21
246.546233
 31
0.0
  0
LINE
  8
0
  6
CONTINUOUS
 62
     7
  5
16C
 10
-122.713251
 20
246.546233
 30
0.0
 11
-119.713251
 21
246.546233
 31
0.0
  0
LINE
  8
0
  6
CONTINUOUS
 62
     7
  5
16D
 10
-160.713251
 20
246.246233
 30
0.0
 11
-122.713251
 21
246.246233
 31
0.0
  0
LINE
  8
0
  6
CONTINUOUS
 62
     7
  5
16E
 10
-163.713251
 20
246.689095
 30
0.0
 11
-166.313251
 21
246.689095
 31
0.0
  0
LINE
  8
0
  6
CONTINUOUS
 62
     7
  5
16F
 10
-163.713251
 20
246.743051
 30
0.0
 11
-163.713251
 21
246.689095
 31
0.0
  0
LINE
  8
0
  6
CONTINUOUS
 62
     7
  5
170
 10
-160.713251
 20
246.743051
 30
0.0
 11
-163.713251
 21
246.743051
 31
0.0
  0
LINE
  8
0
  6
CONTINUOUS
 62
     7
  5
171
 10
-160.713251
 20
246.599922
 30
0.0
 11
-160.713251
 21
246.743051
 31
0.0
  0
LINE
  8
0
  6
CONTINUOUS
 62
     7
  5
172
 10
-163.713251
 20
246.599922
 30
0.0
 11
-160.713251
 21
246.599922
 31
0.0
  0
LINE
  8
0
  6
CONTINUOUS
 62
     7
  5
173
 10
-163.713251
 20
246.546233
 30
0.0
 11
-163.713251
 21
246.599922
 31
0.0
  0
LINE
  8
0
  6
CONTINUOUS
 62
     7
  5
174
 10
-166.313251
 20
246.689095
 30
0.0
 11
-166.313251
 21
246.546233
 31
0.0
  0
LINE
  8
0
  6
CONTINUOUS
 62
     7
  5
175
 10
-122.713251
 20
246.599922
 30
0.0
 11
-119.713251
 21
246.599922
 31
0.0
  0
LINE
  8
0
  6
CONTINUOUS
 62
     7
  5
176
 10
-122.713251
 20
246.743051
 30
0.0
 11
-122.713251
 21
246.599922
 31
0.0
  0
LINE
  8
0
  6
CONTINUOUS
 62
     7
  5
177
 10
-119.713251
 20
246.743051
 30
0.0
 11
-122.713251
 21
246.743051
 31
0.0
  0
LINE
  8
0
  6
CONTINUOUS
 62
     7
  5
178
 10
-119.713251
 20
246.689095
 30
0.0
 11
-119.713251
 21
246.743051
 31
0.0
  0
LINE
  8
0
  6
CONTINUOUS
 62
     7
  5
179
 10
-117.113251
 20
246.689095
 30
0.0
 11
-119.713251
 21
246.689095
 31
0.0
  0
LINE
  8
0
  6
CONTINUOUS
 62
     7
  5
17A
 10
-119.713251
 20
246.599922
 30
0.0
 11
-119.713251
 21
246.546233
 31
0.0
  0
LINE
  8
0
  6
CONTINUOUS
 62
     7
  5
17B
 10
-117.113251
 20
246.546233
 30
0.0
 11
-117.113251
 21
246.689095
 31
0.0
  0
LINE
  8
0
  6
CONTINUOUS
 62
     7
  5
17C
 10
-160.713251
 20
246.599922
 30
0.0
 11
-160.713251
 21
246.546233
 31
0.0
  0
LINE
  8
0
  6
CONTINUOUS
 62
     7
  5
17D
 10
-122.713251
 20
246.546233
 30
0.0
 11
-122.713251
 21
246.599922
 31
0.0
  0
LINE
  8
0
  6
CONTINUOUS
 62
     7
  5
17E
 10
-160.713251
 20
246.386517
 30
0.0
 11
-122.713251
 21
246.386517
 31
0.0
  0
LINE
  8
0
  6
CONTINUOUS
 62
     7
  5
17F
 10
-160.713251
 20
246.302513
 30
0.0
 11
-122.713251
 21
246.302513
 31
0.0
  0
LINE
  8
0
  6
CONTINUOUS
 62
     7
  5
180
 10
-122.713251
 20
104.64206
 30
0.0
 11
-122.713251
 21
104.079983
 31
0.0
  0
LINE
  8
0
  6
CONTINUOUS
 62
     7
  5
181
 10
-119.713251
 20
104.64206
 30
0.0
 11
-122.713251
 21
104.64206
 31
0.0
  0
LINE
  8
0
  6
CONTINUOUS
 62
     7
  5
182
 10
-160.713251
 20
104.079983
 30
0.0
 11
-160.713251
 21
104.64206
 31
0.0
  0
LINE
  8
0
  6
CONTINUOUS
 62
     7
  5
183
 10
-160.713251
 20
104.64206
 30
0.0
 11
-163.713251
 21
104.64206
 31
0.0
  0
LINE
  8
0
  6
CONTINUOUS
 62
     7
  5
184
 10
-160.713251
 20
104.862059
 30
0.0
 11
-163.713251
 21
104.862059
 31
0.0
  0
LINE
  8
0
  6
CONTINUOUS
 62
     7
  5
185
 10
-160.713251
 20
104.64206
 30
0.0
 11
-160.713251
 21
104.862059
 31
0.0
  0
LINE
  8
0
  6
CONTINUOUS
 62
     7
  5
186
 10
-163.713251
 20
125.598177
 30
0.0
 11
-166.313251
 21
125.598177
 31
0.0
  0
LINE
  8
0
  6
CONTINUOUS
 62
     7
  5
187
 10
-163.713251
 20
119.921239
 30
0.0
 11
-163.713251
 21
123.790941
 31
0.0
  0
LINE
  8
0
  6
CONTINUOUS
 62
     7
  5
188
 10
-160.713251
 20
119.921239
 30
0.0
 11
-163.713251
 21
119.921239
 31
0.0
  0
LINE
  8
0
  6
CONTINUOUS
 62
     7
  5
189
 10
-166.313251
 20
110.538996
 30
0.0
 11
-163.713251
 21
110.538996
 31
0.0
  0
LINE
  8
0
  6
CONTINUOUS
 62
     7
  5
18A
 10
-166.313251
 20
125.598177
 30
0.0
 11
-166.313251
 21
110.538996
 31
0.0
  0
LINE
  8
0
  6
CONTINUOUS
 62
     7
  5
18B
 10
-163.713251
 20
110.538996
 30
0.0
 11
-163.713251
 21
106.413521
 31
0.0
  0
LINE
  8
0
  6
CONTINUOUS
 62
     7
  5
18C
 10
-160.713251
 20
104.862059
 30
0.0
 11
-160.713251
 21
119.921239
 31
0.0
  0
LINE
  8
0
  6
CONTINUOUS
 62
     7
  5
18D
 10
-119.713251
 20
110.538996
 30
0.0
 11
-117.113251
 21
110.538996
 31
0.0
  0
LINE
  8
0
  6
CONTINUOUS
 62
     7
  5
18E
 10
-119.713251
 20
104.862059
 30
0.0
 11
-122.713251
 21
104.862059
 31
0.0
  0
LINE
  8
0
  6
CONTINUOUS
 62
     7
  5
18F
 10
-119.713251
 20
119.921239
 30
0.0
 11
-122.713251
 21
119.921239
 31
0.0
  0
LINE
  8
0
  6
CONTINUOUS
 62
     7
  5
190
 10
-119.713251
 20
123.790941
 30
0.0
 11
-119.713251
 21
119.921239
 31
0.0
  0
LINE
  8
0
  6
CONTINUOUS
 62
     7
  5
191
 10
-117.113251
 20
125.598177
 30
0.0
 11
-119.713251
 21
125.598177
 31
0.0
  0
LINE
  8
0
  6
CONTINUOUS
 62
     7
  5
192
 10
-117.113251
 20
110.538996
 30
0.0
 11
-117.113251
 21
125.598177
 31
0.0
  0
LINE
  8
0
  6
CONTINUOUS
 62
     7
  5
193
 10
-122.713251
 20
119.921239
 30
0.0
 11
-122.713251
 21
104.862059
 31
0.0
  0
LINE
  8
0
  6
CONTINUOUS
 62
     7
  5
194
 10
-119.713251
 20
106.413521
 30
0.0
 11
-119.713251
 21
110.538996
 31
0.0
  0
LINE
  8
0
  6
CONTINUOUS
 62
     7
  5
195
 10
-122.713251
 20
104.862059
 30
0.0
 11
-122.713251
 21
104.64206
 31
0.0
  0
LINE
  8
0
  6
CONTINUOUS
 62
     7
  5
196
 10
-116.713251
 20
100.475433
 30
0.0
 11
-116.713251
 21
96.246233
 31
0.0
  0
LINE
  8
0
  6
CONTINUOUS
 62
     7
  5
197
 10
-166.713251
 20
96.246233
 30
0.0
 11
-166.713251
 21
100.475433
 31
0.0
  0
LINE
  8
0
  6
CONTINUOUS
 62
     7
  5
198
 10
-119.713251
 20
108.266712
 30
0.0
 11
-117.113251
 21
108.266712
 31
0.0
  0
LINE
  8
0
  6
CONTINUOUS
 62
     7
  5
199
 10
-117.113251
 20
108.266712
 30
0.0
 11
-117.113251
 21
110.538996
 31
0.0
  0
LINE
  8
0
  6
CONTINUOUS
 62
     7
  5
19A
 10
-163.713251
 20
108.266712
 30
0.0
 11
-166.313251
 21
108.266712
 31
0.0
  0
LINE
  8
0
  6
CONTINUOUS
 62
     7
  5
19B
 10
-166.313251
 20
110.538996
 30
0.0
 11
-166.313251
 21
108.266712
 31
0.0
  0
LINE
  8
0
  6
CONTINUOUS
 62
     7
  5
19C
 10
-166.313251
 20
107.975433
 30
0.0
 11
-166.313251
 21
108.266712
 31
0.0
  0
LINE
  8
0
  6
CONTINUOUS
 62
     7
  5
19D
 10
-117.113251
 20
108.266712
 30
0.0
 11
-117.113251
 21
107.975433
 31
0.0
  0
LINE
  8
0
  6
CONTINUOUS
 62
     7
  5
19E
 10
-145.713251
 20
112.9705
 30
0.0
 11
-141.713251
 21
111.276947
 31
0.0
  0
LINE
  8
0
  6
CONTINUOUS
 62
     7
  5
19F
 10
-141.713251
 20
111.276947
 30
0.0
 11
-138.713251
 21
111.276947
 31
0.0
  0
LINE
  8
0
  6
CONTINUOUS
 62
     7
  5
1A0
 10
-138.713251
 20
111.276947
 30
0.0
 11
-138.713251
 21
110.690283
 31
0.0
  0
LINE
  8
0
  6
CONTINUOUS
 62
     7
  5
1A1
 10
-138.713251
 20
110.690283
 30
0.0
 11
-141.927611
 21
110.690283
 31
0.0
  0
LINE
  8
0
  6
CONTINUOUS
 62
     7
  5
1A2
 10
-141.927611
 20
110.690283
 30
0.0
 11
-145.927611
 21
112.383836
 31
0.0
  0
LINE
  8
0
  6
CONTINUOUS
 62
     7
  5
1A3
 10
-145.927611
 20
112.383836
 30
0.0
 11
-160.713251
 21
112.383836
 31
0.0
  0
LINE
  8
0
  6
CONTINUOUS
 62
     7
  5
1A4
 10
-160.713251
 20
112.9705
 30
0.0
 11
-145.713251
 21
112.9705
 31
0.0
  0
LINE
  8
0
  6
CONTINUOUS
 62
     7
  5
1A5
 10
-140.713251
 20
117.049737
 30
0.0
 11
-122.713251
 21
117.049737
 31
0.0
  0
LINE
  8
0
  6
CONTINUOUS
 62
     7
  5
1A6
 10
-122.713251
 20
112.9705
 30
0.0
 11
-140.713251
 21
112.9705
 31
0.0
  0
LINE
  8
0
  6
CONTINUOUS
 62
     7
  5
1A7
 10
-140.713251
 20
117.049737
 30
0.0
 11
-140.713251
 21
112.9705
 31
0.0
  0
LINE
  8
0
  6
CONTINUOUS
 62
     7
  5
1A8
 10
-145.713251
 20
112.9705
 30
0.0
 11
-145.713251
 21
117.049737
 31
0.0
  0
LINE
  8
0
  6
CONTINUOUS
 62
     7
  5
1A9
 10
-145.713251
 20
117.049737
 30
0.0
 11
-160.713251
 21
117.049737
 31
0.0
  0
LINE
  8
0
  6
CONTINUOUS
 62
     7
  5
1AA
 10
-141.713251
 20
111.276947
 30
0.0
 11
-141.713251
 21
115.356183
 31
0.0
  0
LINE
  8
0
  6
CONTINUOUS
 62
     7
  5
1AB
 10
-141.713251
 20
115.356183
 30
0.0
 11
-145.713251
 21
117.049737
 31
0.0
  0
LINE
  8
0
  6
CONTINUOUS
 62
     7
  5
1AC
 10
-140.713251
 20
112.383836
 30
0.0
 11
-122.713251
 21
112.383836
 31
0.0
  0
LINE
  8
0
  6
CONTINUOUS
 62
     7
  5
1AD
 10
-140.713251
 20
112.9705
 30
0.0
 11
-140.713251
 21
112.383836
 31
0.0
  0
LINE
  8
0
  6
CONTINUOUS
 62
     7
  5
1AE
 10
-140.713251
 20
115.356183
 30
0.0
 11
-141.713251
 21
115.356183
 31
0.0
  0
LINE
  8
0
  6
CONTINUOUS
 62
     7
  5
1AF
 10
-138.713251
 20
111.276947
 30
0.0
 11
-138.713251
 21
112.383836
 31
0.0
  0
LINE
  8
0
  6
CONTINUOUS
 62
     7
  5
1B0
 10
-160.713251
 20
94.751015
 30
0.0
 11
-144.723458
 21
94.751015
 31
0.0
  0
LINE
  8
0
  6
CONTINUOUS
 62
     7
  5
1B1
 10
-143.123458
 20
94.751015
 30
0.0
 11
-122.713251
 21
94.751015
 31
0.0
  0
LINE
  8
0
  6
CONTINUOUS
 62
     7
  5
1B2
 10
-160.713251
 20
92.257693
 30
0.0
 11
-122.713251
 21
92.257693
 31
0.0
  0
LINE
  8
0
  6
CONTINUOUS
 62
     7
  5
1B3
 10
-122.713251
 20
103.418259
 30
0.0
 11
-160.713251
 21
103.418259
 31
0.0
  0
LINE
  8
0
  6
CONTINUOUS
 62
     7
  5
1B4
 10
-166.713251
 20
128.711551
 30
0.0
 11
-166.713251
 21
128.33238
 31
0.0
  0
LINE
  8
0
  6
CONTINUOUS
 62
     7
  5
1B5
 10
-166.713251
 20
128.33238
 30
0.0
 11
-166.313251
 21
128.33238
 31
0.0
  0
LINE
  8
0
  6
CONTINUOUS
 62
     7
  5
1B6
 10
-166.313251
 20
127.757028
 30
0.0
 11
-166.313251
 21
125.598177
 31
0.0
  0
LINE
  8
0
  6
CONTINUOUS
 62
     7
  5
1B7
 10
-116.713251
 20
128.711551
 30
0.0
 11
-116.713251
 21
128.33238
 31
0.0
  0
LINE
  8
0
  6
CONTINUOUS
 62
     7
  5
1B8
 10
-117.113251
 20
128.33238
 30
0.0
 11
-116.713251
 21
128.33238
 31
0.0
  0
LINE
  8
0
  6
CONTINUOUS
 62
     7
  5
1B9
 10
-117.113251
 20
125.598177
 30
0.0
 11
-117.113251
 21
127.757028
 31
0.0
  0
LINE
  8
0
  6
CONTINUOUS
 62
     7
  5
1BA
 10
-116.713251
 20
128.33238
 30
0.0
 11
-116.713251
 21
121.211551
 31
0.0
  0
LINE
  8
0
  6
CONTINUOUS
 62
     7
  5
1BB
 10
-166.713251
 20
121.211551
 30
0.0
 11
-166.713251
 21
128.33238
 31
0.0
  0
LINE
  8
0
  6
CONTINUOUS
 62
     7
  5
1BC
 10
-160.713251
 20
119.921239
 30
0.0
 11
-160.713251
 21
121.236377
 31
0.0
  0
LINE
  8
0
  6
CONTINUOUS
 62
     7
  5
1BD
 10
-160.713251
 20
121.236377
 30
0.0
 11
-163.713251
 21
121.236377
 31
0.0
  0
LINE
  8
0
  6
CONTINUOUS
 62
     7
  5
1BE
 10
-119.713251
 20
121.236377
 30
0.0
 11
-122.713251
 21
121.236377
 31
0.0
  0
LINE
  8
0
  6
CONTINUOUS
 62
     7
  5
1BF
 10
-122.713251
 20
121.236377
 30
0.0
 11
-122.713251
 21
119.921239
 31
0.0
  0
LINE
  8
0
  6
CONTINUOUS
 62
     7
  5
1C0
 10
-119.713251
 20
129.002615
 30
0.0
 11
-117.113251
 21
129.002615
 31
0.0
  0
LINE
  8
0
  6
CONTINUOUS
 62
     7
  5
1C1
 10
-119.713251
 20
121.356973
 30
0.0
 11
-122.713251
 21
121.356973
 31
0.0
  0
LINE
  8
0
  6
CONTINUOUS
 62
     7
  5
1C2
 10
-119.713251
 20
141.638527
 30
0.0
 11
-122.713251
 21
141.638527
 31
0.0
  0
LINE
  8
0
  6
CONTINUOUS
 62
     7
  5
1C3
 10
-119.713251
 20
146.850202
 30
0.0
 11
-119.713251
 21
141.638527
 31
0.0
  0
LINE
  8
0
  6
CONTINUOUS
 62
     7
  5
1C4
 10
-117.113251
 20
149.284169
 30
0.0
 11
-119.713251
 21
149.284169
 31
0.0
  0
LINE
  8
0
  6
CONTINUOUS
 62
     7
  5
1C5
 10
-117.113251
 20
129.002615
 30
0.0
 11
-117.113251
 21
149.284169
 31
0.0
  0
LINE
  8
0
  6
CONTINUOUS
 62
     7
  5
1C6
 10
-122.713251
 20
141.638527
 30
0.0
 11
-122.713251
 21
121.356973
 31
0.0
  0
LINE
  8
0
  6
CONTINUOUS
 62
     7
  5
1C7
 10
-119.713251
 20
123.790941
 30
0.0
 11
-119.713251
 21
129.002615
 31
0.0
  0
LINE
  8
0
  6
CONTINUOUS
 62
     7
  5
1C8
 10
-163.713251
 20
149.284169
 30
0.0
 11
-166.313251
 21
149.284169
 31
0.0
  0
LINE
  8
0
  6
CONTINUOUS
 62
     7
  5
1C9
 10
-163.713251
 20
141.638527
 30
0.0
 11
-163.713251
 21
146.850202
 31
0.0
  0
LINE
  8
0
  6
CONTINUOUS
 62
     7
  5
1CA
 10
-160.713251
 20
141.638527
 30
0.0
 11
-163.713251
 21
141.638527
 31
0.0
  0
LINE
  8
0
  6
CONTINUOUS
 62
     7
  5
1CB
 10
-160.713251
 20
121.356973
 30
0.0
 11
-163.713251
 21
121.356973
 31
0.0
  0
LINE
  8
0
  6
CONTINUOUS
 62
     7
  5
1CC
 10
-166.313251
 20
129.002615
 30
0.0
 11
-163.713251
 21
129.002615
 31
0.0
  0
LINE
  8
0
  6
CONTINUOUS
 62
     7
  5
1CD
 10
-166.313251
 20
149.284169
 30
0.0
 11
-166.313251
 21
129.002615
 31
0.0
  0
LINE
  8
0
  6
CONTINUOUS
 62
     7
  5
1CE
 10
-160.713251
 20
121.356973
 30
0.0
 11
-160.713251
 21
141.638527
 31
0.0
  0
LINE
  8
0
  6
CONTINUOUS
 62
     7
  5
1CF
 10
-163.713251
 20
129.002615
 30
0.0
 11
-163.713251
 21
123.790941
 31
0.0
  0
LINE
  8
0
  6
CONTINUOUS
 62
     7
  5
1D0
 10
-122.713251
 20
121.356973
 30
0.0
 11
-122.713251
 21
121.236377
 31
0.0
  0
LINE
  8
0
  6
CONTINUOUS
 62
     7
  5
1D1
 10
-160.713251
 20
121.236377
 30
0.0
 11
-160.713251
 21
121.356973
 31
0.0
  0
LINE
  8
0
  6
CONTINUOUS
 62
     7
  5
1D2
 10
-119.713251
 20
127.757028
 30
0.0
 11
-117.113251
 21
127.757028
 31
0.0
  0
LINE
  8
0
  6
CONTINUOUS
 62
     7
  5
1D3
 10
-117.113251
 20
127.757028
 30
0.0
 11
-117.113251
 21
129.002615
 31
0.0
  0
LINE
  8
0
  6
CONTINUOUS
 62
     7
  5
1D4
 10
-163.713251
 20
127.757028
 30
0.0
 11
-166.313251
 21
127.757028
 31
0.0
  0
LINE
  8
0
  6
CONTINUOUS
 62
     7
  5
1D5
 10
-166.313251
 20
129.002615
 30
0.0
 11
-166.313251
 21
127.757028
 31
0.0
  0
LINE
  8
0
  6
CONTINUOUS
 62
     7
  5
1D6
 10
-145.713251
 20
132.453038
 30
0.0
 11
-141.713251
 21
131.524691
 31
0.0
  0
LINE
  8
0
  6
CONTINUOUS
 62
     7
  5
1D7
 10
-141.713251
 20
131.524691
 30
0.0
 11
-138.713251
 21
131.524691
 31
0.0
  0
LINE
  8
0
  6
CONTINUOUS
 62
     7
  5
1D8
 10
-138.713251
 20
131.524691
 30
0.0
 11
-138.713251
 21
131.203102
 31
0.0
  0
LINE
  8
0
  6
CONTINUOUS
 62
     7
  5
1D9
 10
-138.713251
 20
131.203102
 30
0.0
 11
-141.927611
 21
131.203102
 31
0.0
  0
LINE
  8
0
  6
CONTINUOUS
 62
     7
  5
1DA
 10
-141.927611
 20
131.203102
 30
0.0
 11
-145.927611
 21
132.131449
 31
0.0
  0
LINE
  8
0
  6
CONTINUOUS
 62
     7
  5
1DB
 10
-145.927611
 20
132.131449
 30
0.0
 11
-160.713251
 21
132.131449
 31
0.0
  0
LINE
  8
0
  6
CONTINUOUS
 62
     7
  5
1DC
 10
-160.713251
 20
132.453038
 30
0.0
 11
-145.713251
 21
132.453038
 31
0.0
  0
LINE
  8
0
  6
CONTINUOUS
 62
     7
  5
1DD
 10
-140.713251
 20
137.946913
 30
0.0
 11
-122.713251
 21
137.946913
 31
0.0
  0
LINE
  8
0
  6
CONTINUOUS
 62
     7
  5
1DE
 10
-122.713251
 20
132.453038
 30
0.0
 11
-140.713251
 21
132.453038
 31
0.0
  0
LINE
  8
0
  6
CONTINUOUS
 62
     7
  5
1DF
 10
-140.713251
 20
137.946913
 30
0.0
 11
-140.713251
 21
132.453038
 31
0.0
  0
LINE
  8
0
  6
CONTINUOUS
 62
     7
  5
1E0
 10
-145.713251
 20
132.453038
 30
0.0
 11
-145.713251
 21
137.946913
 31
0.0
  0
LINE
  8
0
  6
CONTINUOUS
 62
     7
  5
1E1
 10
-145.713251
 20
137.946913
 30
0.0
 11
-160.713251
 21
137.946913
 31
0.0
  0
LINE
  8
0
  6
CONTINUOUS
 62
     7
  5
1E2
 10
-141.713251
 20
131.524691
 30
0.0
 11
-141.713251
 21
137.018565
 31
0.0
  0
LINE
  8
0
  6
CONTINUOUS
 62
     7
  5
1E3
 10
-141.713251
 20
137.018565
 30
0.0
 11
-145.713251
 21
137.946913
 31
0.0
  0
LINE
  8
0
  6
CONTINUOUS
 62
     7
  5
1E4
 10
-140.713251
 20
132.131449
 30
0.0
 11
-122.713251
 21
132.131449
 31
0.0
  0
LINE
  8
0
  6
CONTINUOUS
 62
     7
  5
1E5
 10
-140.713251
 20
132.453038
 30
0.0
 11
-140.713251
 21
132.131449
 31
0.0
  0
LINE
  8
0
  6
CONTINUOUS
 62
     7
  5
1E6
 10
-116.713251
 20
121.211551
 30
0.0
 11
-116.713251
 21
111.633322
 31
0.0
  0
LINE
  8
0
  6
CONTINUOUS
 62
     9
  5
1E7
 10
-116.713251
 20
111.633322
 30
0.0
 11
-117.113251
 21
111.633322
 31
0.0
  0
LINE
  8
0
  6
CONTINUOUS
 62
     9
  5
1E8
 10
-166.313251
 20
111.633322
 30
0.0
 11
-166.713251
 21
111.633322
 31
0.0
  0
LINE
  8
0
  6
CONTINUOUS
 62
     7
  5
1E9
 10
-166.713251
 20
111.633322
 30
0.0
 11
-166.713251
 21
121.211551
 31
0.0
  0
LINE
  8
0
  6
CONTINUOUS
 62
     7
  5
1EA
 10
-140.713251
 20
137.018565
 30
0.0
 11
-141.713251
 21
137.018565
 31
0.0
  0
LINE
  8
0
  6
CONTINUOUS
 62
     7
  5
1EB
 10
-138.713251
 20
131.524691
 30
0.0
 11
-138.713251
 21
132.131449
 31
0.0
  0
LINE
  8
0
  6
CONTINUOUS
 62
     7
  5
1EC
 10
-116.713251
 20
111.633322
 30
0.0
 11
-116.713251
 21
111.211551
 31
0.0
  0
LINE
  8
0
  6
CONTINUOUS
 62
     7
  5
1ED
 10
-166.713251
 20
111.211551
 30
0.0
 11
-166.713251
 21
111.633322
 31
0.0
  0
LINE
  8
0
  6
CONTINUOUS
 62
     7
  5
1EE
 10
-116.713251
 20
156.638747
 30
0.0
 11
-116.713251
 21
154.040743
 31
0.0
  0
LINE
  8
0
  6
CONTINUOUS
 62
     7
  5
1EF
 10
-117.113251
 20
154.040743
 30
0.0
 11
-116.713251
 21
154.040743
 31
0.0
  0
LINE
  8
0
  6
CONTINUOUS
 62
     7
  5
1F0
 10
-117.113251
 20
149.284169
 30
0.0
 11
-117.113251
 21
152.529057
 31
0.0
  0
LINE
  8
0
  6
CONTINUOUS
 62
     7
  5
1F1
 10
-166.713251
 20
156.638747
 30
0.0
 11
-166.713251
 21
154.040743
 31
0.0
  0
LINE
  8
0
  6
CONTINUOUS
 62
     7
  5
1F2
 10
-166.713251
 20
154.040743
 30
0.0
 11
-166.313251
 21
154.040743
 31
0.0
  0
LINE
  8
0
  6
CONTINUOUS
 62
     7
  5
1F3
 10
-166.313251
 20
152.529057
 30
0.0
 11
-166.313251
 21
149.284169
 31
0.0
  0
LINE
  8
0
  6
CONTINUOUS
 62
     7
  5
1F4
 10
-166.713251
 20
149.138703
 30
0.0
 11
-166.713251
 21
154.040743
 31
0.0
  0
LINE
  8
0
  6
CONTINUOUS
 62
     7
  5
1F5
 10
-116.713251
 20
154.040743
 30
0.0
 11
-116.713251
 21
149.138703
 31
0.0
  0
LINE
  8
0
  6
CONTINUOUS
 62
     7
  5
1F6
 10
-160.713251
 20
120.565378
 30
0.0
 11
-122.713251
 21
120.565378
 31
0.0
  0
LINE
  8
0
  6
CONTINUOUS
 62
     7
  5
1F7
 10
-160.713251
 20
119.198625
 30
0.0
 11
-122.713251
 21
119.198625
 31
0.0
  0
LINE
  8
0
  6
CONTINUOUS
 62
     7
  5
1F8
 10
-119.713251
 20
144.190778
 30
0.0
 11
-122.713251
 21
144.190778
 31
0.0
  0
LINE
  8
0
  6
CONTINUOUS
 62
     7
  5
1F9
 10
-119.713251
 20
144.192027
 30
0.0
 11
-122.713251
 21
144.192027
 31
0.0
  0
LINE
  8
0
  6
CONTINUOUS
 62
     7
  5
1FA
 10
-122.713251
 20
144.192027
 30
0.0
 11
-122.713251
 21
144.190778
 31
0.0
  0
LINE
  8
0
  6
CONTINUOUS
 62
     7
  5
1FB
 10
-163.713251
 20
174.691763
 30
0.0
 11
-166.313251
 21
174.691763
 31
0.0
  0
LINE
  8
0
  6
CONTINUOUS
 62
     7
  5
1FC
 10
-163.713251
 20
166.341835
 30
0.0
 11
-163.713251
 21
172.033588
 31
0.0
  0
LINE
  8
0
  6
CONTINUOUS
 62
     7
  5
1FD
 10
-160.713251
 20
166.341835
 30
0.0
 11
-163.713251
 21
166.341835
 31
0.0
  0
LINE
  8
0
  6
CONTINUOUS
 62
     7
  5
1FE
 10
-160.713251
 20
144.192027
 30
0.0
 11
-160.713251
 21
166.341835
 31
0.0
  0
LINE
  8
0
  6
CONTINUOUS
 62
     7
  5
1FF
 10
-160.713251
 20
144.192027
 30
0.0
 11
-163.713251
 21
144.192027
 31
0.0
  0
LINE
  8
0
  6
CONTINUOUS
 62
     7
  5
200
 10
-166.313251
 20
152.541955
 30
0.0
 11
-163.713251
 21
152.541955
 31
0.0
  0
LINE
  8
0
  6
CONTINUOUS
 62
     7
  5
201
 10
-166.313251
 20
174.691763
 30
0.0
 11
-166.313251
 21
152.541955
 31
0.0
  0
LINE
  8
0
  6
CONTINUOUS
 62
     7
  5
202
 10
-163.713251
 20
152.541955
 30
0.0
 11
-163.713251
 21
146.850202
 31
0.0
  0
LINE
  8
0
  6
CONTINUOUS
 62
     7
  5
203
 10
-160.713251
 20
144.190778
 30
0.0
 11
-163.713251
 21
144.190778
 31
0.0
  0
LINE
  8
0
  6
CONTINUOUS
 62
     7
  5
204
 10
-160.713251
 20
144.190778
 30
0.0
 11
-160.713251
 21
144.192027
 31
0.0
  0
LINE
  8
0
  6
CONTINUOUS
 62
     7
  5
205
 10
-119.713251
 20
152.541955
 30
0.0
 11
-117.113251
 21
152.541955
 31
0.0
  0
LINE
  8
0
  6
CONTINUOUS
 62
     7
  5
206
 10
-119.713251
 20
166.341835
 30
0.0
 11
-122.713251
 21
166.341835
 31
0.0
  0
LINE
  8
0
  6
CONTINUOUS
 62
     7
  5
207
 10
-119.713251
 20
172.033588
 30
0.0
 11
-119.713251
 21
166.341835
 31
0.0
  0
LINE
  8
0
  6
CONTINUOUS
 62
     7
  5
208
 10
-117.113251
 20
174.691763
 30
0.0
 11
-119.713251
 21
174.691763
 31
0.0
  0
LINE
  8
0
  6
CONTINUOUS
 62
     7
  5
209
 10
-117.113251
 20
152.541955
 30
0.0
 11
-117.113251
 21
174.691763
 31
0.0
  0
LINE
  8
0
  6
CONTINUOUS
 62
     7
  5
20A
 10
-119.713251
 20
146.850202
 30
0.0
 11
-119.713251
 21
152.541955
 31
0.0
  0
LINE
  8
0
  6
CONTINUOUS
 62
     7
  5
20B
 10
-122.713251
 20
166.341835
 30
0.0
 11
-122.713251
 21
144.192027
 31
0.0
  0
LINE
  8
0
  6
CONTINUOUS
 62
     7
  5
20C
 10
-163.713251
 20
152.529057
 30
0.0
 11
-166.313251
 21
152.529057
 31
0.0
  0
LINE
  8
0
  6
CONTINUOUS
 62
     7
  5
20D
 10
-166.313251
 20
152.541955
 30
0.0
 11
-166.313251
 21
152.529057
 31
0.0
  0
LINE
  8
0
  6
CONTINUOUS
 62
     7
  5
20E
 10
-119.713251
 20
152.529057
 30
0.0
 11
-117.113251
 21
152.529057
 31
0.0
  0
LINE
  8
0
  6
CONTINUOUS
 62
     7
  5
20F
 10
-117.113251
 20
152.529057
 30
0.0
 11
-117.113251
 21
152.541955
 31
0.0
  0
LINE
  8
0
  6
CONTINUOUS
 62
     7
  5
210
 10
-122.713251
 20
144.190778
 30
0.0
 11
-122.713251
 21
141.638527
 31
0.0
  0
LINE
  8
0
  6
CONTINUOUS
 62
     7
  5
211
 10
-160.713251
 20
141.638527
 30
0.0
 11
-160.713251
 21
144.190778
 31
0.0
  0
LINE
  8
0
  6
CONTINUOUS
 62
     7
  5
212
 10
-145.713251
 20
156.440672
 30
0.0
 11
-145.713251
 21
162.44062
 31
0.0
  0
LINE
  8
0
  6
CONTINUOUS
 62
     7
  5
213
 10
-160.713251
 20
156.440672
 30
0.0
 11
-145.713251
 21
156.440672
 31
0.0
  0
LINE
  8
0
  6
CONTINUOUS
 62
     7
  5
214
 10
-145.713251
 20
162.44062
 30
0.0
 11
-160.713251
 21
162.44062
 31
0.0
  0
LINE
  8
0
  6
CONTINUOUS
 62
     7
  5
215
 10
-145.713251
 20
156.440672
 30
0.0
 11
-141.713251
 21
156.431059
 31
0.0
  0
LINE
  8
0
  6
CONTINUOUS
 62
     7
  5
216
 10
-141.713251
 20
156.431059
 30
0.0
 11
-138.713251
 21
156.431059
 31
0.0
  0
LINE
  8
0
  6
CONTINUOUS
 62
     7
  5
217
 10
-138.713251
 20
156.431059
 30
0.0
 11
-138.713251
 21
156.427729
 31
0.0
  0
LINE
  8
0
  6
CONTINUOUS
 62
     7
  5
218
 10
-138.713251
 20
156.427729
 30
0.0
 11
-141.927611
 21
156.427729
 31
0.0
  0
LINE
  8
0
  6
CONTINUOUS
 62
     7
  5
219
 10
-141.927611
 20
156.427729
 30
0.0
 11
-145.927611
 21
156.437342
 31
0.0
  0
LINE
  8
0
  6
CONTINUOUS
 62
     7
  5
21A
 10
-145.927611
 20
156.437342
 30
0.0
 11
-160.713251
 21
156.437342
 31
0.0
  0
LINE
  8
0
  6
CONTINUOUS
 62
     7
  5
21B
 10
-141.713251
 20
156.431059
 30
0.0
 11
-141.713251
 21
162.431007
 31
0.0
  0
LINE
  8
0
  6
CONTINUOUS
 62
     7
  5
21C
 10
-141.713251
 20
162.431007
 30
0.0
 11
-145.713251
 21
162.44062
 31
0.0
  0
LINE
  8
0
  6
CONTINUOUS
 62
     7
  5
21D
 10
-140.713251
 20
162.44062
 30
0.0
 11
-122.713251
 21
162.44062
 31
0.0
  0
LINE
  8
0
  6
CONTINUOUS
 62
     7
  5
21E
 10
-122.713251
 20
156.440672
 30
0.0
 11
-140.713251
 21
156.440672
 31
0.0
  0
LINE
  8
0
  6
CONTINUOUS
 62
     7
  5
21F
 10
-140.713251
 20
162.44062
 30
0.0
 11
-140.713251
 21
156.440672
 31
0.0
  0
LINE
  8
0
  6
CONTINUOUS
 62
     7
  5
220
 10
-140.713251
 20
156.437342
 30
0.0
 11
-122.713251
 21
156.437342
 31
0.0
  0
LINE
  8
0
  6
CONTINUOUS
 62
     7
  5
221
 10
-140.713251
 20
156.440672
 30
0.0
 11
-140.713251
 21
156.437342
 31
0.0
  0
LINE
  8
0
  6
CONTINUOUS
 62
     7
  5
222
 10
-166.713251
 20
187.138482
 30
0.0
 11
-166.713251
 21
180.684076
 31
0.0
  0
LINE
  8
0
  6
CONTINUOUS
 62
     7
  5
223
 10
-166.713251
 20
180.684076
 30
0.0
 11
-166.313251
 21
180.684076
 31
0.0
  0
LINE
  8
0
  6
CONTINUOUS
 62
     7
  5
224
 10
-166.313251
 20
180.592784
 30
0.0
 11
-166.713251
 21
180.592784
 31
0.0
  0
LINE
  8
0
  6
CONTINUOUS
 62
     7
  5
225
 10
-166.313251
 20
177.26413
 30
0.0
 11
-166.313251
 21
174.690514
 31
0.0
  0
LINE
  8
0
  6
CONTINUOUS
 62
     7
  5
226
 10
-116.713251
 20
187.138482
 30
0.0
 11
-116.713251
 21
180.684076
 31
0.0
  0
LINE
  8
0
  6
CONTINUOUS
 62
     7
  5
227
 10
-117.113251
 20
180.684076
 30
0.0
 11
-116.713251
 21
180.684076
 31
0.0
  0
LINE
  8
0
  6
CONTINUOUS
 62
     7
  5
228
 10
-116.713251
 20
180.592784
 30
0.0
 11
-117.113251
 21
180.592784
 31
0.0
  0
LINE
  8
0
  6
CONTINUOUS
 62
     7
  5
229
 10
-117.113251
 20
174.690514
 30
0.0
 11
-117.113251
 21
177.26413
 31
0.0
  0
LINE
  8
0
  6
CONTINUOUS
 62
     7
  5
22A
 10
-116.713251
 20
180.684076
 30
0.0
 11
-116.713251
 21
180.592784
 31
0.0
  0
LINE
  8
0
  6
CONTINUOUS
 62
     7
  5
22B
 10
-166.713251
 20
180.592784
 30
0.0
 11
-166.713251
 21
180.684076
 31
0.0
  0
LINE
  8
0
  6
CONTINUOUS
 62
     7
  5
22C
 10
-138.713251
 20
156.431059
 30
0.0
 11
-138.713251
 21
156.437342
 31
0.0
  0
LINE
  8
0
  6
CONTINUOUS
 62
     7
  5
22D
 10
-140.713251
 20
162.431007
 30
0.0
 11
-141.713251
 21
162.431007
 31
0.0
  0
LINE
  8
0
  6
CONTINUOUS
 62
     7
  5
22E
 10
-166.713251
 20
139.13879
 30
0.0
 11
-166.713251
 21
149.138747
 31
0.0
  0
LINE
  8
0
  6
CONTINUOUS
 62
     7
  5
22F
 10
-166.713251
 20
149.138703
 30
0.0
 11
-166.313251
 21
149.138703
 31
0.0
  0
LINE
  8
0
  6
CONTINUOUS
 62
     7
  5
230
 10
-166.313251
 20
139.13879
 30
0.0
 11
-166.713251
 21
139.13879
 31
0.0
  0
LINE
  8
0
  6
CONTINUOUS
 62
     7
  5
231
 10
-117.113251
 20
149.138703
 30
0.0
 11
-116.713251
 21
149.138703
 31
0.0
  0
LINE
  8
0
  6
CONTINUOUS
 62
     7
  5
232
 10
-116.713251
 20
139.13879
 30
0.0
 11
-117.113251
 21
139.13879
 31
0.0
  0
LINE
  8
0
  6
CONTINUOUS
 62
     7
  5
233
 10
-116.713251
 20
149.138747
 30
0.0
 11
-116.713251
 21
139.13879
 31
0.0
  0
LINE
  8
0
  6
CONTINUOUS
 62
     7
  5
234
 10
-160.713251
 20
165.849671
 30
0.0
 11
-122.713251
 21
165.849671
 31
0.0
  0
LINE
  8
0
  6
CONTINUOUS
 62
     7
  5
235
 10
-122.713251
 20
165.599015
 30
0.0
 11
-160.713251
 21
165.599015
 31
0.0
  0
LINE
  8
0
  6
CONTINUOUS
 62
     7
  5
236
 10
-160.713251
 20
152.850792
 30
0.0
 11
-122.713251
 21
152.850792
 31
0.0
  0
LINE
  8
0
  6
CONTINUOUS
 62
     7
  5
237
 10
-160.713251
 20
152.836639
 30
0.0
 11
-122.713251
 21
152.836639
 31
0.0
  0
LINE
  8
0
  6
CONTINUOUS
 62
     7
  5
238
 10
-116.713251
 20
215.16678
 30
0.0
 11
-116.713251
 21
203.856164
 31
0.0
  0
LINE
  8
0
  6
CONTINUOUS
 62
     7
  5
239
 10
-117.113251
 20
203.856164
 30
0.0
 11
-116.713251
 21
203.856164
 31
0.0
  0
LINE
  8
0
  6
CONTINUOUS
 62
     7
  5
23A
 10
-117.113251
 20
197.737412
 30
0.0
 11
-119.713251
 21
197.737412
 31
0.0
  0
LINE
  8
0
  6
CONTINUOUS
 62
     7
  5
23B
 10
-117.113251
 20
197.737412
 30
0.0
 11
-117.113251
 21
199.080644
 31
0.0
  0
LINE
  8
0
  6
CONTINUOUS
 62
     7
  5
23C
 10
-166.713251
 20
215.16678
 30
0.0
 11
-166.713251
 21
203.856164
 31
0.0
  0
LINE
  8
0
  6
CONTINUOUS
 62
     7
  5
23D
 10
-166.713251
 20
203.856164
 30
0.0
 11
-166.313251
 21
203.856164
 31
0.0
  0
LINE
  8
0
  6
CONTINUOUS
 62
     7
  5
23E
 10
-163.713251
 20
197.737412
 30
0.0
 11
-166.313251
 21
197.737412
 31
0.0
  0
LINE
  8
0
  6
CONTINUOUS
 62
     7
  5
23F
 10
-166.313251
 20
199.080644
 30
0.0
 11
-166.313251
 21
197.737412
 31
0.0
  0
LINE
  8
0
  6
CONTINUOUS
 62
     7
  5
240
 10
-163.713251
 20
197.619107
 30
0.0
 11
-166.313251
 21
197.619107
 31
0.0
  0
LINE
  8
0
  6
CONTINUOUS
 62
     7
  5
241
 10
-166.313251
 20
197.737412
 30
0.0
 11
-166.313251
 21
197.619107
 31
0.0
  0
LINE
  8
0
  6
CONTINUOUS
 62
     7
  5
242
 10
-117.113251
 20
197.619107
 30
0.0
 11
-119.713251
 21
197.619107
 31
0.0
  0
LINE
  8
0
  6
CONTINUOUS
 62
     7
  5
243
 10
-117.113251
 20
197.619107
 30
0.0
 11
-117.113251
 21
197.737412
 31
0.0
  0
LINE
  8
0
  6
CONTINUOUS
 62
     7
  5
244
 10
-160.713251
 20
189.945786
 30
0.0
 11
-163.713251
 21
189.945786
 31
0.0
  0
LINE
  8
0
  6
CONTINUOUS
 62
     7
  5
245
 10
-160.713251
 20
169.59081
 30
0.0
 11
-160.713251
 21
189.945786
 31
0.0
  0
LINE
  8
0
  6
CONTINUOUS
 62
     7
  5
246
 10
-160.713251
 20
169.59081
 30
0.0
 11
-163.713251
 21
169.59081
 31
0.0
  0
LINE
  8
0
  6
CONTINUOUS
 62
     7
  5
247
 10
-163.713251
 20
177.26413
 30
0.0
 11
-163.713251
 21
172.033588
 31
0.0
  0
LINE
  8
0
  6
CONTINUOUS
 62
     7
  5
248
 10
-166.313251
 20
177.26413
 30
0.0
 11
-163.713251
 21
177.26413
 31
0.0
  0
LINE
  8
0
  6
CONTINUOUS
 62
     7
  5
249
 10
-163.713251
 20
189.945786
 30
0.0
 11
-163.713251
 21
195.176328
 31
0.0
  0
LINE
  8
0
  6
CONTINUOUS
 62
     7
  5
24A
 10
-166.313251
 20
197.619107
 30
0.0
 11
-166.313251
 21
177.26413
 31
0.0
  0
LINE
  8
0
  6
CONTINUOUS
 62
     7
  5
24B
 10
-119.713251
 20
177.26413
 30
0.0
 11
-117.113251
 21
177.26413
 31
0.0
  0
LINE
  8
0
  6
CONTINUOUS
 62
     7
  5
24C
 10
-119.713251
 20
172.033588
 30
0.0
 11
-119.713251
 21
177.26413
 31
0.0
  0
LINE
  8
0
  6
CONTINUOUS
 62
     7
  5
24D
 10
-119.713251
 20
169.59081
 30
0.0
 11
-122.713251
 21
169.59081
 31
0.0
  0
LINE
  8
0
  6
CONTINUOUS
 62
     7
  5
24E
 10
-122.713251
 20
189.945786
 30
0.0
 11
-122.713251
 21
169.59081
 31
0.0
  0
LINE
  8
0
  6
CONTINUOUS
 62
     7
  5
24F
 10
-119.713251
 20
189.945786
 30
0.0
 11
-122.713251
 21
189.945786
 31
0.0
  0
LINE
  8
0
  6
CONTINUOUS
 62
     7
  5
250
 10
-119.713251
 20
195.176328
 30
0.0
 11
-119.713251
 21
189.945786
 31
0.0
  0
LINE
  8
0
  6
CONTINUOUS
 62
     7
  5
251
 10
-117.113251
 20
177.26413
 30
0.0
 11
-117.113251
 21
197.619107
 31
0.0
  0
LINE
  8
0
  6
CONTINUOUS
 62
     7
  5
252
 10
-122.713251
 20
191.16771
 30
0.0
 11
-119.718251
 21
191.16771
 31
0.0
  0
LINE
  8
0
  6
CONTINUOUS
 62
     7
  5
253
 10
-119.718251
 20
191.16771
 30
0.0
 11
-119.718251
 21
193.352927
 31
0.0
  0
LINE
  8
0
  6
CONTINUOUS
 62
     7
  5
254
 10
-122.713251
 20
189.945786
 30
0.0
 11
-122.713251
 21
191.16771
 31
0.0
  0
LINE
  8
0
  6
CONTINUOUS
 62
     7
  5
255
 10
-163.708251
 20
191.16771
 30
0.0
 11
-160.713251
 21
191.16771
 31
0.0
  0
LINE
  8
0
  6
CONTINUOUS
 62
     7
  5
256
 10
-160.713251
 20
191.16771
 30
0.0
 11
-160.713251
 21
189.945786
 31
0.0
  0
LINE
  8
0
  6
CONTINUOUS
 62
     7
  5
257
 10
-140.713251
 20
186.480145
 30
0.0
 11
-122.713251
 21
186.480145
 31
0.0
  0
LINE
  8
0
  6
CONTINUOUS
 62
     7
  5
258
 10
-122.713251
 20
180.966381
 30
0.0
 11
-140.713251
 21
180.966381
 31
0.0
  0
LINE
  8
0
  6
CONTINUOUS
 62
     7
  5
259
 10
-140.713251
 20
186.480145
 30
0.0
 11
-140.713251
 21
180.966381
 31
0.0
  0
LINE
  8
0
  6
CONTINUOUS
 62
     7
  5
25A
 10
-145.713251
 20
180.966381
 30
0.0
 11
-145.713251
 21
186.480145
 31
0.0
  0
LINE
  8
0
  6
CONTINUOUS
 62
     7
  5
25B
 10
-160.713251
 20
180.966381
 30
0.0
 11
-145.713251
 21
180.966381
 31
0.0
  0
LINE
  8
0
  6
CONTINUOUS
 62
     7
  5
25C
 10
-145.713251
 20
186.480145
 30
0.0
 11
-160.713251
 21
186.480145
 31
0.0
  0
LINE
  8
0
  6
CONTINUOUS
 62
     7
  5
25D
 10
-160.713251
 20
186.795624
 30
0.0
 11
-145.927611
 21
186.795624
 31
0.0
  0
LINE
  8
0
  6
CONTINUOUS
 62
     7
  5
25E
 10
-145.927611
 20
186.795624
 30
0.0
 11
-141.927611
 21
187.706335
 31
0.0
  0
LINE
  8
0
  6
CONTINUOUS
 62
     7
  5
25F
 10
-141.927611
 20
187.706335
 30
0.0
 11
-138.713251
 21
187.706335
 31
0.0
  0
LINE
  8
0
  6
CONTINUOUS
 62
     7
  5
260
 10
-138.713251
 20
187.706335
 30
0.0
 11
-138.713251
 21
187.390856
 31
0.0
  0
LINE
  8
0
  6
CONTINUOUS
 62
     7
  5
261
 10
-138.713251
 20
187.390856
 30
0.0
 11
-141.713251
 21
187.390856
 31
0.0
  0
LINE
  8
0
  6
CONTINUOUS
 62
     7
  5
262
 10
-141.713251
 20
187.390856
 30
0.0
 11
-145.713251
 21
186.480145
 31
0.0
  0
LINE
  8
0
  6
CONTINUOUS
 62
     7
  5
263
 10
-141.713251
 20
181.877092
 30
0.0
 11
-141.713251
 21
187.390856
 31
0.0
  0
LINE
  8
0
  6
CONTINUOUS
 62
     7
  5
264
 10
-145.713251
 20
180.966381
 30
0.0
 11
-141.713251
 21
181.877092
 31
0.0
  0
LINE
  8
0
  6
CONTINUOUS
 62
     7
  5
265
 10
-122.713251
 20
186.795624
 30
0.0
 11
-140.713251
 21
186.795624
 31
0.0
  0
LINE
  8
0
  6
CONTINUOUS
 62
     7
  5
266
 10
-140.713251
 20
186.795624
 30
0.0
 11
-140.713251
 21
186.480145
 31
0.0
  0
LINE
  8
0
  6
CONTINUOUS
 62
     7
  5
267
 10
-138.713251
 20
186.795624
 30
0.0
 11
-138.713251
 21
187.390856
 31
0.0
  0
LINE
  8
0
  6
CONTINUOUS
 62
     7
  5
268
 10
-141.713251
 20
181.877092
 30
0.0
 11
-140.713251
 21
181.877092
 31
0.0
  0
LINE
  8
0
  6
CONTINUOUS
 62
     7
  5
269
 10
-160.713251
 20
166.341835
 30
0.0
 11
-160.713251
 21
169.59081
 31
0.0
  0
LINE
  8
0
  6
CONTINUOUS
 62
     7
  5
26A
 10
-122.713251
 20
169.59081
 30
0.0
 11
-122.713251
 21
166.341835
 31
0.0
  0
LINE
  8
0
  6
CONTINUOUS
 62
     7
  5
26B
 10
-160.713251
 20
198.309983
 30
0.0
 11
-122.713251
 21
198.309983
 31
0.0
  0
LINE
  8
0
  6
CONTINUOUS
 62
     7
  5
26C
 10
-122.713251
 20
197.983183
 30
0.0
 11
-160.713251
 21
197.983183
 31
0.0
  0
LINE
  8
0
  6
CONTINUOUS
 62
     9
  5
26D
 10
-117.113251
 20
179.233285
 30
0.0
 11
-116.713251
 21
179.233285
 31
0.0
  0
LINE
  8
0
  6
CONTINUOUS
 62
     7
  5
26E
 10
-116.713251
 20
179.233285
 30
0.0
 11
-116.713251
 21
169.638482
 31
0.0
  0
LINE
  8
0
  6
CONTINUOUS
 62
     7
  5
26F
 10
-166.713251
 20
169.638482
 30
0.0
 11
-166.713251
 21
179.233285
 31
0.0
  0
LINE
  8
0
  6
CONTINUOUS
 62
     9
  5
270
 10
-166.713251
 20
179.233285
 30
0.0
 11
-166.313251
 21
179.233285
 31
0.0
  0
LINE
  8
0
  6
CONTINUOUS
 62
     7
  5
271
 10
-116.713251
 20
179.638482
 30
0.0
 11
-116.713251
 21
179.233285
 31
0.0
  0
LINE
  8
0
  6
CONTINUOUS
 62
     7
  5
272
 10
-166.713251
 20
179.233285
 30
0.0
 11
-166.713251
 21
179.638482
 31
0.0
  0
LINE
  8
0
  6
CONTINUOUS
 62
     7
  5
273
 10
-160.713251
 20
199.555243
 30
0.0
 11
-122.713251
 21
199.555243
 31
0.0
  0
LINE
  8
0
  6
CONTINUOUS
 62
     7
  5
274
 10
-166.713251
 20
221.246233
 30
0.0
 11
-166.713251
 21
219.724858
 31
0.0
  0
LINE
  8
0
  6
CONTINUOUS
 62
     7
  5
275
 10
-166.713251
 20
219.724858
 30
0.0
 11
-166.313251
 21
219.724858
 31
0.0
  0
LINE
  8
0
  6
CONTINUOUS
 62
     7
  5
276
 10
-119.713251
 20
199.080644
 30
0.0
 11
-117.113251
 21
199.080644
 31
0.0
  0
LINE
  8
0
  6
CONTINUOUS
 62
     7
  5
277
 10
-119.713251
 20
195.176328
 30
0.0
 11
-119.713251
 21
199.080644
 31
0.0
  0
LINE
  8
0
  6
CONTINUOUS
 62
     7
  5
278
 10
-119.713251
 20
193.352927
 30
0.0
 11
-122.713251
 21
193.352927
 31
0.0
  0
LINE
  8
0
  6
CONTINUOUS
 62
     7
  5
279
 10
-122.713251
 20
208.546811
 30
0.0
 11
-122.713251
 21
193.352927
 31
0.0
  0
LINE
  8
0
  6
CONTINUOUS
 62
     7
  5
27A
 10
-119.713251
 20
208.546811
 30
0.0
 11
-122.713251
 21
208.546811
 31
0.0
  0
LINE
  8
0
  6
CONTINUOUS
 62
     7
  5
27B
 10
-117.113251
 20
214.274528
 30
0.0
 11
-119.713251
 21
214.274528
 31
0.0
  0
LINE
  8
0
  6
CONTINUOUS
 62
     7
  5
27C
 10
-119.713251
 20
212.451126
 30
0.0
 11
-119.713251
 21
208.546811
 31
0.0
  0
LINE
  8
0
  6
CONTINUOUS
 62
     7
  5
27D
 10
-117.113251
 20
199.080644
 30
0.0
 11
-117.113251
 21
214.274528
 31
0.0
  0
LINE
  8
0
  6
CONTINUOUS
 62
     7
  5
27E
 10
-163.713251
 20
214.274528
 30
0.0
 11
-166.313251
 21
214.274528
 31
0.0
  0
LINE
  8
0
  6
CONTINUOUS
 62
     7
  5
27F
 10
-166.313251
 20
214.383528
 30
0.0
 11
-166.313251
 21
214.274528
 31
0.0
  0
LINE
  8
0
  6
CONTINUOUS
 62
     7
  5
280
 10
-117.113251
 20
214.274528
 30
0.0
 11
-117.113251
 21
214.383528
 31
0.0
  0
LINE
  8
0
  6
CONTINUOUS
 62
     7
  5
281
 10
-160.713251
 20
208.546811
 30
0.0
 11
-163.713251
 21
208.546811
 31
0.0
  0
LINE
  8
0
  6
CONTINUOUS
 62
     7
  5
282
 10
-160.713251
 20
193.352927
 30
0.0
 11
-160.713251
 21
208.546811
 31
0.0
  0
LINE
  8
0
  6
CONTINUOUS
 62
     7
  5
283
 10
-160.713251
 20
193.352927
 30
0.0
 11
-163.713251
 21
193.352927
 31
0.0
  0
LINE
  8
0
  6
CONTINUOUS
 62
     7
  5
284
 10
-163.713251
 20
199.080644
 30
0.0
 11
-163.713251
 21
195.176328
 31
0.0
  0
LINE
  8
0
  6
CONTINUOUS
 62
     7
  5
285
 10
-166.313251
 20
199.080644
 30
0.0
 11
-163.713251
 21
199.080644
 31
0.0
  0
LINE
  8
0
  6
CONTINUOUS
 62
     7
  5
286
 10
-163.713251
 20
208.546811
 30
0.0
 11
-163.713251
 21
212.451126
 31
0.0
  0
LINE
  8
0
  6
CONTINUOUS
 62
     7
  5
287
 10
-166.313251
 20
214.274528
 30
0.0
 11
-166.313251
 21
199.080644
 31
0.0
  0
LINE
  8
0
  6
CONTINUOUS
 62
     7
  5
288
 10
-163.708251
 20
210.801478
 30
0.0
 11
-160.713251
 21
210.801478
 31
0.0
  0
LINE
  8
0
  6
CONTINUOUS
 62
     7
  5
289
 10
-160.713251
 20
210.801478
 30
0.0
 11
-160.713251
 21
208.546811
 31
0.0
  0
LINE
  8
0
  6
CONTINUOUS
 62
     7
  5
28A
 10
-122.713251
 20
210.801478
 30
0.0
 11
-119.718251
 21
210.801478
 31
0.0
  0
LINE
  8
0
  6
CONTINUOUS
 62
     7
  5
28B
 10
-122.713251
 20
208.546811
 30
0.0
 11
-122.713251
 21
210.801478
 31
0.0
  0
LINE
  8
0
  6
CONTINUOUS
 62
     7
  5
28C
 10
-122.713251
 20
211.088381
 30
0.0
 11
-122.713251
 21
210.801478
 31
0.0
  0
LINE
  8
0
  6
CONTINUOUS
 62
     7
  5
28D
 10
-160.713251
 20
210.801478
 30
0.0
 11
-160.713251
 21
211.088381
 31
0.0
  0
LINE
  8
0
  6
CONTINUOUS
 62
     7
  5
28E
 10
-160.713251
 20
206.671999
 30
0.0
 11
-145.927611
 21
206.671999
 31
0.0
  0
LINE
  8
0
  6
CONTINUOUS
 62
     7
  5
28F
 10
-145.927611
 20
206.671999
 30
0.0
 11
-141.927611
 21
208.352423
 31
0.0
  0
LINE
  8
0
  6
CONTINUOUS
 62
     7
  5
290
 10
-141.927611
 20
208.352423
 30
0.0
 11
-138.713251
 21
208.352423
 31
0.0
  0
LINE
  8
0
  6
CONTINUOUS
 62
     7
  5
291
 10
-138.713251
 20
208.352423
 30
0.0
 11
-138.713251
 21
207.770307
 31
0.0
  0
LINE
  8
0
  6
CONTINUOUS
 62
     7
  5
292
 10
-138.713251
 20
207.770307
 30
0.0
 11
-141.713251
 21
207.770307
 31
0.0
  0
LINE
  8
0
  6
CONTINUOUS
 62
     7
  5
293
 10
-141.713251
 20
207.770307
 30
0.0
 11
-145.713251
 21
206.089883
 31
0.0
  0
LINE
  8
0
  6
CONTINUOUS
 62
     7
  5
294
 10
-145.713251
 20
206.089883
 30
0.0
 11
-160.713251
 21
206.089883
 31
0.0
  0
LINE
  8
0
  6
CONTINUOUS
 62
     7
  5
295
 10
-122.713251
 20
206.671999
 30
0.0
 11
-140.713251
 21
206.671999
 31
0.0
  0
LINE
  8
0
  6
CONTINUOUS
 62
     7
  5
296
 10
-140.713251
 20
206.089883
 30
0.0
 11
-122.713251
 21
206.089883
 31
0.0
  0
LINE
  8
0
  6
CONTINUOUS
 62
     7
  5
297
 10
-140.713251
 20
206.671999
 30
0.0
 11
-140.713251
 21
206.089883
 31
0.0
  0
LINE
  8
0
  6
CONTINUOUS
 62
     7
  5
298
 10
-122.713251
 20
201.974158
 30
0.0
 11
-140.713251
 21
201.974158
 31
0.0
  0
LINE
  8
0
  6
CONTINUOUS
 62
     7
  5
299
 10
-140.713251
 20
206.089883
 30
0.0
 11
-140.713251
 21
201.974158
 31
0.0
  0
LINE
  8
0
  6
CONTINUOUS
 62
     7
  5
29A
 10
-145.713251
 20
201.974158
 30
0.0
 11
-145.713251
 21
206.089883
 31
0.0
  0
LINE
  8
0
  6
CONTINUOUS
 62
     7
  5
29B
 10
-160.713251
 20
201.974158
 30
0.0
 11
-145.713251
 21
201.974158
 31
0.0
  0
LINE
  8
0
  6
CONTINUOUS
 62
     7
  5
29C
 10
-141.713251
 20
203.654582
 30
0.0
 11
-141.713251
 21
207.770307
 31
0.0
  0
LINE
  8
0
  6
CONTINUOUS
 62
     7
  5
29D
 10
-145.713251
 20
201.974158
 30
0.0
 11
-141.713251
 21
203.654582
 31
0.0
  0
LINE
  8
0
  6
CONTINUOUS
 62
     7
  5
29E
 10
-138.713251
 20
206.671999
 30
0.0
 11
-138.713251
 21
207.770307
 31
0.0
  0
LINE
  8
0
  6
CONTINUOUS
 62
     7
  5
29F
 10
-141.713251
 20
203.654582
 30
0.0
 11
-140.713251
 21
203.654582
 31
0.0
  0
LINE
  8
0
  6
CONTINUOUS
 62
     7
  5
2A0
 10
-160.713251
 20
224.384116
 30
0.0
 11
-156.713251
 21
224.384116
 31
0.0
  0
LINE
  8
0
  6
CONTINUOUS
 62
     7
  5
2A1
 10
-126.713251
 20
224.384116
 30
0.0
 11
-122.713251
 21
224.384116
 31
0.0
  0
LINE
  8
0
  6
CONTINUOUS
 62
     7
  5
2A2
 10
-160.713251
 20
226.681842
 30
0.0
 11
-156.713251
 21
226.681842
 31
0.0
  0
LINE
  8
0
  6
CONTINUOUS
 62
     7
  5
2A3
 10
-126.713251
 20
226.681842
 30
0.0
 11
-122.713251
 21
226.681842
 31
0.0
  0
LINE
  8
0
  6
CONTINUOUS
 62
     7
  5
2A4
 10
-160.713251
 20
215.290446
 30
0.0
 11
-122.713251
 21
215.290446
 31
0.0
  0
LINE
  8
0
  6
CONTINUOUS
 62
     7
  5
2A5
 10
-122.713251
 20
193.352927
 30
0.0
 11
-122.713251
 21
191.16771
 31
0.0
  0
LINE
  8
0
  6
CONTINUOUS
 62
     7
  5
2A6
 10
-160.713251
 20
191.16771
 30
0.0
 11
-160.713251
 21
193.352927
 31
0.0
  0
LINE
  8
0
  6
CONTINUOUS
 62
     7
  5
2A7
 10
-166.713251
 20
197.66678
 30
0.0
 11
-166.713251
 21
203.856164
 31
0.0
  0
LINE
  8
0
  6
CONTINUOUS
 62
     7
  5
2A8
 10
-116.713251
 20
203.856164
 30
0.0
 11
-116.713251
 21
197.66678
 31
0.0
  0
LINE
  8
0
  6
CONTINUOUS
 62
     7
  5
2A9
 10
-116.713251
 20
246.294882
 30
0.0
 11
-116.713251
 21
244.712089
 31
0.0
  0
LINE
  8
0
  6
CONTINUOUS
 62
     7
  5
2AA
 10
-116.713251
 20
246.294882
 30
0.0
 11
-117.113251
 21
246.294882
 31
0.0
  0
LINE
  8
0
  6
CONTINUOUS
 62
     7
  5
2AB
 10
-166.713251
 20
246.294882
 30
0.0
 11
-166.713251
 21
244.712089
 31
0.0
  0
LINE
  8
0
  6
CONTINUOUS
 62
     7
  5
2AC
 10
-166.313251
 20
246.294882
 30
0.0
 11
-166.713251
 21
246.294882
 31
0.0
  0
LINE
  8
0
  6
CONTINUOUS
 62
     7
  5
2AD
 10
-160.713251
 20
211.548652
 30
0.0
 11
-160.713251
 21
216.246233
 31
0.0
  0
LINE
  8
0
  6
CONTINUOUS
 62
     7
  5
2AE
 10
-160.713251
 20
211.548652
 30
0.0
 11
-163.713251
 21
211.548652
 31
0.0
  0
LINE
  8
0
  6
CONTINUOUS
 62
     7
  5
2AF
 10
-163.713251
 20
214.383528
 30
0.0
 11
-163.713251
 21
212.451126
 31
0.0
  0
LINE
  8
0
  6
CONTINUOUS
 62
     7
  5
2B0
 10
-166.313251
 20
214.383528
 30
0.0
 11
-163.713251
 21
214.383528
 31
0.0
  0
LINE
  8
0
  6
CONTINUOUS
 62
     7
  5
2B1
 10
-166.313251
 20
220.946233
 30
0.0
 11
-166.313251
 21
214.383528
 31
0.0
  0
LINE
  8
0
  6
CONTINUOUS
 62
     7
  5
2B2
 10
-119.713251
 20
214.383528
 30
0.0
 11
-117.113251
 21
214.383528
 31
0.0
  0
LINE
  8
0
  6
CONTINUOUS
 62
     7
  5
2B3
 10
-119.713251
 20
212.451126
 30
0.0
 11
-119.713251
 21
214.383528
 31
0.0
  0
LINE
  8
0
  6
CONTINUOUS
 62
     7
  5
2B4
 10
-119.713251
 20
211.548652
 30
0.0
 11
-122.713251
 21
211.548652
 31
0.0
  0
LINE
  8
0
  6
CONTINUOUS
 62
     7
  5
2B5
 10
-122.713251
 20
216.246233
 30
0.0
 11
-122.713251
 21
211.548652
 31
0.0
  0
LINE
  8
0
  6
CONTINUOUS
 62
     7
  5
2B6
 10
-117.113251
 20
214.383528
 30
0.0
 11
-117.113251
 21
216.246233
 31
0.0
  0
LINE
  8
0
  6
CONTINUOUS
 62
     7
  5
2B7
 10
-122.713251
 20
215.989783
 30
0.0
 11
-140.713251
 21
215.989783
 31
0.0
  0
LINE
  8
0
  6
CONTINUOUS
 62
     7
  5
2B8
 10
-140.713251
 20
216.246233
 30
0.0
 11
-140.713251
 21
215.989783
 31
0.0
  0
LINE
  8
0
  6
CONTINUOUS
 62
     7
  5
2B9
 10
-145.713251
 20
215.989783
 30
0.0
 11
-145.713251
 21
216.246233
 31
0.0
  0
LINE
  8
0
  6
CONTINUOUS
 62
     7
  5
2BA
 10
-160.713251
 20
215.989783
 30
0.0
 11
-145.713251
 21
215.989783
 31
0.0
  0
LINE
  8
0
  6
CONTINUOUS
 62
     7
  5
2BB
 10
-145.713251
 20
215.989783
 30
0.0
 11
-145.241019
 21
216.246233
 31
0.0
  0
LINE
  8
0
  6
CONTINUOUS
 62
     7
  5
2BC
 10
-160.713251
 20
239.759989
 30
0.0
 11
-122.713251
 21
239.759989
 31
0.0
  0
LINE
  8
0
  6
CONTINUOUS
 62
     7
  5
2BD
 10
-122.713251
 20
239.446692
 30
0.0
 11
-160.713251
 21
239.446692
 31
0.0
  0
LINE
  8
0
  6
CONTINUOUS
 62
     7
  5
2BE
 10
-160.713251
 20
242.730188
 30
0.0
 11
-122.713251
 21
242.730188
 31
0.0
  0
LINE
  8
0
  6
CONTINUOUS
 62
     7
  5
2BF
 10
-160.713251
 20
235.118555
 30
0.0
 11
-122.713251
 21
235.118555
 31
0.0
  0
LINE
  8
0
  6
CONTINUOUS
 62
     7
  5
2C0
 10
-166.713251
 20
218.588381
 30
0.0
 11
-166.713251
 21
219.724858
 31
0.0
  0
LINE
  8
0
  6
CONTINUOUS
 62
     7
  5
2C1
 10
-122.713251
 20
211.548652
 30
0.0
 11
-122.713251
 21
211.088381
 31
0.0
  0
LINE
  8
0
  6
CONTINUOUS
 62
     7
  5
2C2
 10
-160.713251
 20
211.088381
 30
0.0
 11
-160.713251
 21
211.548652
 31
0.0
  0
LINE
  8
0
  6
CONTINUOUS
 62
     7
  5
2C3
 10
-119.713251
 20
98.773001
 30
0.0
 11
-117.113251
 21
98.773001
 31
0.0
  0
LINE
  8
0
  6
CONTINUOUS
 62
     7
  5
2C4
 10
-119.713251
 20
104.079983
 30
0.0
 11
-122.713251
 21
104.079983
 31
0.0
  0
LINE
  8
0
  6
CONTINUOUS
 62
     7
  5
2C5
 10
-119.713251
 20
106.413521
 30
0.0
 11
-119.713251
 21
104.079983
 31
0.0
  0
LINE
  8
0
  6
CONTINUOUS
 62
     7
  5
2C6
 10
-117.113251
 20
107.291092
 30
0.0
 11
-119.713251
 21
107.291092
 31
0.0
  0
LINE
  8
0
  6
CONTINUOUS
 62
     7
  5
2C7
 10
-117.113251
 20
98.773001
 30
0.0
 11
-117.113251
 21
107.291092
 31
0.0
  0
LINE
  8
0
  6
CONTINUOUS
 62
     7
  5
2C8
 10
-119.713251
 20
96.546233
 30
0.0
 11
-119.713251
 21
98.773001
 31
0.0
  0
LINE
  8
0
  6
CONTINUOUS
 62
     7
  5
2C9
 10
-122.713251
 20
104.079983
 30
0.0
 11
-122.713251
 21
96.546233
 31
0.0
  0
LINE
  8
0
  6
CONTINUOUS
 62
     7
  5
2CA
 10
-163.713251
 20
107.291092
 30
0.0
 11
-166.313251
 21
107.291092
 31
0.0
  0
LINE
  8
0
  6
CONTINUOUS
 62
     7
  5
2CB
 10
-163.713251
 20
104.079983
 30
0.0
 11
-163.713251
 21
106.413521
 31
0.0
  0
LINE
  8
0
  6
CONTINUOUS
 62
     7
  5
2CC
 10
-160.713251
 20
104.079983
 30
0.0
 11
-163.713251
 21
104.079983
 31
0.0
  0
LINE
  8
0
  6
CONTINUOUS
 62
     7
  5
2CD
 10
-166.313251
 20
98.773001
 30
0.0
 11
-163.713251
 21
98.773001
 31
0.0
  0
LINE
  8
0
  6
CONTINUOUS
 62
     7
  5
2CE
 10
-166.313251
 20
107.291092
 30
0.0
 11
-166.313251
 21
98.773001
 31
0.0
  0
LINE
  8
0
  6
CONTINUOUS
 62
     7
  5
2CF
 10
-163.713251
 20
98.773001
 30
0.0
 11
-163.713251
 21
96.546233
 31
0.0
  0
LINE
  8
0
  6
CONTINUOUS
 62
     7
  5
2D0
 10
-160.713251
 20
96.546233
 30
0.0
 11
-160.713251
 21
104.079983
 31
0.0
  0
LINE
  8
0
  6
CONTINUOUS
 62
     7
  5
2D1
 10
-166.313251
 20
98.773001
 30
0.0
 11
-166.313251
 21
96.546233
 31
0.0
  0
LINE
  8
0
  6
CONTINUOUS
 62
     7
  5
2D2
 10
-117.113251
 20
96.546233
 30
0.0
 11
-117.113251
 21
98.773001
 31
0.0
  0
LINE
  8
0
  6
CONTINUOUS
 62
     7
  5
2D3
 10
-122.713251
 20
99.995871
 30
0.0
 11
-140.713251
 21
99.995871
 31
0.0
  0
LINE
  8
0
  6
CONTINUOUS
 62
     7
  5
2D4
 10
-140.713251
 20
99.257392
 30
0.0
 11
-122.713251
 21
99.257392
 31
0.0
  0
LINE
  8
0
  6
CONTINUOUS
 62
     7
  5
2D5
 10
-140.713251
 20
99.995871
 30
0.0
 11
-140.713251
 21
99.257392
 31
0.0
  0
LINE
  8
0
  6
CONTINUOUS
 62
     7
  5
2D6
 10
-141.713251
 20
97.864066
 30
0.0
 11
-141.713251
 21
100.17145
 31
0.0
  0
LINE
  8
0
  6
CONTINUOUS
 62
     7
  5
2D7
 10
-145.713251
 20
99.995871
 30
0.0
 11
-141.713251
 21
97.864066
 31
0.0
  0
LINE
  8
0
  6
CONTINUOUS
 62
     7
  5
2D8
 10
-145.713251
 20
99.995871
 30
0.0
 11
-145.713251
 21
102.303254
 31
0.0
  0
LINE
  8
0
  6
CONTINUOUS
 62
     7
  5
2D9
 10
-141.713251
 20
100.17145
 30
0.0
 11
-145.713251
 21
102.303254
 31
0.0
  0
LINE
  8
0
  6
CONTINUOUS
 62
     7
  5
2DA
 10
-141.713251
 20
97.864066
 30
0.0
 11
-138.713251
 21
97.864066
 31
0.0
  0
LINE
  8
0
  6
CONTINUOUS
 62
     7
  5
2DB
 10
-138.713251
 20
97.864066
 30
0.0
 11
-138.713251
 21
97.125588
 31
0.0
  0
LINE
  8
0
  6
CONTINUOUS
 62
     7
  5
2DC
 10
-138.713251
 20
97.125588
 30
0.0
 11
-141.927611
 21
97.125588
 31
0.0
  0
LINE
  8
0
  6
CONTINUOUS
 62
     7
  5
2DD
 10
-141.927611
 20
97.125588
 30
0.0
 11
-145.927611
 21
99.257392
 31
0.0
  0
LINE
  8
0
  6
CONTINUOUS
 62
     7
  5
2DE
 10
-145.927611
 20
99.257392
 30
0.0
 11
-160.713251
 21
99.257392
 31
0.0
  0
LINE
  8
0
  6
CONTINUOUS
 62
     7
  5
2DF
 10
-160.713251
 20
99.995871
 30
0.0
 11
-145.713251
 21
99.995871
 31
0.0
  0
LINE
  8
0
  6
CONTINUOUS
 62
     7
  5
2E0
 10
-145.713251
 20
102.303254
 30
0.0
 11
-160.713251
 21
102.303254
 31
0.0
  0
LINE
  8
0
  6
CONTINUOUS
 62
     7
  5
2E1
 10
-140.713251
 20
102.303254
 30
0.0
 11
-122.713251
 21
102.303254
 31
0.0
  0
LINE
  8
0
  6
CONTINUOUS
 62
     7
  5
2E2
 10
-140.713251
 20
102.303254
 30
0.0
 11
-140.713251
 21
99.995871
 31
0.0
  0
LINE
  8
0
  6
CONTINUOUS
 62
     7
  5
2E3
 10
-140.713251
 20
100.17145
 30
0.0
 11
-141.713251
 21
100.17145
 31
0.0
  0
LINE
  8
0
  6
CONTINUOUS
 62
     7
  5
2E4
 10
-138.713251
 20
97.864066
 30
0.0
 11
-138.713251
 21
99.257392
 31
0.0
  0
LINE
  8
0
  6
CONTINUOUS
 62
     7
  5
2E5
 10
-160.713251
 20
78.710972
 30
0.0
 11
-122.713251
 21
78.710972
 31
0.0
  0
LINE
  8
0
  6
CONTINUOUS
 62
     7
  5
2E6
 10
-122.713251
 20
83.613522
 30
0.0
 11
-160.713251
 21
83.613522
 31
0.0
  0
LINE
  8
0
  6
CONTINUOUS
 62
     7
  5
2E7
 10
-160.713251
 20
75.572438
 30
0.0
 11
-156.713251
 21
75.572438
 31
0.0
  0
LINE
  8
0
  6
CONTINUOUS
 62
     7
  5
2E8
 10
-126.713251
 20
75.572438
 30
0.0
 11
-122.713251
 21
75.572438
 31
0.0
  0
LINE
  8
0
  6
CONTINUOUS
 62
     7
  5
2E9
 10
-117.113251
 20
107.90538
 30
0.0
 11
-116.713251
 21
107.90538
 31
0.0
  0
LINE
  8
0
  6
CONTINUOUS
 62
     7
  5
2EA
 10
-117.113251
 20
107.291092
 30
0.0
 11
-117.113251
 21
107.975433
 31
0.0
  0
LINE
  8
0
  6
CONTINUOUS
 62
     7
  5
2EB
 10
-166.313251
 20
107.975433
 30
0.0
 11
-166.313251
 21
107.291092
 31
0.0
  0
LINE
  8
0
  6
CONTINUOUS
 62
     7
  5
2EC
 10
-166.713251
 20
107.90538
 30
0.0
 11
-166.313251
 21
107.90538
 31
0.0
  0
LINE
  8
0
  6
CONTINUOUS
 62
     7
  5
2ED
 10
-116.713251
 20
107.90538
 30
0.0
 11
-116.713251
 21
100.475433
 31
0.0
  0
LINE
  8
0
  6
CONTINUOUS
 62
     7
  5
2EE
 10
-166.713251
 20
100.475433
 30
0.0
 11
-166.713251
 21
107.90538
 31
0.0
  0
LINE
  8
0
  6
CONTINUOUS
 62
     7
  5
2EF
 10
-122.713251
 20
96.246233
 30
0.0
 11
-122.713251
 21
85.734931
 31
0.0
  0
LINE
  8
0
  6
CONTINUOUS
 62
     7
  5
2F0
 10
-119.713251
 20
96.246233
 30
0.0
 11
-122.713251
 21
96.246233
 31
0.0
  0
LINE
  8
0
  6
CONTINUOUS
 62
     7
  5
2F1
 10
-119.713251
 20
85.771699
 30
0.0
 11
-119.713251
 21
96.246233
 31
0.0
  0
LINE
  8
0
  6
CONTINUOUS
 62
     7
  5
2F2
 10
-160.713251
 20
96.246233
 30
0.0
 11
-163.713251
 21
96.246233
 31
0.0
  0
LINE
  8
0
  6
CONTINUOUS
 62
     7
  5
2F3
 10
-163.713251
 20
96.246233
 30
0.0
 11
-163.713251
 21
85.771699
 31
0.0
  0
LINE
  8
0
  6
CONTINUOUS
 62
     7
  5
2F4
 10
-160.713251
 20
85.734931
 30
0.0
 11
-160.713251
 21
96.246233
 31
0.0
  0
LINE
  8
0
  6
CONTINUOUS
 62
     7
  5
2F5
 10
-119.713251
 20
96.546233
 30
0.0
 11
-122.713251
 21
96.546233
 31
0.0
  0
LINE
  8
0
  6
CONTINUOUS
 62
     7
  5
2F6
 10
-122.713251
 20
96.546233
 30
0.0
 11
-122.713251
 21
96.246233
 31
0.0
  0
LINE
  8
0
  6
CONTINUOUS
 62
     7
  5
2F7
 10
-119.713251
 20
96.246233
 30
0.0
 11
-119.713251
 21
96.546233
 31
0.0
  0
LINE
  8
0
  6
CONTINUOUS
 62
     7
  5
2F8
 10
-160.713251
 20
70.946233
 30
0.0
 11
-163.713251
 21
70.946233
 31
0.0
  0
LINE
  8
0
  6
CONTINUOUS
 62
     7
  5
2F9
 10
-163.713251
 20
71.246233
 30
0.0
 11
-163.713251
 21
70.946233
 31
0.0
  0
LINE
  8
0
  6
CONTINUOUS
 62
     7
  5
2FA
 10
-160.713251
 20
70.946233
 30
0.0
 11
-160.713251
 21
71.246233
 31
0.0
  0
LINE
  8
0
  6
CONTINUOUS
 62
     7
  5
2FB
 10
-119.713251
 20
70.946233
 30
0.0
 11
-122.713251
 21
70.946233
 31
0.0
  0
LINE
  8
0
  6
CONTINUOUS
 62
     7
  5
2FC
 10
-122.713251
 20
71.246233
 30
0.0
 11
-122.713251
 21
70.946233
 31
0.0
  0
LINE
  8
0
  6
CONTINUOUS
 62
     7
  5
2FD
 10
-119.713251
 20
70.946233
 30
0.0
 11
-119.713251
 21
71.246233
 31
0.0
  0
LINE
  8
0
  6
CONTINUOUS
 62
     7
  5
2FE
 10
-160.713251
 20
96.546233
 30
0.0
 11
-163.713251
 21
96.546233
 31
0.0
  0
LINE
  8
0
  6
CONTINUOUS
 62
     7
  5
2FF
 10
-163.713251
 20
96.546233
 30
0.0
 11
-163.713251
 21
96.246233
 31
0.0
  0
LINE
  8
0
  6
CONTINUOUS
 62
     7
  5
300
 10
-160.713251
 20
96.246233
 30
0.0
 11
-160.713251
 21
96.546233
 31
0.0
  0
LINE
  8
0
  6
CONTINUOUS
 62
     7
  5
301
 10
-166.313251
 20
71.246233
 30
0.0
 11
-166.313251
 21
70.946233
 31
0.0
  0
LINE
  8
0
  6
CONTINUOUS
 62
     7
  5
302
 10
-163.713251
 20
70.946233
 30
0.0
 11
-166.313251
 21
70.946233
 31
0.0
  0
LINE
  8
0
  6
CONTINUOUS
 62
     7
  5
303
 10
-166.313251
 20
96.546233
 30
0.0
 11
-166.313251
 21
96.246233
 31
0.0
  0
LINE
  8
0
  6
CONTINUOUS
 62
     7
  5
304
 10
-166.313251
 20
96.546233
 30
0.0
 11
-163.713251
 21
96.546233
 31
0.0
  0
LINE
  8
0
  6
CONTINUOUS
 62
     7
  5
305
 10
-117.113251
 20
96.246233
 30
0.0
 11
-117.113251
 21
96.546233
 31
0.0
  0
LINE
  8
0
  6
CONTINUOUS
 62
     7
  5
306
 10
-119.713251
 20
96.546233
 30
0.0
 11
-117.113251
 21
96.546233
 31
0.0
  0
LINE
  8
0
  6
CONTINUOUS
 62
     7
  5
307
 10
-117.113251
 20
70.946233
 30
0.0
 11
-117.113251
 21
71.246233
 31
0.0
  0
LINE
  8
0
  6
CONTINUOUS
 62
     7
  5
308
 10
-117.113251
 20
70.946233
 30
0.0
 11
-119.713251
 21
70.946233
 31
0.0
  0
LINE
  8
0
  6
CONTINUOUS
 62
     7
  5
309
 10
-160.713251
 20
74.646233
 30
0.0
 11
-156.713251
 21
74.646233
 31
0.0
  0
LINE
  8
0
  6
CONTINUOUS
 62
     7
  5
30A
 10
-126.713251
 20
74.646233
 30
0.0
 11
-122.713251
 21
74.646233
 31
0.0
  0
LINE
  8
0
  6
CONTINUOUS
 62
     7
  5
30B
 10
-145.713251
 20
96.246233
 30
0.0
 11
-141.713251
 21
93.936832
 31
0.0
  0
LINE
  8
0
  6
CONTINUOUS
 62
     7
  5
30C
 10
-141.713251
 20
93.936832
 30
0.0
 11
-138.713251
 21
93.936832
 31
0.0
  0
LINE
  8
0
  6
CONTINUOUS
 62
     7
  5
30D
 10
-138.713251
 20
93.936832
 30
0.0
 11
-138.713251
 21
93.136832
 31
0.0
  0
LINE
  8
0
  6
CONTINUOUS
 62
     7
  5
30E
 10
-138.713251
 20
93.136832
 30
0.0
 11
-141.927611
 21
93.136832
 31
0.0
  0
LINE
  8
0
  6
CONTINUOUS
 62
     7
  5
30F
 10
-141.927611
 20
93.136832
 30
0.0
 11
-145.927611
 21
95.446233
 31
0.0
  0
LINE
  8
0
  6
CONTINUOUS
 62
     7
  5
310
 10
-145.927611
 20
95.446233
 30
0.0
 11
-160.713251
 21
95.446233
 31
0.0
  0
LINE
  8
0
  6
CONTINUOUS
 62
     7
  5
311
 10
-160.713251
 20
96.246233
 30
0.0
 11
-145.713251
 21
96.246233
 31
0.0
  0
LINE
  8
0
  6
CONTINUOUS
 62
     7
  5
312
 10
-140.713251
 20
95.446233
 30
0.0
 11
-122.713251
 21
95.446233
 31
0.0
  0
LINE
  8
0
  6
CONTINUOUS
 62
     7
  5
313
 10
-140.713251
 20
96.246233
 30
0.0
 11
-140.713251
 21
95.446233
 31
0.0
  0
LINE
  8
0
  6
CONTINUOUS
 62
     7
  5
314
 10
-122.713251
 20
96.246233
 30
0.0
 11
-140.713251
 21
96.246233
 31
0.0
  0
LINE
  8
0
  6
CONTINUOUS
 62
     7
  5
315
 10
-132.713251
 20
73.246233
 30
0.0
 11
-126.713251
 21
73.246233
 31
0.0
  0
LINE
  8
0
  6
CONTINUOUS
 62
     7
  5
316
 10
-132.713251
 20
77.246233
 30
0.0
 11
-132.713251
 21
73.246233
 31
0.0
  0
LINE
  8
0
  6
CONTINUOUS
 62
     7
  5
317
 10
-132.713251
 20
77.246233
 30
0.0
 11
-126.713251
 21
77.246233
 31
0.0
  0
LINE
  8
0
  6
CONTINUOUS
 62
     7
  5
318
 10
-126.713251
 20
73.246233
 30
0.0
 11
-126.713251
 21
77.246233
 31
0.0
  0
LINE
  8
0
  6
CONTINUOUS
 62
     7
  5
319
 10
-156.713251
 20
77.246233
 30
0.0
 11
-156.713251
 21
73.246233
 31
0.0
  0
LINE
  8
0
  6
CONTINUOUS
 62
     7
  5
31A
 10
-156.713251
 20
77.246233
 30
0.0
 11
-150.713251
 21
77.246233
 31
0.0
  0
LINE
  8
0
  6
CONTINUOUS
 62
     7
  5
31B
 10
-156.713251
 20
73.246233
 30
0.0
 11
-150.713251
 21
73.246233
 31
0.0
  0
LINE
  8
0
  6
CONTINUOUS
 62
     7
  5
31C
 10
-150.713251
 20
73.246233
 30
0.0
 11
-150.713251
 21
77.246233
 31
0.0
  0
LINE
  8
0
  6
CONTINUOUS
 62
     7
  5
31D
 10
-148.713251
 20
77.246233
 30
0.0
 11
-148.713251
 21
73.246233
 31
0.0
  0
LINE
  8
0
  6
CONTINUOUS
 62
     7
  5
31E
 10
-148.713251
 20
77.246233
 30
0.0
 11
-142.713251
 21
77.246233
 31
0.0
  0
LINE
  8
0
  6
CONTINUOUS
 62
     7
  5
31F
 10
-142.713251
 20
73.246233
 30
0.0
 11
-142.713251
 21
77.246233
 31
0.0
  0
LINE
  8
0
  6
CONTINUOUS
 62
     7
  5
320
 10
-148.713251
 20
73.246233
 30
0.0
 11
-142.713251
 21
73.246233
 31
0.0
  0
LINE
  8
0
  6
CONTINUOUS
 62
     7
  5
321
 10
-140.713251
 20
77.246233
 30
0.0
 11
-134.713251
 21
77.246233
 31
0.0
  0
LINE
  8
0
  6
CONTINUOUS
 62
     7
  5
322
 10
-134.713251
 20
73.246233
 30
0.0
 11
-134.713251
 21
77.246233
 31
0.0
  0
LINE
  8
0
  6
CONTINUOUS
 62
     7
  5
323
 10
-140.713251
 20
77.246233
 30
0.0
 11
-140.713251
 21
73.246233
 31
0.0
  0
LINE
  8
0
  6
CONTINUOUS
 62
     7
  5
324
 10
-140.713251
 20
73.246233
 30
0.0
 11
-134.713251
 21
73.246233
 31
0.0
  0
LINE
  8
0
  6
CONTINUOUS
 62
     7
  5
325
 10
-142.713251
 20
77.246233
 30
0.0
 11
-140.713251
 21
77.246233
 31
0.0
  0
LINE
  8
0
  6
CONTINUOUS
 62
     7
  5
326
 10
-140.713251
 20
73.246233
 30
0.0
 11
-142.713251
 21
73.246233
 31
0.0
  0
LINE
  8
0
  6
CONTINUOUS
 62
     7
  5
327
 10
-134.713251
 20
77.246233
 30
0.0
 11
-132.713251
 21
77.246233
 31
0.0
  0
LINE
  8
0
  6
CONTINUOUS
 62
     7
  5
328
 10
-132.713251
 20
73.246233
 30
0.0
 11
-134.713251
 21
73.246233
 31
0.0
  0
LINE
  8
0
  6
CONTINUOUS
 62
     7
  5
329
 10
-150.713251
 20
77.246233
 30
0.0
 11
-148.713251
 21
77.246233
 31
0.0
  0
LINE
  8
0
  6
CONTINUOUS
 62
     7
  5
32A
 10
-148.713251
 20
73.246233
 30
0.0
 11
-150.713251
 21
73.246233
 31
0.0
  0
LINE
  8
0
  6
CONTINUOUS
 62
     7
  5
32B
 10
-156.713251
 20
71.246233
 30
0.0
 11
-126.713251
 21
71.246233
 31
0.0
  0
LINE
  8
0
  6
CONTINUOUS
 62
     7
  5
32C
 10
-126.713251
 20
71.246233
 30
0.0
 11
-126.713251
 21
73.246233
 31
0.0
  0
LINE
  8
0
  6
CONTINUOUS
 62
     7
  5
32D
 10
-156.713251
 20
73.246233
 30
0.0
 11
-156.713251
 21
71.246233
 31
0.0
  0
LINE
  8
0
  6
CONTINUOUS
 62
     7
  5
32E
 10
-122.713251
 20
81.246233
 30
0.0
 11
-116.713251
 21
81.246233
 31
0.0
  0
LINE
  8
0
  6
CONTINUOUS
 62
     7
  5
32F
 10
-116.713251
 20
71.246233
 30
0.0
 11
-116.713251
 21
81.246233
 31
0.0
  0
LINE
  8
0
  6
CONTINUOUS
 62
     7
  5
330
 10
-126.713251
 20
74.246233
 30
0.0
 11
-122.713251
 21
74.246233
 31
0.0
  0
LINE
  8
0
  6
CONTINUOUS
 62
     7
  5
331
 10
-122.713251
 20
81.246233
 30
0.0
 11
-122.713251
 21
74.246233
 31
0.0
  0
LINE
  8
0
  6
CONTINUOUS
 62
     7
  5
332
 10
-126.713251
 20
71.246233
 30
0.0
 11
-116.713251
 21
71.246233
 31
0.0
  0
LINE
  8
0
  6
CONTINUOUS
 62
     7
  5
333
 10
-116.713251
 20
85.771699
 30
0.0
 11
-119.713251
 21
85.771699
 31
0.0
  0
LINE
  8
0
  6
CONTINUOUS
 62
     7
  5
334
 10
-116.713251
 20
81.246233
 30
0.0
 11
-116.713251
 21
85.771699
 31
0.0
  0
LINE
  8
0
  6
CONTINUOUS
 62
     7
  5
335
 10
-122.713251
 20
85.734931
 30
0.0
 11
-122.713251
 21
81.246233
 31
0.0
  0
LINE
  8
0
  6
CONTINUOUS
 62
     7
  5
336
 10
-119.713251
 20
85.734931
 30
0.0
 11
-122.713251
 21
85.734931
 31
0.0
  0
LINE
  8
0
  6
CONTINUOUS
 62
     7
  5
337
 10
-119.713251
 20
85.771699
 30
0.0
 11
-119.713251
 21
85.734931
 31
0.0
  0
LINE
  8
0
  6
CONTINUOUS
 62
     7
  5
338
 10
-160.713251
 20
81.246233
 30
0.0
 11
-160.713251
 21
85.734931
 31
0.0
  0
LINE
  8
0
  6
CONTINUOUS
 62
     7
  5
339
 10
-166.713251
 20
81.246233
 30
0.0
 11
-160.713251
 21
81.246233
 31
0.0
  0
LINE
  8
0
  6
CONTINUOUS
 62
     7
  5
33A
 10
-166.713251
 20
81.246233
 30
0.0
 11
-166.713251
 21
85.771699
 31
0.0
  0
LINE
  8
0
  6
CONTINUOUS
 62
     7
  5
33B
 10
-163.713251
 20
85.771699
 30
0.0
 11
-166.713251
 21
85.771699
 31
0.0
  0
LINE
  8
0
  6
CONTINUOUS
 62
     7
  5
33C
 10
-163.713251
 20
85.734931
 30
0.0
 11
-163.713251
 21
85.771699
 31
0.0
  0
LINE
  8
0
  6
CONTINUOUS
 62
     7
  5
33D
 10
-160.713251
 20
85.734931
 30
0.0
 11
-163.713251
 21
85.734931
 31
0.0
  0
LINE
  8
0
  6
CONTINUOUS
 62
     7
  5
33E
 10
-160.713251
 20
74.246233
 30
0.0
 11
-156.713251
 21
74.246233
 31
0.0
  0
LINE
  8
0
  6
CONTINUOUS
 62
     7
  5
33F
 10
-166.713251
 20
71.246233
 30
0.0
 11
-166.713251
 21
81.246233
 31
0.0
  0
LINE
  8
0
  6
CONTINUOUS
 62
     7
  5
340
 10
-160.713251
 20
74.246233
 30
0.0
 11
-160.713251
 21
81.246233
 31
0.0
  0
LINE
  8
0
  6
CONTINUOUS
 62
     7
  5
341
 10
-166.713251
 20
71.246233
 30
0.0
 11
-156.713251
 21
71.246233
 31
0.0
  0
LINE
  8
0
  6
CONTINUOUS
 62
     7
  5
342
 10
-127.613251
 20
66.446233
 30
0.0
 11
-124.613251
 21
66.446233
 31
0.0
  0
LINE
  8
0
  6
CONTINUOUS
 62
     7
  5
343
 10
-124.613251
 20
66.446233
 30
0.0
 11
-124.613251
 21
60.446233
 31
0.0
  0
LINE
  8
0
  6
CONTINUOUS
 62
     7
  5
344
 10
-138.613251
 20
66.446233
 30
0.0
 11
-138.613251
 21
60.446233
 31
0.0
  0
LINE
  8
0
  6
CONTINUOUS
 62
     7
  5
345
 10
-138.613251
 20
66.446233
 30
0.0
 11
-135.613251
 21
66.446233
 31
0.0
  0
LINE
  8
0
  6
CONTINUOUS
 62
     7
  5
346
 10
-135.613251
 20
66.446233
 30
0.0
 11
-135.613251
 21
71.246233
 31
0.0
  0
LINE
  8
0
  6
CONTINUOUS
 62
     7
  5
347
 10
-138.613251
 20
60.446233
 30
0.0
 11
-124.613251
 21
60.446233
 31
0.0
  0
LINE
  8
0
  6
CONTINUOUS
 62
     7
  5
348
 10
-127.613251
 20
66.446233
 30
0.0
 11
-127.613251
 21
71.246233
 31
0.0
  0
LINE
  8
0
  6
CONTINUOUS
 62
     7
  5
349
 10
-116.713251
 20
96.246233
 30
0.0
 11
-116.713251
 21
85.771699
 31
0.0
  0
LINE
  8
0
  6
CONTINUOUS
 62
     7
  5
34A
 10
-119.713251
 20
96.246233
 30
0.0
 11
-119.713251
 21
85.771699
 31
0.0
  0
LINE
  8
0
  6
CONTINUOUS
 62
     7
  5
34B
 10
-163.713251
 20
85.771699
 30
0.0
 11
-163.713251
 21
96.246233
 31
0.0
  0
LINE
  8
0
  6
CONTINUOUS
 62
     7
  5
34C
 10
-166.713251
 20
85.771699
 30
0.0
 11
-166.713251
 21
96.246233
 31
0.0
  0
LINE
  8
0
  6
CONTINUOUS
 62
     7
  5
34D
 10
-140.713251
 20
223.246233
 30
0.0
 11
-134.713251
 21
223.246233
 31
0.0
  0
LINE
  8
0
  6
CONTINUOUS
 62
     7
  5
34E
 10
-140.713251
 20
227.246233
 30
0.0
 11
-140.713251
 21
223.246233
 31
0.0
  0
LINE
  8
0
  6
CONTINUOUS
 62
     7
  5
34F
 10
-134.713251
 20
223.246233
 30
0.0
 11
-134.713251
 21
227.246233
 31
0.0
  0
LINE
  8
0
  6
CONTINUOUS
 62
     7
  5
350
 10
-140.713251
 20
227.246233
 30
0.0
 11
-134.713251
 21
227.246233
 31
0.0
  0
LINE
  8
0
  6
CONTINUOUS
 62
     7
  5
351
 10
-132.713251
 20
227.246233
 30
0.0
 11
-132.713251
 21
223.246233
 31
0.0
  0
LINE
  8
0
  6
CONTINUOUS
 62
     7
  5
352
 10
-126.713251
 20
223.246233
 30
0.0
 11
-126.713251
 21
227.246233
 31
0.0
  0
LINE
  8
0
  6
CONTINUOUS
 62
     7
  5
353
 10
-132.713251
 20
223.246233
 30
0.0
 11
-126.713251
 21
223.246233
 31
0.0
  0
LINE
  8
0
  6
CONTINUOUS
 62
     7
  5
354
 10
-132.713251
 20
227.246233
 30
0.0
 11
-126.713251
 21
227.246233
 31
0.0
  0
LINE
  8
0
  6
CONTINUOUS
 62
     7
  5
355
 10
-156.713251
 20
227.246233
 30
0.0
 11
-156.713251
 21
223.246233
 31
0.0
  0
LINE
  8
0
  6
CONTINUOUS
 62
     7
  5
356
 10
-156.713251
 20
223.246233
 30
0.0
 11
-150.713251
 21
223.246233
 31
0.0
  0
LINE
  8
0
  6
CONTINUOUS
 62
     7
  5
357
 10
-150.713251
 20
223.246233
 30
0.0
 11
-150.713251
 21
227.246233
 31
0.0
  0
LINE
  8
0
  6
CONTINUOUS
 62
     7
  5
358
 10
-156.713251
 20
227.246233
 30
0.0
 11
-150.713251
 21
227.246233
 31
0.0
  0
LINE
  8
0
  6
CONTINUOUS
 62
     7
  5
359
 10
-148.713251
 20
223.246233
 30
0.0
 11
-142.713251
 21
223.246233
 31
0.0
  0
LINE
  8
0
  6
CONTINUOUS
 62
     7
  5
35A
 10
-148.713251
 20
227.246233
 30
0.0
 11
-148.713251
 21
223.246233
 31
0.0
  0
LINE
  8
0
  6
CONTINUOUS
 62
     7
  5
35B
 10
-148.713251
 20
227.246233
 30
0.0
 11
-142.713251
 21
227.246233
 31
0.0
  0
LINE
  8
0
  6
CONTINUOUS
 62
     7
  5
35C
 10
-142.713251
 20
223.246233
 30
0.0
 11
-142.713251
 21
227.246233
 31
0.0
  0
LINE
  8
0
  6
CONTINUOUS
 62
     7
  5
35D
 10
-140.713251
 20
223.246233
 30
0.0
 11
-142.713251
 21
223.246233
 31
0.0
  0
LINE
  8
0
  6
CONTINUOUS
 62
     7
  5
35E
 10
-142.713251
 20
227.246233
 30
0.0
 11
-140.713251
 21
227.246233
 31
0.0
  0
LINE
  8
0
  6
CONTINUOUS
 62
     7
  5
35F
 10
-148.713251
 20
223.246233
 30
0.0
 11
-150.713251
 21
223.246233
 31
0.0
  0
LINE
  8
0
  6
CONTINUOUS
 62
     7
  5
360
 10
-150.713251
 20
227.246233
 30
0.0
 11
-148.713251
 21
227.246233
 31
0.0
  0
LINE
  8
0
  6
CONTINUOUS
 62
     7
  5
361
 10
-132.713251
 20
223.246233
 30
0.0
 11
-134.713251
 21
223.246233
 31
0.0
  0
LINE
  8
0
  6
CONTINUOUS
 62
     7
  5
362
 10
-134.713251
 20
227.246233
 30
0.0
 11
-132.713251
 21
227.246233
 31
0.0
  0
LINE
  8
0
  6
CONTINUOUS
 62
     7
  5
363
 10
-156.713251
 20
221.246233
 30
0.0
 11
-126.713251
 21
221.246233
 31
0.0
  0
LINE
  8
0
  6
CONTINUOUS
 62
     7
  5
364
 10
-156.713251
 20
223.246233
 30
0.0
 11
-156.713251
 21
221.246233
 31
0.0
  0
LINE
  8
0
  6
CONTINUOUS
 62
     7
  5
365
 10
-126.713251
 20
221.246233
 30
0.0
 11
-126.713251
 21
223.246233
 31
0.0
  0
LINE
  8
0
  6
CONTINUOUS
 62
     7
  5
366
 10
-160.713251
 20
224.246233
 30
0.0
 11
-156.713251
 21
224.246233
 31
0.0
  0
LINE
  8
0
  6
CONTINUOUS
 62
     7
  5
367
 10
-166.713251
 20
231.246233
 30
0.0
 11
-160.713251
 21
231.246233
 31
0.0
  0
LINE
  8
0
  6
CONTINUOUS
 62
     7
  5
368
 10
-160.713251
 20
224.246233
 30
0.0
 11
-160.713251
 21
231.246233
 31
0.0
  0
LINE
  8
0
  6
CONTINUOUS
 62
     7
  5
369
 10
-166.713251
 20
221.246233
 30
0.0
 11
-166.713251
 21
231.246233
 31
0.0
  0
LINE
  8
0
  6
CONTINUOUS
 62
     7
  5
36A
 10
-166.713251
 20
221.246233
 30
0.0
 11
-156.713251
 21
221.246233
 31
0.0
  0
LINE
  8
0
  6
CONTINUOUS
 62
     7
  5
36B
 10
-122.713251
 20
231.246233
 30
0.0
 11
-116.713251
 21
231.246233
 31
0.0
  0
LINE
  8
0
  6
CONTINUOUS
 62
     7
  5
36C
 10
-116.713251
 20
221.246233
 30
0.0
 11
-116.713251
 21
231.246233
 31
0.0
  0
LINE
  8
0
  6
CONTINUOUS
 62
     7
  5
36D
 10
-126.713251
 20
224.246233
 30
0.0
 11
-122.713251
 21
224.246233
 31
0.0
  0
LINE
  8
0
  6
CONTINUOUS
 62
     7
  5
36E
 10
-122.713251
 20
231.246233
 30
0.0
 11
-122.713251
 21
224.246233
 31
0.0
  0
LINE
  8
0
  6
CONTINUOUS
 62
     7
  5
36F
 10
-126.713251
 20
221.246233
 30
0.0
 11
-116.713251
 21
221.246233
 31
0.0
  0
LINE
  8
0
  6
CONTINUOUS
 62
     7
  5
370
 10
-160.713251
 20
235.771699
 30
0.0
 11
-163.708251
 21
235.771699
 31
0.0
  0
LINE
  8
0
  6
CONTINUOUS
 62
     7
  5
371
 10
-163.708251
 20
235.771699
 30
0.0
 11
-163.713251
 21
235.771699
 31
0.0
  0
LINE
  8
0
  6
CONTINUOUS
 62
     7
  5
372
 10
-160.713251
 20
231.246233
 30
0.0
 11
-160.713251
 21
235.771699
 31
0.0
  0
LINE
  8
0
  6
CONTINUOUS
 62
     7
  5
373
 10
-163.713251
 20
235.734931
 30
0.0
 11
-166.713251
 21
235.734931
 31
0.0
  0
LINE
  8
0
  6
CONTINUOUS
 62
     7
  5
374
 10
-163.713251
 20
235.771699
 30
0.0
 11
-163.713251
 21
235.734931
 31
0.0
  0
LINE
  8
0
  6
CONTINUOUS
 62
     7
  5
375
 10
-166.713251
 20
231.246233
 30
0.0
 11
-166.713251
 21
235.734931
 31
0.0
  0
LINE
  8
0
  6
CONTINUOUS
 62
     7
  5
376
 10
-116.713251
 20
235.734931
 30
0.0
 11
-119.713251
 21
235.734931
 31
0.0
  0
LINE
  8
0
  6
CONTINUOUS
 62
     7
  5
377
 10
-119.713251
 20
235.771699
 30
0.0
 11
-119.718251
 21
235.771699
 31
0.0
  0
LINE
  8
0
  6
CONTINUOUS
 62
     7
  5
378
 10
-119.718251
 20
235.771699
 30
0.0
 11
-122.713251
 21
235.771699
 31
0.0
  0
LINE
  8
0
  6
CONTINUOUS
 62
     7
  5
379
 10
-119.713251
 20
235.734931
 30
0.0
 11
-119.713251
 21
235.771699
 31
0.0
  0
LINE
  8
0
  6
CONTINUOUS
 62
     7
  5
37A
 10
-122.713251
 20
235.771699
 30
0.0
 11
-122.713251
 21
231.246233
 31
0.0
  0
LINE
  8
0
  6
CONTINUOUS
 62
     7
  5
37B
 10
-116.713251
 20
231.246233
 30
0.0
 11
-116.713251
 21
235.734931
 31
0.0
  0
LINE
  8
0
  6
CONTINUOUS
 62
     7
  5
37C
 10
-59.713251
 20
221.246233
 30
0.0
 11
-116.713251
 21
221.246233
 31
0.0
  0
ARC
  8
0
  6
CONTINUOUS
 62
     7
  5
37D
 10
-59.713251
 20
214.246233
 30
0.0
 40
7.0
 50
0.0
 51
90.0
210
0.0
220
0.0
230
1.0
  0
LINE
  8
0
  6
CONTINUOUS
 62
     7
  5
37E
 10
-52.713251
 20
214.246233
 30
0.0
 11
-52.713251
 21
51.246233
 31
0.0
  0
LINE
  8
0
  6
CONTINUOUS
 62
     7
  5
37F
 10
-57.713251
 20
51.246233
 30
0.0
 11
-52.713251
 21
51.246233
 31
0.0
  0
LINE
  8
0
  6
CONTINUOUS
 62
     7
  5
380
 10
-57.713251
 20
51.246233
 30
0.0
 11
-57.713251
 21
214.246233
 31
0.0
  0
ARC
  8
0
  6
CONTINUOUS
 62
     7
  5
381
 10
-59.713251
 20
214.246233
 30
0.0
 40
2.0
 50
360.0
 51
90.0
210
0.0
220
0.0
230
1.0
  0
LINE
  8
0
  6
CONTINUOUS
 62
     7
  5
382
 10
-59.713251
 20
216.246233
 30
0.0
 11
-165.713251
 21
216.246233
 31
0.0
  0
LINE
  8
0
  6
CONTINUOUS
 62
     7
  5
383
 10
-165.713251
 20
221.246233
 30
0.0
 11
-165.713251
 21
216.246233
 31
0.0
  0
LINE
  8
0
  6
CONTINUOUS
 62
     7
  5
384
 10
-46.713251
 20
65.246233
 30
0.0
 11
-46.713251
 21
75.246233
 31
0.0
  0
LINE
  8
0
  6
CONTINUOUS
 62
     7
  5
385
 10
-46.713251
 20
52.246233
 30
0.0
 11
-46.713251
 21
62.246233
 31
0.0
  0
LINE
  8
0
  6
CONTINUOUS
 62
     7
  5
386
 10
-64.213251
 20
60.246233
 30
0.0
 11
-64.213251
 21
54.246233
 31
0.0
  0
LINE
  8
0
  6
CONTINUOUS
 62
     7
  5
387
 10
-64.713251
 20
54.746233
 30
0.0
 11
-64.713251
 21
59.746233
 31
0.0
  0
LINE
  8
0
  6
CONTINUOUS
 62
     7
  5
388
 10
-64.713251
 20
67.746233
 30
0.0
 11
-64.713251
 21
72.746233
 31
0.0
  0
LINE
  8
0
  6
CONTINUOUS
 62
     7
  5
389
 10
-64.213251
 20
73.246233
 30
0.0
 11
-64.213251
 21
67.246233
 31
0.0
  0
LINE
  8
0
  6
CONTINUOUS
 62
     7
  5
38A
 10
-122.713251
 20
246.246233
 30
0.0
 11
-122.713251
 21
235.771699
 31
0.0
  0
LINE
  8
0
  6
CONTINUOUS
 62
     7
  5
38B
 10
-119.713251
 20
235.771699
 30
0.0
 11
-119.713251
 21
245.731536
 31
0.0
  0
LINE
  8
0
  6
CONTINUOUS
 62
     7
  5
38C
 10
-119.713251
 20
245.731536
 30
0.0
 11
-119.713251
 21
246.246233
 31
0.0
  0
LINE
  8
0
  6
CONTINUOUS
 62
     7
  5
38D
 10
-163.713251
 20
246.246233
 30
0.0
 11
-163.713251
 21
245.731536
 31
0.0
  0
LINE
  8
0
  6
CONTINUOUS
 62
     7
  5
38E
 10
-163.713251
 20
245.731536
 30
0.0
 11
-163.713251
 21
235.771699
 31
0.0
  0
LINE
  8
0
  6
CONTINUOUS
 62
     7
  5
38F
 10
-160.713251
 20
235.771699
 30
0.0
 11
-160.713251
 21
246.246233
 31
0.0
  0
LINE
  8
0
  6
CONTINUOUS
 62
     7
  5
390
 10
-116.713251
 20
100.475433
 30
0.0
 11
-117.113251
 21
100.475433
 31
0.0
  0
LINE
  8
0
  6
CONTINUOUS
 62
     7
  5
391
 10
-166.313251
 20
100.475433
 30
0.0
 11
-166.713251
 21
100.475433
 31
0.0
  0
LINE
  8
0
  6
CONTINUOUS
 62
     7
  5
392
 10
-166.313251
 20
128.711551
 30
0.0
 11
-166.713251
 21
128.711551
 31
0.0
  0
LINE
  8
0
  6
CONTINUOUS
 62
     7
  5
393
 10
-116.713251
 20
128.711551
 30
0.0
 11
-117.113251
 21
128.711551
 31
0.0
  0
LINE
  8
0
  6
CONTINUOUS
 62
     7
  5
394
 10
-116.713251
 20
121.211551
 30
0.0
 11
-117.113251
 21
121.211551
 31
0.0
  0
LINE
  8
0
  6
CONTINUOUS
 62
     7
  5
395
 10
-166.313251
 20
121.211551
 30
0.0
 11
-166.713251
 21
121.211551
 31
0.0
  0
LINE
  8
0
  6
CONTINUOUS
 62
     7
  5
396
 10
-117.113251
 20
111.211551
 30
0.0
 11
-116.713251
 21
111.211551
 31
0.0
  0
LINE
  8
0
  6
CONTINUOUS
 62
     7
  5
397
 10
-166.713251
 20
111.211551
 30
0.0
 11
-166.313251
 21
111.211551
 31
0.0
  0
LINE
  8
0
  6
CONTINUOUS
 62
     7
  5
398
 10
-116.713251
 20
156.638747
 30
0.0
 11
-117.113251
 21
156.638747
 31
0.0
  0
LINE
  8
0
  6
CONTINUOUS
 62
     7
  5
399
 10
-166.313251
 20
156.638747
 30
0.0
 11
-166.713251
 21
156.638747
 31
0.0
  0
LINE
  8
0
  6
CONTINUOUS
 62
     7
  5
39A
 10
-166.313251
 20
187.138482
 30
0.0
 11
-166.713251
 21
187.138482
 31
0.0
  0
LINE
  8
0
  6
CONTINUOUS
 62
     7
  5
39B
 10
-116.713251
 20
187.138482
 30
0.0
 11
-117.113251
 21
187.138482
 31
0.0
  0
LINE
  8
0
  6
CONTINUOUS
 62
     7
  5
39C
 10
-116.713251
 20
215.16678
 30
0.0
 11
-117.113251
 21
215.16678
 31
0.0
  0
LINE
  8
0
  6
CONTINUOUS
 62
     7
  5
39D
 10
-166.313251
 20
215.16678
 30
0.0
 11
-166.713251
 21
215.16678
 31
0.0
  0
LINE
  8
0
  6
CONTINUOUS
 62
     7
  5
39E
 10
-117.113251
 20
169.638482
 30
0.0
 11
-116.713251
 21
169.638482
 31
0.0
  0
LINE
  8
0
  6
CONTINUOUS
 62
     7
  5
39F
 10
-166.713251
 20
169.638482
 30
0.0
 11
-166.313251
 21
169.638482
 31
0.0
  0
LINE
  8
0
  6
CONTINUOUS
 62
     7
  5
3A0
 10
-116.713251
 20
179.638482
 30
0.0
 11
-117.113251
 21
179.638482
 31
0.0
  0
LINE
  8
0
  6
CONTINUOUS
 62
     7
  5
3A1
 10
-166.313251
 20
179.638482
 30
0.0
 11
-166.713251
 21
179.638482
 31
0.0
  0
LINE
  8
0
  6
CONTINUOUS
 62
     7
  5
3A2
 10
-166.713251
 20
197.66678
 30
0.0
 11
-166.313251
 21
197.66678
 31
0.0
  0
LINE
  8
0
  6
CONTINUOUS
 62
     7
  5
3A3
 10
-117.113251
 20
197.66678
 30
0.0
 11
-116.713251
 21
197.66678
 31
0.0
  0
LINE
  8
0
  6
CONTINUOUS
 62
     7
  5
3A4
 10
-166.713251
 20
218.588381
 30
0.0
 11
-166.313251
 21
218.588381
 31
0.0
  0
LINE
  8
0
  6
CONTINUOUS
 62
     7
  5
3A5
 10
-122.713251
 20
211.088381
 30
0.0
 11
-119.718251
 21
211.088381
 31
0.0
  0
LINE
  8
0
  6
CONTINUOUS
 62
     7
  5
3A6
 10
-163.708251
 20
211.088381
 30
0.0
 11
-160.713251
 21
211.088381
 31
0.0
  0
LINE
  8
0
  6
CONTINUOUS
 62
     7
  5
3A7
 10
-117.113251
 20
107.975433
 30
0.0
 11
-119.713251
 21
107.975433
 31
0.0
  0
LINE
  8
0
  6
CONTINUOUS
 62
     7
  5
3A8
 10
-163.713251
 20
107.975433
 30
0.0
 11
-166.313251
 21
107.975433
 31
0.0
  0
LINE
  8
0
  6
CONTINUOUS
 62
     7
  5
3A9
 10
-116.713251
 20
96.246233
 30
0.0
 11
-119.713251
 21
96.246233
 31
0.0
  0
LINE
  8
0
  6
CONTINUOUS
 62
     7
  5
3AA
 10
-163.713251
 20
96.246233
 30
0.0
 11
-166.713251
 21
96.246233
 31
0.0
  0
LINE
  8
0
  6
CONTINUOUS
 62
     7
  5
3AB
 10
-52.713251
 20
65.246233
 30
0.0
 11
-46.713251
 21
65.246233
 31
0.0
  0
LINE
  8
0
  6
CONTINUOUS
 62
     7
  5
3AC
 10
-46.713251
 20
75.246233
 30
0.0
 11
-52.713251
 21
75.246233
 31
0.0
  0
LINE
  8
0
  6
CONTINUOUS
 62
     7
  5
3AD
 10
-52.713251
 20
52.246233
 30
0.0
 11
-46.713251
 21
52.246233
 31
0.0
  0
LINE
  8
0
  6
CONTINUOUS
 62
     7
  5
3AE
 10
-46.713251
 20
62.246233
 30
0.0
 11
-52.713251
 21
62.246233
 31
0.0
  0
LINE
  8
0
  6
CONTINUOUS
 62
     7
  5
3AF
 10
-57.713251
 20
60.246233
 30
0.0
 11
-64.213251
 21
60.246233
 31
0.0
  0
LINE
  8
0
  6
CONTINUOUS
 62
     7
  5
3B0
 10
-64.213251
 20
54.246233
 30
0.0
 11
-57.713251
 21
54.246233
 31
0.0
  0
LINE
  8
0
  6
CONTINUOUS
 62
     7
  5
3B1
 10
-64.213251
 20
60.246233
 30
0.0
 11
-64.713251
 21
59.746233
 31
0.0
  0
LINE
  8
0
  6
CONTINUOUS
 62
     7
  5
3B2
 10
-64.713251
 20
54.746233
 30
0.0
 11
-64.213251
 21
54.246233
 31
0.0
  0
LINE
  8
0
  6
CONTINUOUS
 62
     7
  5
3B3
 10
-64.213251
 20
73.246233
 30
0.0
 11
-64.713251
 21
72.746233
 31
0.0
  0
LINE
  8
0
  6
CONTINUOUS
 62
     7
  5
3B4
 10
-64.713251
 20
67.746233
 30
0.0
 11
-64.213251
 21
67.246233
 31
0.0
  0
LINE
  8
0
  6
CONTINUOUS
 62
     7
  5
3B5
 10
-57.713251
 20
73.246233
 30
0.0
 11
-64.213251
 21
73.246233
 31
0.0
  0
LINE
  8
0
  6
CONTINUOUS
 62
     7
  5
3B6
 10
-64.213251
 20
67.246233
 30
0.0
 11
-57.713251
 21
67.246233
 31
0.0
  0
LINE
  8
0
  6
CONTINUOUS
 62
     7
  5
3B7
 10
-119.713251
 20
246.246233
 30
0.0
 11
-122.713251
 21
246.246233
 31
0.0
  0
LINE
  8
0
  6
CONTINUOUS
 62
     7
  5
3B8
 10
-160.713251
 20
246.246233
 30
0.0
 11
-163.713251
 21
246.246233
 31
0.0
  0
ENDBLK
  8
0
  5
3B9
  0
BLOCK
  8
0
  5
3BC
  2
AID1833
 70
     0
 10
0.0
 20
0.0
 30
0.0
  3
#auxiliary draft view
  0
LINE
  8
0
  6
CONTINUOUS
 62
     7
  5
3BD
 10
612.395975
 20
242.846233
 30
0.0
 11
574.395975
 21
242.846233
 31
0.0
  0
LINE
  8
0
  6
CONTINUOUS
 62
     7
  5
3BE
 10
571.395975
 20
246.443319
 30
0.0
 11
571.395975
 21
246.421988
 31
0.0
  0
LINE
  8
0
  6
CONTINUOUS
 62
     7
  5
3BF
 10
571.395975
 20
246.421988
 30
0.0
 11
571.395975
 21
245.983048
 31
0.0
  0
LINE
  8
0
  6
CONTINUOUS
 62
     7
  5
3C0
 10
574.395975
 20
243.148171
 30
0.0
 11
574.395975
 21
246.443319
 31
0.0
  0
LINE
  8
0
  6
CONTINUOUS
 62
     7
  5
3C1
 10
612.395975
 20
246.443319
 30
0.0
 11
612.395975
 21
243.148171
 31
0.0
  0
LINE
  8
0
  6
CONTINUOUS
 62
     7
  5
3C2
 10
615.395975
 20
245.983048
 30
0.0
 11
615.395975
 21
246.421988
 31
0.0
  0
LINE
  8
0
  6
CONTINUOUS
 62
     7
  5
3C3
 10
615.395975
 20
246.421988
 30
0.0
 11
615.395975
 21
246.443319
 31
0.0
  0
LINE
  8
0
  6
CONTINUOUS
 62
     7
  5
3C4
 10
568.395975
 20
236.088381
 30
0.0
 11
568.395975
 21
238.943319
 31
0.0
  0
LINE
  8
0
  6
CONTINUOUS
 62
     7
  5
3C5
 10
618.395975
 20
238.943319
 30
0.0
 11
618.395975
 21
236.088381
 31
0.0
  0
LINE
  8
0
  6
CONTINUOUS
 62
     7
  5
3C6
 10
571.395975
 20
246.743051
 30
0.0
 11
574.395975
 21
246.743051
 31
0.0
  0
LINE
  8
0
  6
CONTINUOUS
 62
     7
  5
3C7
 10
571.395975
 20
246.743051
 30
0.0
 11
571.395975
 21
246.443319
 31
0.0
  0
LINE
  8
0
  6
CONTINUOUS
 62
     7
  5
3C8
 10
574.395975
 20
246.443319
 30
0.0
 11
574.395975
 21
246.743051
 31
0.0
  0
LINE
  8
0
  6
CONTINUOUS
 62
     7
  5
3C9
 10
612.395975
 20
246.743051
 30
0.0
 11
615.395975
 21
246.743051
 31
0.0
  0
LINE
  8
0
  6
CONTINUOUS
 62
     7
  5
3CA
 10
612.395975
 20
246.743051
 30
0.0
 11
612.395975
 21
246.443319
 31
0.0
  0
LINE
  8
0
  6
CONTINUOUS
 62
     7
  5
3CB
 10
615.395975
 20
246.443319
 30
0.0
 11
615.395975
 21
246.743051
 31
0.0
  0
LINE
  8
0
  6
CONTINUOUS
 62
     7
  5
3CC
 10
617.995975
 20
246.443319
 30
0.0
 11
617.995975
 21
246.689095
 31
0.0
  0
LINE
  8
0
  6
CONTINUOUS
 62
     7
  5
3CD
 10
615.395975
 20
246.689095
 30
0.0
 11
617.995975
 21
246.689095
 31
0.0
  0
LINE
  8
0
  6
CONTINUOUS
 62
     7
  5
3CE
 10
568.795975
 20
246.689095
 30
0.0
 11
568.795975
 21
246.443319
 31
0.0
  0
LINE
  8
0
  6
CONTINUOUS
 62
     7
  5
3CF
 10
568.795975
 20
246.689095
 30
0.0
 11
571.395975
 21
246.689095
 31
0.0
  0
LINE
  8
0
  6
CONTINUOUS
 62
     7
  5
3D0
 10
612.395975
 20
242.986588
 30
0.0
 11
574.395975
 21
242.986588
 31
0.0
  0
LINE
  8
0
  6
CONTINUOUS
 62
     7
  5
3D1
 10
612.395975
 20
246.386517
 30
0.0
 11
574.395975
 21
246.386517
 31
0.0
  0
LINE
  8
0
  6
CONTINUOUS
 62
     7
  5
3D2
 10
574.395975
 20
242.90421
 30
0.0
 11
612.395975
 21
242.90421
 31
0.0
  0
LINE
  8
0
  6
CONTINUOUS
 62
     7
  5
3D3
 10
568.395975
 20
112.249194
 30
0.0
 11
568.395975
 21
128.711551
 31
0.0
  0
LINE
  8
0
  6
CONTINUOUS
 62
     7
  5
3D4
 10
571.400975
 20
109.835915
 30
0.0
 11
571.400975
 21
111.066128
 31
0.0
  0
LINE
  8
0
  6
CONTINUOUS
 62
     7
  5
3D5
 10
571.395975
 20
109.835915
 30
0.0
 11
571.400975
 21
109.835915
 31
0.0
  0
LINE
  8
0
  6
CONTINUOUS
 62
     7
  5
3D6
 10
571.395975
 20
107.044924
 30
0.0
 11
571.395975
 21
109.835915
 31
0.0
  0
LINE
  8
0
  6
CONTINUOUS
 62
     7
  5
3D7
 10
568.795975
 20
107.044924
 30
0.0
 11
571.395975
 21
107.044924
 31
0.0
  0
LINE
  8
0
  6
CONTINUOUS
 62
     7
  5
3D8
 10
568.795975
 20
112.249194
 30
0.0
 11
568.795975
 21
107.044924
 31
0.0
  0
LINE
  8
0
  6
CONTINUOUS
 62
     7
  5
3D9
 10
568.395975
 20
112.249194
 30
0.0
 11
568.795975
 21
112.249194
 31
0.0
  0
LINE
  8
0
  6
CONTINUOUS
 62
     7
  5
3DA
 10
615.390975
 20
111.066128
 30
0.0
 11
615.390975
 21
109.835915
 31
0.0
  0
LINE
  8
0
  6
CONTINUOUS
 62
     7
  5
3DB
 10
617.995975
 20
112.249194
 30
0.0
 11
618.395975
 21
112.249194
 31
0.0
  0
LINE
  8
0
  6
CONTINUOUS
 62
     7
  5
3DC
 10
617.995975
 20
107.044924
 30
0.0
 11
617.995975
 21
112.249194
 31
0.0
  0
LINE
  8
0
  6
CONTINUOUS
 62
     7
  5
3DD
 10
615.395975
 20
107.044924
 30
0.0
 11
617.995975
 21
107.044924
 31
0.0
  0
LINE
  8
0
  6
CONTINUOUS
 62
     7
  5
3DE
 10
615.395975
 20
109.835915
 30
0.0
 11
615.395975
 21
107.044924
 31
0.0
  0
LINE
  8
0
  6
CONTINUOUS
 62
     7
  5
3DF
 10
615.390975
 20
109.835915
 30
0.0
 11
615.395975
 21
109.835915
 31
0.0
  0
LINE
  8
0
  6
CONTINUOUS
 62
     7
  5
3E0
 10
618.395975
 20
112.249194
 30
0.0
 11
618.395975
 21
128.711551
 31
0.0
  0
LINE
  8
0
  6
CONTINUOUS
 62
     7
  5
3E1
 10
568.795975
 20
106.824925
 30
0.0
 11
571.395975
 21
106.824925
 31
0.0
  0
LINE
  8
0
  6
CONTINUOUS
 62
     7
  5
3E2
 10
574.395975
 20
101.147988
 30
0.0
 11
571.395975
 21
101.147988
 31
0.0
  0
LINE
  8
0
  6
CONTINUOUS
 62
     7
  5
3E3
 10
574.395975
 20
86.088807
 30
0.0
 11
574.395975
 21
101.147988
 31
0.0
  0
LINE
  8
0
  6
CONTINUOUS
 62
     7
  5
3E4
 10
571.395975
 20
86.088807
 30
0.0
 11
574.395975
 21
86.088807
 31
0.0
  0
LINE
  8
0
  6
CONTINUOUS
 62
     7
  5
3E5
 10
571.395975
 20
91.765744
 30
0.0
 11
571.395975
 21
86.088807
 31
0.0
  0
LINE
  8
0
  6
CONTINUOUS
 62
     7
  5
3E6
 10
568.795975
 20
91.765744
 30
0.0
 11
571.395975
 21
91.765744
 31
0.0
  0
LINE
  8
0
  6
CONTINUOUS
 62
     7
  5
3E7
 10
571.395975
 20
101.147988
 30
0.0
 11
571.395975
 21
106.824925
 31
0.0
  0
LINE
  8
0
  6
CONTINUOUS
 62
     7
  5
3E8
 10
568.795975
 20
106.824925
 30
0.0
 11
568.795975
 21
91.765744
 31
0.0
  0
LINE
  8
0
  6
CONTINUOUS
 62
     7
  5
3E9
 10
615.395975
 20
91.765744
 30
0.0
 11
617.995975
 21
91.765744
 31
0.0
  0
LINE
  8
0
  6
CONTINUOUS
 62
     7
  5
3EA
 10
615.395975
 20
86.088807
 30
0.0
 11
615.395975
 21
91.765744
 31
0.0
  0
LINE
  8
0
  6
CONTINUOUS
 62
     7
  5
3EB
 10
612.395975
 20
86.088807
 30
0.0
 11
615.395975
 21
86.088807
 31
0.0
  0
LINE
  8
0
  6
CONTINUOUS
 62
     7
  5
3EC
 10
612.395975
 20
101.147988
 30
0.0
 11
612.395975
 21
86.088807
 31
0.0
  0
LINE
  8
0
  6
CONTINUOUS
 62
     7
  5
3ED
 10
615.395975
 20
101.147988
 30
0.0
 11
612.395975
 21
101.147988
 31
0.0
  0
LINE
  8
0
  6
CONTINUOUS
 62
     7
  5
3EE
 10
615.395975
 20
106.824925
 30
0.0
 11
617.995975
 21
106.824925
 31
0.0
  0
LINE
  8
0
  6
CONTINUOUS
 62
     7
  5
3EF
 10
615.395975
 20
106.824925
 30
0.0
 11
615.395975
 21
101.147988
 31
0.0
  0
LINE
  8
0
  6
CONTINUOUS
 62
     7
  5
3F0
 10
617.995975
 20
91.765744
 30
0.0
 11
617.995975
 21
106.824925
 31
0.0
  0
LINE
  8
0
  6
CONTINUOUS
 62
     7
  5
3F1
 10
571.395975
 20
106.824925
 30
0.0
 11
571.395975
 21
107.044924
 31
0.0
  0
LINE
  8
0
  6
CONTINUOUS
 62
     7
  5
3F2
 10
568.795975
 20
107.044924
 30
0.0
 11
568.795975
 21
106.824925
 31
0.0
  0
LINE
  8
0
  6
CONTINUOUS
 62
     7
  5
3F3
 10
615.395975
 20
107.044924
 30
0.0
 11
615.395975
 21
106.824925
 31
0.0
  0
LINE
  8
0
  6
CONTINUOUS
 62
     7
  5
3F4
 10
617.995975
 20
106.824925
 30
0.0
 11
617.995975
 21
107.044924
 31
0.0
  0
LINE
  8
0
  6
CONTINUOUS
 62
     7
  5
3F5
 10
574.395975
 20
103.420272
 30
0.0
 11
574.395975
 21
101.147988
 31
0.0
  0
LINE
  8
0
  6
CONTINUOUS
 62
     7
  5
3F6
 10
571.400975
 20
103.420272
 30
0.0
 11
574.395975
 21
103.420272
 31
0.0
  0
LINE
  8
0
  6
CONTINUOUS
 62
     7
  5
3F7
 10
612.395975
 20
103.420272
 30
0.0
 11
615.390975
 21
103.420272
 31
0.0
  0
LINE
  8
0
  6
CONTINUOUS
 62
     7
  5
3F8
 10
612.395975
 20
101.147988
 30
0.0
 11
612.395975
 21
103.420272
 31
0.0
  0
LINE
  8
0
  6
CONTINUOUS
 62
     7
  5
3F9
 10
612.395975
 20
101.096038
 30
0.0
 11
574.395975
 21
101.096038
 31
0.0
  0
LINE
  8
0
  6
CONTINUOUS
 62
     7
  5
3FA
 10
612.395975
 20
103.411716
 30
0.0
 11
574.395975
 21
103.411716
 31
0.0
  0
LINE
  8
0
  6
CONTINUOUS
 62
     7
  5
3FB
 10
612.395975
 20
92.257693
 30
0.0
 11
574.395975
 21
92.257693
 31
0.0
  0
LINE
  8
0
  6
CONTINUOUS
 62
     7
  5
3FC
 10
574.395975
 20
103.418259
 30
0.0
 11
612.395975
 21
103.418259
 31
0.0
  0
LINE
  8
0
  6
CONTINUOUS
 62
     7
  5
3FD
 10
612.395975
 20
103.711551
 30
0.0
 11
612.395975
 21
103.420272
 31
0.0
  0
LINE
  8
0
  6
CONTINUOUS
 62
     7
  5
3FE
 10
574.395975
 20
103.420272
 30
0.0
 11
574.395975
 21
103.711551
 31
0.0
  0
LINE
  8
0
  6
CONTINUOUS
 62
     7
  5
3FF
 10
615.395975
 20
83.936703
 30
0.0
 11
615.395975
 21
85.777021
 31
0.0
  0
LINE
  8
0
  6
CONTINUOUS
 62
     7
  5
400
 10
615.395975
 20
85.777021
 30
0.0
 11
615.395975
 21
86.088807
 31
0.0
  0
LINE
  8
0
  6
CONTINUOUS
 62
     7
  5
401
 10
612.395975
 20
86.088807
 30
0.0
 11
612.395975
 21
82.975433
 31
0.0
  0
LINE
  8
0
  6
CONTINUOUS
 62
     7
  5
402
 10
574.395975
 20
82.975433
 30
0.0
 11
574.395975
 21
86.088807
 31
0.0
  0
LINE
  8
0
  6
CONTINUOUS
 62
     7
  5
403
 10
571.395975
 20
86.088807
 30
0.0
 11
571.395975
 21
85.777021
 31
0.0
  0
LINE
  8
0
  6
CONTINUOUS
 62
     7
  5
404
 10
571.395975
 20
85.777021
 30
0.0
 11
571.395975
 21
83.936703
 31
0.0
  0
LINE
  8
0
  6
CONTINUOUS
 62
     7
  5
405
 10
612.395975
 20
116.463073
 30
0.0
 11
597.610335
 21
116.463073
 31
0.0
  0
LINE
  8
0
  6
CONTINUOUS
 62
     7
  5
406
 10
597.610335
 20
116.463073
 30
0.0
 11
593.610335
 21
114.769519
 31
0.0
  0
LINE
  8
0
  6
CONTINUOUS
 62
     7
  5
407
 10
593.610335
 20
114.769519
 30
0.0
 11
590.395975
 21
114.769519
 31
0.0
  0
LINE
  8
0
  6
CONTINUOUS
 62
     7
  5
408
 10
590.395975
 20
115.356183
 30
0.0
 11
593.395975
 21
115.356183
 31
0.0
  0
LINE
  8
0
  6
CONTINUOUS
 62
     7
  5
409
 10
593.395975
 20
115.356183
 30
0.0
 11
597.395975
 21
117.049737
 31
0.0
  0
LINE
  8
0
  6
CONTINUOUS
 62
     7
  5
40A
 10
597.395975
 20
117.049737
 30
0.0
 11
612.395975
 21
117.049737
 31
0.0
  0
LINE
  8
0
  6
CONTINUOUS
 62
     7
  5
40B
 10
590.395975
 20
114.769519
 30
0.0
 11
590.395975
 21
115.356183
 31
0.0
  0
LINE
  8
0
  6
CONTINUOUS
 62
     7
  5
40C
 10
593.610335
 20
110.690283
 30
0.0
 11
593.610335
 21
114.769519
 31
0.0
  0
LINE
  8
0
  6
CONTINUOUS
 62
     7
  5
40D
 10
590.395975
 20
110.690283
 30
0.0
 11
593.610335
 21
110.690283
 31
0.0
  0
LINE
  8
0
  6
CONTINUOUS
 62
     7
  5
40E
 10
590.395975
 20
110.690283
 30
0.0
 11
590.395975
 21
114.769519
 31
0.0
  0
LINE
  8
0
  6
CONTINUOUS
 62
     7
  5
40F
 10
597.610335
 20
112.383836
 30
0.0
 11
597.610335
 21
116.463073
 31
0.0
  0
LINE
  8
0
  6
CONTINUOUS
 62
     7
  5
410
 10
593.610335
 20
110.690283
 30
0.0
 11
597.610335
 21
112.383836
 31
0.0
  0
LINE
  8
0
  6
CONTINUOUS
 62
     7
  5
411
 10
597.610335
 20
112.383836
 30
0.0
 11
612.395975
 21
112.383836
 31
0.0
  0
LINE
  8
0
  6
CONTINUOUS
 62
     7
  5
412
 10
574.395975
 20
116.463073
 30
0.0
 11
592.395975
 21
116.463073
 31
0.0
  0
LINE
  8
0
  6
CONTINUOUS
 62
     7
  5
413
 10
592.395975
 20
117.049737
 30
0.0
 11
574.395975
 21
117.049737
 31
0.0
  0
LINE
  8
0
  6
CONTINUOUS
 62
     7
  5
414
 10
592.395975
 20
116.463073
 30
0.0
 11
592.395975
 21
117.049737
 31
0.0
  0
LINE
  8
0
  6
CONTINUOUS
 62
     7
  5
415
 10
590.395975
 20
112.383836
 30
0.0
 11
574.395975
 21
112.383836
 31
0.0
  0
LINE
  8
0
  6
CONTINUOUS
 62
     7
  5
416
 10
592.395975
 20
116.463073
 30
0.0
 11
592.395975
 21
115.356183
 31
0.0
  0
LINE
  8
0
  6
CONTINUOUS
 62
     7
  5
417
 10
615.390975
 20
144.085466
 30
0.0
 11
615.390975
 21
142.571363
 31
0.0
  0
LINE
  8
0
  6
CONTINUOUS
 62
     7
  5
418
 10
618.395975
 20
145.224499
 30
0.0
 11
618.395975
 21
156.638747
 31
0.0
  0
LINE
  8
0
  6
CONTINUOUS
 62
     7
  5
419
 10
617.995975
 20
145.224499
 30
0.0
 11
618.395975
 21
145.224499
 31
0.0
  0
LINE
  8
0
  6
CONTINUOUS
 62
     7
  5
41A
 10
617.995975
 20
139.11392
 30
0.0
 11
617.995975
 21
145.224499
 31
0.0
  0
LINE
  8
0
  6
CONTINUOUS
 62
     7
  5
41B
 10
615.395975
 20
139.11392
 30
0.0
 11
617.995975
 21
139.11392
 31
0.0
  0
LINE
  8
0
  6
CONTINUOUS
 62
     7
  5
41C
 10
615.395975
 20
142.571363
 30
0.0
 11
615.395975
 21
139.11392
 31
0.0
  0
LINE
  8
0
  6
CONTINUOUS
 62
     7
  5
41D
 10
615.390975
 20
142.571363
 30
0.0
 11
615.395975
 21
142.571363
 31
0.0
  0
LINE
  8
0
  6
CONTINUOUS
 62
     7
  5
41E
 10
568.395975
 20
145.224499
 30
0.0
 11
568.395975
 21
156.638747
 31
0.0
  0
LINE
  8
0
  6
CONTINUOUS
 62
     7
  5
41F
 10
571.400975
 20
142.571363
 30
0.0
 11
571.400975
 21
144.085466
 31
0.0
  0
LINE
  8
0
  6
CONTINUOUS
 62
     7
  5
420
 10
571.395975
 20
142.571363
 30
0.0
 11
571.400975
 21
142.571363
 31
0.0
  0
LINE
  8
0
  6
CONTINUOUS
 62
     7
  5
421
 10
571.395975
 20
139.11392
 30
0.0
 11
571.395975
 21
142.571363
 31
0.0
  0
LINE
  8
0
  6
CONTINUOUS
 62
     7
  5
422
 10
568.795975
 20
139.11392
 30
0.0
 11
571.395975
 21
139.11392
 31
0.0
  0
LINE
  8
0
  6
CONTINUOUS
 62
     7
  5
423
 10
568.795975
 20
145.224499
 30
0.0
 11
568.795975
 21
139.11392
 31
0.0
  0
LINE
  8
0
  6
CONTINUOUS
 62
     7
  5
424
 10
568.395975
 20
145.224499
 30
0.0
 11
568.795975
 21
145.224499
 31
0.0
  0
LINE
  8
0
  6
CONTINUOUS
 62
     7
  5
425
 10
568.795975
 20
138.993324
 30
0.0
 11
571.395975
 21
138.993324
 31
0.0
  0
LINE
  8
0
  6
CONTINUOUS
 62
     7
  5
426
 10
574.395975
 20
131.347682
 30
0.0
 11
571.395975
 21
131.347682
 31
0.0
  0
LINE
  8
0
  6
CONTINUOUS
 62
     7
  5
427
 10
574.395975
 20
111.066128
 30
0.0
 11
574.395975
 21
131.347682
 31
0.0
  0
LINE
  8
0
  6
CONTINUOUS
 62
     7
  5
428
 10
571.395975
 20
111.066128
 30
0.0
 11
574.395975
 21
111.066128
 31
0.0
  0
LINE
  8
0
  6
CONTINUOUS
 62
     7
  5
429
 10
571.395975
 20
118.711771
 30
0.0
 11
571.395975
 21
111.066128
 31
0.0
  0
LINE
  8
0
  6
CONTINUOUS
 62
     7
  5
42A
 10
568.795975
 20
118.711771
 30
0.0
 11
571.395975
 21
118.711771
 31
0.0
  0
LINE
  8
0
  6
CONTINUOUS
 62
     7
  5
42B
 10
571.395975
 20
131.347682
 30
0.0
 11
571.395975
 21
138.993324
 31
0.0
  0
LINE
  8
0
  6
CONTINUOUS
 62
     7
  5
42C
 10
568.795975
 20
138.993324
 30
0.0
 11
568.795975
 21
118.711771
 31
0.0
  0
LINE
  8
0
  6
CONTINUOUS
 62
     7
  5
42D
 10
615.395975
 20
138.993324
 30
0.0
 11
617.995975
 21
138.993324
 31
0.0
  0
LINE
  8
0
  6
CONTINUOUS
 62
     7
  5
42E
 10
615.395975
 20
139.11392
 30
0.0
 11
615.395975
 21
138.993324
 31
0.0
  0
LINE
  8
0
  6
CONTINUOUS
 62
     7
  5
42F
 10
617.995975
 20
138.993324
 30
0.0
 11
617.995975
 21
139.11392
 31
0.0
  0
LINE
  8
0
  6
CONTINUOUS
 62
     7
  5
430
 10
615.395975
 20
118.711771
 30
0.0
 11
617.995975
 21
118.711771
 31
0.0
  0
LINE
  8
0
  6
CONTINUOUS
 62
     7
  5
431
 10
615.395975
 20
111.066128
 30
0.0
 11
615.395975
 21
118.711771
 31
0.0
  0
LINE
  8
0
  6
CONTINUOUS
 62
     7
  5
432
 10
612.395975
 20
111.066128
 30
0.0
 11
615.395975
 21
111.066128
 31
0.0
  0
LINE
  8
0
  6
CONTINUOUS
 62
     7
  5
433
 10
612.395975
 20
131.347682
 30
0.0
 11
612.395975
 21
111.066128
 31
0.0
  0
LINE
  8
0
  6
CONTINUOUS
 62
     7
  5
434
 10
615.395975
 20
131.347682
 30
0.0
 11
612.395975
 21
131.347682
 31
0.0
  0
LINE
  8
0
  6
CONTINUOUS
 62
     7
  5
435
 10
615.395975
 20
138.993324
 30
0.0
 11
615.395975
 21
131.347682
 31
0.0
  0
LINE
  8
0
  6
CONTINUOUS
 62
     7
  5
436
 10
617.995975
 20
118.711771
 30
0.0
 11
617.995975
 21
138.993324
 31
0.0
  0
LINE
  8
0
  6
CONTINUOUS
 62
     7
  5
437
 10
571.395975
 20
138.993324
 30
0.0
 11
571.395975
 21
139.11392
 31
0.0
  0
LINE
  8
0
  6
CONTINUOUS
 62
     7
  5
438
 10
568.795975
 20
139.11392
 30
0.0
 11
568.795975
 21
138.993324
 31
0.0
  0
LINE
  8
0
  6
CONTINUOUS
 62
     7
  5
439
 10
612.395975
 20
132.593269
 30
0.0
 11
615.390975
 21
132.593269
 31
0.0
  0
LINE
  8
0
  6
CONTINUOUS
 62
     7
  5
43A
 10
612.395975
 20
131.347682
 30
0.0
 11
612.395975
 21
132.593269
 31
0.0
  0
LINE
  8
0
  6
CONTINUOUS
 62
     7
  5
43B
 10
571.400975
 20
132.593269
 30
0.0
 11
574.395975
 21
132.593269
 31
0.0
  0
LINE
  8
0
  6
CONTINUOUS
 62
     7
  5
43C
 10
574.395975
 20
132.593269
 30
0.0
 11
574.395975
 21
131.347682
 31
0.0
  0
LINE
  8
0
  6
CONTINUOUS
 62
     7
  5
43D
 10
612.395975
 20
131.10202
 30
0.0
 11
574.395975
 21
131.10202
 31
0.0
  0
LINE
  8
0
  6
CONTINUOUS
 62
     7
  5
43E
 10
612.395975
 20
132.371394
 30
0.0
 11
574.395975
 21
132.371394
 31
0.0
  0
LINE
  8
0
  6
CONTINUOUS
 62
     7
  5
43F
 10
612.395975
 20
119.198625
 30
0.0
 11
574.395975
 21
119.198625
 31
0.0
  0
LINE
  8
0
  6
CONTINUOUS
 62
     7
  5
440
 10
615.395975
 20
107.014162
 30
0.0
 11
615.395975
 21
109.835915
 31
0.0
  0
LINE
  8
0
  6
CONTINUOUS
 62
     7
  5
441
 10
615.395975
 20
109.835915
 30
0.0
 11
615.395975
 21
111.066128
 31
0.0
  0
LINE
  8
0
  6
CONTINUOUS
 62
     7
  5
442
 10
612.395975
 20
111.066128
 30
0.0
 11
612.395975
 21
103.711551
 31
0.0
  0
LINE
  8
0
  6
CONTINUOUS
 62
     7
  5
443
 10
574.395975
 20
103.711551
 30
0.0
 11
574.395975
 21
111.066128
 31
0.0
  0
LINE
  8
0
  6
CONTINUOUS
 62
     7
  5
444
 10
571.395975
 20
111.066128
 30
0.0
 11
571.395975
 21
109.835915
 31
0.0
  0
LINE
  8
0
  6
CONTINUOUS
 62
     7
  5
445
 10
571.395975
 20
109.835915
 30
0.0
 11
571.395975
 21
107.014162
 31
0.0
  0
LINE
  8
0
  6
CONTINUOUS
 62
     7
  5
446
 10
618.395975
 20
112.249194
 30
0.0
 11
618.395975
 21
111.211551
 31
0.0
  0
LINE
  8
0
  6
CONTINUOUS
 62
     7
  5
447
 10
568.395975
 20
111.211551
 30
0.0
 11
568.395975
 21
112.249194
 31
0.0
  0
LINE
  8
0
  6
CONTINUOUS
 62
     7
  5
448
 10
597.610335
 20
132.371394
 30
0.0
 11
597.610335
 21
137.625324
 31
0.0
  0
LINE
  8
0
  6
CONTINUOUS
 62
     7
  5
449
 10
593.610335
 20
132.371394
 30
0.0
 11
593.610335
 21
136.696976
 31
0.0
  0
LINE
  8
0
  6
CONTINUOUS
 62
     7
  5
44A
 10
597.610335
 20
137.625324
 30
0.0
 11
593.610335
 21
136.696976
 31
0.0
  0
LINE
  8
0
  6
CONTINUOUS
 62
     7
  5
44B
 10
612.395975
 20
137.625324
 30
0.0
 11
597.610335
 21
137.625324
 31
0.0
  0
LINE
  8
0
  6
CONTINUOUS
 62
     7
  5
44C
 10
593.610335
 20
136.696976
 30
0.0
 11
590.395975
 21
136.696976
 31
0.0
  0
LINE
  8
0
  6
CONTINUOUS
 62
     7
  5
44D
 10
590.395975
 20
136.696976
 30
0.0
 11
590.395975
 21
137.018565
 31
0.0
  0
LINE
  8
0
  6
CONTINUOUS
 62
     7
  5
44E
 10
590.395975
 20
137.018565
 30
0.0
 11
593.395975
 21
137.018565
 31
0.0
  0
LINE
  8
0
  6
CONTINUOUS
 62
     7
  5
44F
 10
593.395975
 20
137.018565
 30
0.0
 11
597.395975
 21
137.946913
 31
0.0
  0
LINE
  8
0
  6
CONTINUOUS
 62
     7
  5
450
 10
597.395975
 20
137.946913
 30
0.0
 11
612.395975
 21
137.946913
 31
0.0
  0
LINE
  8
0
  6
CONTINUOUS
 62
     7
  5
451
 10
590.395975
 20
132.371394
 30
0.0
 11
590.395975
 21
136.696976
 31
0.0
  0
LINE
  8
0
  6
CONTINUOUS
 62
     7
  5
452
 10
574.395975
 20
137.625324
 30
0.0
 11
592.395975
 21
137.625324
 31
0.0
  0
LINE
  8
0
  6
CONTINUOUS
 62
     7
  5
453
 10
592.395975
 20
137.625324
 30
0.0
 11
592.395975
 21
137.018565
 31
0.0
  0
LINE
  8
0
  6
CONTINUOUS
 62
     7
  5
454
 10
592.395975
 20
137.946913
 30
0.0
 11
574.395975
 21
137.946913
 31
0.0
  0
LINE
  8
0
  6
CONTINUOUS
 62
     7
  5
455
 10
592.395975
 20
137.625324
 30
0.0
 11
592.395975
 21
137.946913
 31
0.0
  0
LINE
  8
0
  6
CONTINUOUS
 62
     7
  5
456
 10
568.795975
 20
174.585202
 30
0.0
 11
571.395975
 21
174.585202
 31
0.0
  0
LINE
  8
0
  6
CONTINUOUS
 62
     7
  5
457
 10
571.395975
 20
166.235274
 30
0.0
 11
571.395975
 21
174.585202
 31
0.0
  0
LINE
  8
0
  6
CONTINUOUS
 62
     7
  5
458
 10
574.395975
 20
166.235274
 30
0.0
 11
571.395975
 21
166.235274
 31
0.0
  0
LINE
  8
0
  6
CONTINUOUS
 62
     7
  5
459
 10
574.395975
 20
144.085466
 30
0.0
 11
574.395975
 21
166.235274
 31
0.0
  0
LINE
  8
0
  6
CONTINUOUS
 62
     7
  5
45A
 10
571.395975
 20
144.085466
 30
0.0
 11
574.395975
 21
144.085466
 31
0.0
  0
LINE
  8
0
  6
CONTINUOUS
 62
     7
  5
45B
 10
571.395975
 20
152.435394
 30
0.0
 11
571.395975
 21
144.085466
 31
0.0
  0
LINE
  8
0
  6
CONTINUOUS
 62
     7
  5
45C
 10
568.795975
 20
152.435394
 30
0.0
 11
571.395975
 21
152.435394
 31
0.0
  0
LINE
  8
0
  6
CONTINUOUS
 62
     7
  5
45D
 10
568.795975
 20
174.585202
 30
0.0
 11
568.795975
 21
152.435394
 31
0.0
  0
LINE
  8
0
  6
CONTINUOUS
 62
     7
  5
45E
 10
568.795975
 20
174.586451
 30
0.0
 11
571.395975
 21
174.586451
 31
0.0
  0
LINE
  8
0
  6
CONTINUOUS
 62
     7
  5
45F
 10
571.395975
 20
174.585202
 30
0.0
 11
571.395975
 21
174.586451
 31
0.0
  0
LINE
  8
0
  6
CONTINUOUS
 62
     7
  5
460
 10
568.795975
 20
174.586451
 30
0.0
 11
568.795975
 21
174.585202
 31
0.0
  0
LINE
  8
0
  6
CONTINUOUS
 62
     7
  5
461
 10
615.395975
 20
152.435394
 30
0.0
 11
617.995975
 21
152.435394
 31
0.0
  0
LINE
  8
0
  6
CONTINUOUS
 62
     7
  5
462
 10
615.395975
 20
144.085466
 30
0.0
 11
615.395975
 21
152.435394
 31
0.0
  0
LINE
  8
0
  6
CONTINUOUS
 62
     7
  5
463
 10
612.395975
 20
144.085466
 30
0.0
 11
615.395975
 21
144.085466
 31
0.0
  0
LINE
  8
0
  6
CONTINUOUS
 62
     7
  5
464
 10
612.395975
 20
166.235274
 30
0.0
 11
612.395975
 21
144.085466
 31
0.0
  0
LINE
  8
0
  6
CONTINUOUS
 62
     7
  5
465
 10
615.395975
 20
166.235274
 30
0.0
 11
612.395975
 21
166.235274
 31
0.0
  0
LINE
  8
0
  6
CONTINUOUS
 62
     7
  5
466
 10
615.395975
 20
174.585202
 30
0.0
 11
615.395975
 21
166.235274
 31
0.0
  0
LINE
  8
0
  6
CONTINUOUS
 62
     7
  5
467
 10
615.395975
 20
174.585202
 30
0.0
 11
617.995975
 21
174.585202
 31
0.0
  0
LINE
  8
0
  6
CONTINUOUS
 62
     7
  5
468
 10
617.995975
 20
152.435394
 30
0.0
 11
617.995975
 21
174.585202
 31
0.0
  0
LINE
  8
0
  6
CONTINUOUS
 62
     7
  5
469
 10
615.395975
 20
174.586451
 30
0.0
 11
617.995975
 21
174.586451
 31
0.0
  0
LINE
  8
0
  6
CONTINUOUS
 62
     7
  5
46A
 10
617.995975
 20
174.585202
 30
0.0
 11
617.995975
 21
174.586451
 31
0.0
  0
LINE
  8
0
  6
CONTINUOUS
 62
     7
  5
46B
 10
615.395975
 20
174.586451
 30
0.0
 11
615.395975
 21
174.585202
 31
0.0
  0
LINE
  8
0
  6
CONTINUOUS
 62
     7
  5
46C
 10
571.400975
 20
166.248172
 30
0.0
 11
574.395975
 21
166.248172
 31
0.0
  0
LINE
  8
0
  6
CONTINUOUS
 62
     7
  5
46D
 10
574.395975
 20
166.248172
 30
0.0
 11
574.395975
 21
166.235274
 31
0.0
  0
LINE
  8
0
  6
CONTINUOUS
 62
     7
  5
46E
 10
612.395975
 20
166.248172
 30
0.0
 11
615.390975
 21
166.248172
 31
0.0
  0
LINE
  8
0
  6
CONTINUOUS
 62
     7
  5
46F
 10
612.395975
 20
166.235274
 30
0.0
 11
612.395975
 21
166.248172
 31
0.0
  0
LINE
  8
0
  6
CONTINUOUS
 62
     7
  5
470
 10
618.395975
 20
180.592784
 30
0.0
 11
618.395975
 21
187.138482
 31
0.0
  0
LINE
  8
0
  6
CONTINUOUS
 62
     7
  5
471
 10
617.995975
 20
180.592784
 30
0.0
 11
618.395975
 21
180.592784
 31
0.0
  0
LINE
  8
0
  6
CONTINUOUS
 62
     7
  5
472
 10
615.390975
 20
178.138562
 30
0.0
 11
615.395975
 21
178.138562
 31
0.0
  0
LINE
  8
0
  6
CONTINUOUS
 62
     7
  5
473
 10
617.995975
 20
174.586451
 30
0.0
 11
617.995975
 21
180.592784
 31
0.0
  0
LINE
  8
0
  6
CONTINUOUS
 62
     7
  5
474
 10
615.395975
 20
178.138562
 30
0.0
 11
615.395975
 21
174.586451
 31
0.0
  0
LINE
  8
0
  6
CONTINUOUS
 62
     7
  5
475
 10
568.395975
 20
180.592784
 30
0.0
 11
568.395975
 21
187.138482
 31
0.0
  0
LINE
  8
0
  6
CONTINUOUS
 62
     7
  5
476
 10
571.395975
 20
178.138562
 30
0.0
 11
571.400975
 21
178.138562
 31
0.0
  0
LINE
  8
0
  6
CONTINUOUS
 62
     7
  5
477
 10
568.395975
 20
180.592784
 30
0.0
 11
568.795975
 21
180.592784
 31
0.0
  0
LINE
  8
0
  6
CONTINUOUS
 62
     7
  5
478
 10
571.395975
 20
174.586451
 30
0.0
 11
571.395975
 21
178.138562
 31
0.0
  0
LINE
  8
0
  6
CONTINUOUS
 62
     7
  5
479
 10
568.795975
 20
180.592784
 30
0.0
 11
568.795975
 21
174.586451
 31
0.0
  0
LINE
  8
0
  6
CONTINUOUS
 62
     7
  5
47A
 10
612.395975
 20
165.836526
 30
0.0
 11
574.395975
 21
165.836526
 31
0.0
  0
LINE
  8
0
  6
CONTINUOUS
 62
     7
  5
47B
 10
612.395975
 20
165.849671
 30
0.0
 11
574.395975
 21
165.849671
 31
0.0
  0
LINE
  8
0
  6
CONTINUOUS
 62
     7
  5
47C
 10
612.395975
 20
152.836639
 30
0.0
 11
574.395975
 21
152.836639
 31
0.0
  0
LINE
  8
0
  6
CONTINUOUS
 62
     7
  5
47D
 10
615.395975
 20
138.993324
 30
0.0
 11
615.395975
 21
139.13879
 31
0.0
  0
LINE
  8
0
  6
CONTINUOUS
 62
     7
  5
47E
 10
615.395975
 20
139.13879
 30
0.0
 11
615.395975
 21
142.571363
 31
0.0
  0
LINE
  8
0
  6
CONTINUOUS
 62
     7
  5
47F
 10
615.395975
 20
142.571363
 30
0.0
 11
615.395975
 21
144.086715
 31
0.0
  0
LINE
  8
0
  6
CONTINUOUS
 62
     7
  5
480
 10
612.395975
 20
144.086715
 30
0.0
 11
612.395975
 21
132.593269
 31
0.0
  0
LINE
  8
0
  6
CONTINUOUS
 62
     7
  5
481
 10
574.395975
 20
132.593269
 30
0.0
 11
574.395975
 21
144.086715
 31
0.0
  0
LINE
  8
0
  6
CONTINUOUS
 62
     7
  5
482
 10
571.395975
 20
144.086715
 30
0.0
 11
571.395975
 21
142.571363
 31
0.0
  0
LINE
  8
0
  6
CONTINUOUS
 62
     7
  5
483
 10
571.395975
 20
142.571363
 30
0.0
 11
571.395975
 21
139.13879
 31
0.0
  0
LINE
  8
0
  6
CONTINUOUS
 62
     7
  5
484
 10
571.395975
 20
139.13879
 30
0.0
 11
571.395975
 21
138.993324
 31
0.0
  0
LINE
  8
0
  6
CONTINUOUS
 62
     7
  5
485
 10
568.395975
 20
139.138747
 30
0.0
 11
568.395975
 21
145.224499
 31
0.0
  0
LINE
  8
0
  6
CONTINUOUS
 62
     7
  5
486
 10
568.395975
 20
139.13879
 30
0.0
 11
568.795975
 21
139.13879
 31
0.0
  0
LINE
  8
0
  6
CONTINUOUS
 62
     7
  5
487
 10
618.395975
 20
145.224499
 30
0.0
 11
618.395975
 21
139.138747
 31
0.0
  0
LINE
  8
0
  6
CONTINUOUS
 62
     7
  5
488
 10
617.995975
 20
139.13879
 30
0.0
 11
618.395975
 21
139.13879
 31
0.0
  0
LINE
  8
0
  6
CONTINUOUS
 62
     7
  5
489
 10
574.395975
 20
166.235274
 30
0.0
 11
574.395975
 21
179.56785
 31
0.0
  0
LINE
  8
0
  6
CONTINUOUS
 62
     7
  5
48A
 10
571.395975
 20
179.56785
 30
0.0
 11
571.400975
 21
179.56785
 31
0.0
  0
LINE
  8
0
  6
CONTINUOUS
 62
     7
  5
48B
 10
571.400975
 20
179.56785
 30
0.0
 11
574.395975
 21
179.56785
 31
0.0
  0
LINE
  8
0
  6
CONTINUOUS
 62
     7
  5
48C
 10
571.395975
 20
179.56785
 30
0.0
 11
571.395975
 21
178.138562
 31
0.0
  0
LINE
  8
0
  6
CONTINUOUS
 62
     7
  5
48D
 10
571.395975
 20
178.138562
 30
0.0
 11
571.395975
 21
174.586451
 31
0.0
  0
LINE
  8
0
  6
CONTINUOUS
 62
     7
  5
48E
 10
615.395975
 20
174.586451
 30
0.0
 11
615.395975
 21
178.138562
 31
0.0
  0
LINE
  8
0
  6
CONTINUOUS
 62
     7
  5
48F
 10
615.395975
 20
178.138562
 30
0.0
 11
615.395975
 21
179.56785
 31
0.0
  0
LINE
  8
0
  6
CONTINUOUS
 62
     7
  5
490
 10
612.395975
 20
179.56785
 30
0.0
 11
615.390975
 21
179.56785
 31
0.0
  0
LINE
  8
0
  6
CONTINUOUS
 62
     7
  5
491
 10
615.390975
 20
179.56785
 30
0.0
 11
615.395975
 21
179.56785
 31
0.0
  0
LINE
  8
0
  6
CONTINUOUS
 62
     7
  5
492
 10
612.395975
 20
179.56785
 30
0.0
 11
612.395975
 21
166.248172
 31
0.0
  0
LINE
  8
0
  6
CONTINUOUS
 62
     7
  5
493
 10
571.395975
 20
179.686155
 30
0.0
 11
574.395975
 21
179.686155
 31
0.0
  0
LINE
  8
0
  6
CONTINUOUS
 62
     7
  5
494
 10
571.395975
 20
179.686155
 30
0.0
 11
571.395975
 21
179.56785
 31
0.0
  0
LINE
  8
0
  6
CONTINUOUS
 62
     7
  5
495
 10
574.395975
 20
179.56785
 30
0.0
 11
574.395975
 21
179.686155
 31
0.0
  0
LINE
  8
0
  6
CONTINUOUS
 62
     7
  5
496
 10
612.395975
 20
179.686155
 30
0.0
 11
615.395975
 21
179.686155
 31
0.0
  0
LINE
  8
0
  6
CONTINUOUS
 62
     7
  5
497
 10
615.395975
 20
179.56785
 30
0.0
 11
615.395975
 21
179.686155
 31
0.0
  0
LINE
  8
0
  6
CONTINUOUS
 62
     7
  5
498
 10
612.395975
 20
179.686155
 30
0.0
 11
612.395975
 21
179.56785
 31
0.0
  0
LINE
  8
0
  6
CONTINUOUS
 62
     7
  5
499
 10
615.395975
 20
187.359476
 30
0.0
 11
617.995975
 21
187.359476
 31
0.0
  0
LINE
  8
0
  6
CONTINUOUS
 62
     7
  5
49A
 10
615.395975
 20
200.041132
 30
0.0
 11
612.395975
 21
200.041132
 31
0.0
  0
LINE
  8
0
  6
CONTINUOUS
 62
     7
  5
49B
 10
615.395975
 20
207.714452
 30
0.0
 11
615.395975
 21
200.041132
 31
0.0
  0
LINE
  8
0
  6
CONTINUOUS
 62
     7
  5
49C
 10
615.395975
 20
207.714452
 30
0.0
 11
617.995975
 21
207.714452
 31
0.0
  0
LINE
  8
0
  6
CONTINUOUS
 62
     7
  5
49D
 10
617.995975
 20
187.359476
 30
0.0
 11
617.995975
 21
207.714452
 31
0.0
  0
LINE
  8
0
  6
CONTINUOUS
 62
     7
  5
49E
 10
615.395975
 20
179.686155
 30
0.0
 11
615.395975
 21
187.359476
 31
0.0
  0
LINE
  8
0
  6
CONTINUOUS
 62
     7
  5
49F
 10
612.395975
 20
200.041132
 30
0.0
 11
612.395975
 21
179.686155
 31
0.0
  0
LINE
  8
0
  6
CONTINUOUS
 62
     7
  5
4A0
 10
568.795975
 20
207.714452
 30
0.0
 11
571.395975
 21
207.714452
 31
0.0
  0
LINE
  8
0
  6
CONTINUOUS
 62
     7
  5
4A1
 10
571.395975
 20
200.041132
 30
0.0
 11
571.395975
 21
207.714452
 31
0.0
  0
LINE
  8
0
  6
CONTINUOUS
 62
     7
  5
4A2
 10
574.395975
 20
200.041132
 30
0.0
 11
571.395975
 21
200.041132
 31
0.0
  0
LINE
  8
0
  6
CONTINUOUS
 62
     7
  5
4A3
 10
568.795975
 20
187.359476
 30
0.0
 11
571.395975
 21
187.359476
 31
0.0
  0
LINE
  8
0
  6
CONTINUOUS
 62
     7
  5
4A4
 10
568.795975
 20
207.714452
 30
0.0
 11
568.795975
 21
187.359476
 31
0.0
  0
LINE
  8
0
  6
CONTINUOUS
 62
     7
  5
4A5
 10
571.395975
 20
187.359476
 30
0.0
 11
571.395975
 21
179.686155
 31
0.0
  0
LINE
  8
0
  6
CONTINUOUS
 62
     7
  5
4A6
 10
574.395975
 20
179.686155
 30
0.0
 11
574.395975
 21
200.041132
 31
0.0
  0
LINE
  8
0
  6
CONTINUOUS
 62
     7
  5
4A7
 10
568.795975
 20
186.137551
 30
0.0
 11
571.395975
 21
186.137551
 31
0.0
  0
LINE
  8
0
  6
CONTINUOUS
 62
     7
  5
4A8
 10
568.795975
 20
187.359476
 30
0.0
 11
568.795975
 21
186.137551
 31
0.0
  0
LINE
  8
0
  6
CONTINUOUS
 62
     7
  5
4A9
 10
617.995975
 20
186.137551
 30
0.0
 11
615.395975
 21
186.137551
 31
0.0
  0
LINE
  8
0
  6
CONTINUOUS
 62
     7
  5
4AA
 10
617.995975
 20
186.137551
 30
0.0
 11
617.995975
 21
187.359476
 31
0.0
  0
LINE
  8
0
  6
CONTINUOUS
 62
     7
  5
4AB
 10
612.395975
 20
186.267967
 30
0.0
 11
574.395975
 21
186.267967
 31
0.0
  0
LINE
  8
0
  6
CONTINUOUS
 62
     7
  5
4AC
 10
612.395975
 20
187.608755
 30
0.0
 11
574.395975
 21
187.608755
 31
0.0
  0
LINE
  8
0
  6
CONTINUOUS
 62
     7
  5
4AD
 10
612.395975
 20
199.555243
 30
0.0
 11
574.395975
 21
199.555243
 31
0.0
  0
LINE
  8
0
  6
CONTINUOUS
 62
     7
  5
4AE
 10
618.395975
 20
179.638482
 30
0.0
 11
618.395975
 21
170.043679
 31
0.0
  0
LINE
  8
0
  6
CONTINUOUS
 62
     9
  5
4AF
 10
617.995975
 20
170.043679
 30
0.0
 11
618.395975
 21
170.043679
 31
0.0
  0
LINE
  8
0
  6
CONTINUOUS
 62
     9
  5
4B0
 10
568.395975
 20
170.043679
 30
0.0
 11
568.795975
 21
170.043679
 31
0.0
  0
LINE
  8
0
  6
CONTINUOUS
 62
     7
  5
4B1
 10
568.395975
 20
170.043679
 30
0.0
 11
568.395975
 21
179.638482
 31
0.0
  0
LINE
  8
0
  6
CONTINUOUS
 62
     7
  5
4B2
 10
568.395975
 20
169.638482
 30
0.0
 11
568.395975
 21
170.043679
 31
0.0
  0
LINE
  8
0
  6
CONTINUOUS
 62
     7
  5
4B3
 10
618.395975
 20
170.043679
 30
0.0
 11
618.395975
 21
169.638482
 31
0.0
  0
LINE
  8
0
  6
CONTINUOUS
 62
     7
  5
4B4
 10
568.395975
 20
212.504922
 30
0.0
 11
568.395975
 21
215.16678
 31
0.0
  0
LINE
  8
0
  6
CONTINUOUS
 62
     7
  5
4B5
 10
571.395975
 20
210.655487
 30
0.0
 11
571.400975
 21
210.655487
 31
0.0
  0
LINE
  8
0
  6
CONTINUOUS
 62
     7
  5
4B6
 10
568.395975
 20
212.504922
 30
0.0
 11
568.795975
 21
212.504922
 31
0.0
  0
LINE
  8
0
  6
CONTINUOUS
 62
     7
  5
4B7
 10
571.395975
 20
207.714452
 30
0.0
 11
571.395975
 21
210.655487
 31
0.0
  0
LINE
  8
0
  6
CONTINUOUS
 62
     7
  5
4B8
 10
568.795975
 20
212.504922
 30
0.0
 11
568.795975
 21
207.714452
 31
0.0
  0
LINE
  8
0
  6
CONTINUOUS
 62
     7
  5
4B9
 10
618.395975
 20
212.504922
 30
0.0
 11
618.395975
 21
215.16678
 31
0.0
  0
LINE
  8
0
  6
CONTINUOUS
 62
     7
  5
4BA
 10
617.995975
 20
212.504922
 30
0.0
 11
618.395975
 21
212.504922
 31
0.0
  0
LINE
  8
0
  6
CONTINUOUS
 62
     7
  5
4BB
 10
615.390975
 20
210.655487
 30
0.0
 11
615.395975
 21
210.655487
 31
0.0
  0
LINE
  8
0
  6
CONTINUOUS
 62
     7
  5
4BC
 10
615.395975
 20
210.655487
 30
0.0
 11
615.395975
 21
207.714452
 31
0.0
  0
LINE
  8
0
  6
CONTINUOUS
 62
     7
  5
4BD
 10
617.995975
 20
207.714452
 30
0.0
 11
617.995975
 21
212.504922
 31
0.0
  0
LINE
  8
0
  6
CONTINUOUS
 62
     7
  5
4BE
 10
618.395975
 20
212.504922
 30
0.0
 11
618.395975
 21
207.66678
 31
0.0
  0
LINE
  8
0
  6
CONTINUOUS
 62
     7
  5
4BF
 10
568.395975
 20
207.66678
 30
0.0
 11
568.395975
 21
212.504922
 31
0.0
  0
LINE
  8
0
  6
CONTINUOUS
 62
     7
  5
4C0
 10
597.395975
 20
180.966381
 30
0.0
 11
593.395975
 21
181.877092
 31
0.0
  0
LINE
  8
0
  6
CONTINUOUS
 62
     7
  5
4C1
 10
593.395975
 20
181.877092
 30
0.0
 11
590.395975
 21
181.877092
 31
0.0
  0
LINE
  8
0
  6
CONTINUOUS
 62
     7
  5
4C2
 10
590.395975
 20
181.877092
 30
0.0
 11
590.395975
 21
182.192572
 31
0.0
  0
LINE
  8
0
  6
CONTINUOUS
 62
     7
  5
4C3
 10
590.395975
 20
182.192572
 30
0.0
 11
593.610335
 21
182.192572
 31
0.0
  0
LINE
  8
0
  6
CONTINUOUS
 62
     7
  5
4C4
 10
593.610335
 20
182.192572
 30
0.0
 11
597.610335
 21
181.281861
 31
0.0
  0
LINE
  8
0
  6
CONTINUOUS
 62
     7
  5
4C5
 10
597.610335
 20
181.281861
 30
0.0
 11
612.395975
 21
181.281861
 31
0.0
  0
LINE
  8
0
  6
CONTINUOUS
 62
     7
  5
4C6
 10
612.395975
 20
180.966381
 30
0.0
 11
597.395975
 21
180.966381
 31
0.0
  0
LINE
  8
0
  6
CONTINUOUS
 62
     7
  5
4C7
 10
593.610335
 20
182.192572
 30
0.0
 11
593.610335
 21
186.267967
 31
0.0
  0
LINE
  8
0
  6
CONTINUOUS
 62
     7
  5
4C8
 10
590.395975
 20
182.192572
 30
0.0
 11
590.395975
 21
186.267967
 31
0.0
  0
LINE
  8
0
  6
CONTINUOUS
 62
     7
  5
4C9
 10
597.610335
 20
181.281861
 30
0.0
 11
597.610335
 21
186.267967
 31
0.0
  0
LINE
  8
0
  6
CONTINUOUS
 62
     7
  5
4CA
 10
592.395975
 20
181.877092
 30
0.0
 11
592.395975
 21
181.281861
 31
0.0
  0
LINE
  8
0
  6
CONTINUOUS
 62
     7
  5
4CB
 10
592.395975
 20
181.281861
 30
0.0
 11
574.395975
 21
181.281861
 31
0.0
  0
LINE
  8
0
  6
CONTINUOUS
 62
     7
  5
4CC
 10
574.395975
 20
180.966381
 30
0.0
 11
592.395975
 21
180.966381
 31
0.0
  0
LINE
  8
0
  6
CONTINUOUS
 62
     7
  5
4CD
 10
592.395975
 20
180.966381
 30
0.0
 11
592.395975
 21
181.281861
 31
0.0
  0
LINE
  8
0
  6
CONTINUOUS
 62
     7
  5
4CE
 10
574.395975
 20
200.041132
 30
0.0
 11
574.395975
 21
211.762339
 31
0.0
  0
LINE
  8
0
  6
CONTINUOUS
 62
     7
  5
4CF
 10
571.395975
 20
211.762339
 30
0.0
 11
571.400975
 21
211.762339
 31
0.0
  0
LINE
  8
0
  6
CONTINUOUS
 62
     7
  5
4D0
 10
571.400975
 20
211.762339
 30
0.0
 11
574.395975
 21
211.762339
 31
0.0
  0
LINE
  8
0
  6
CONTINUOUS
 62
     7
  5
4D1
 10
571.395975
 20
211.762339
 30
0.0
 11
571.395975
 21
210.655487
 31
0.0
  0
LINE
  8
0
  6
CONTINUOUS
 62
     7
  5
4D2
 10
571.395975
 20
210.655487
 30
0.0
 11
571.395975
 21
207.714452
 31
0.0
  0
LINE
  8
0
  6
CONTINUOUS
 62
     7
  5
4D3
 10
615.395975
 20
207.714452
 30
0.0
 11
615.395975
 21
210.655487
 31
0.0
  0
LINE
  8
0
  6
CONTINUOUS
 62
     7
  5
4D4
 10
615.395975
 20
210.655487
 30
0.0
 11
615.395975
 21
211.762339
 31
0.0
  0
LINE
  8
0
  6
CONTINUOUS
 62
     7
  5
4D5
 10
612.395975
 20
211.762339
 30
0.0
 11
615.390975
 21
211.762339
 31
0.0
  0
LINE
  8
0
  6
CONTINUOUS
 62
     7
  5
4D6
 10
615.390975
 20
211.762339
 30
0.0
 11
615.395975
 21
211.762339
 31
0.0
  0
LINE
  8
0
  6
CONTINUOUS
 62
     7
  5
4D7
 10
612.395975
 20
211.762339
 30
0.0
 11
612.395975
 21
200.041132
 31
0.0
  0
LINE
  8
0
  6
CONTINUOUS
 62
     7
  5
4D8
 10
571.395975
 20
211.980633
 30
0.0
 11
574.395975
 21
211.980633
 31
0.0
  0
LINE
  8
0
  6
CONTINUOUS
 62
     7
  5
4D9
 10
571.395975
 20
211.980633
 30
0.0
 11
571.395975
 21
211.762339
 31
0.0
  0
LINE
  8
0
  6
CONTINUOUS
 62
     7
  5
4DA
 10
574.395975
 20
211.762339
 30
0.0
 11
574.395975
 21
211.980633
 31
0.0
  0
LINE
  8
0
  6
CONTINUOUS
 62
     7
  5
4DB
 10
615.395975
 20
217.70835
 30
0.0
 11
617.995975
 21
217.70835
 31
0.0
  0
LINE
  8
0
  6
CONTINUOUS
 62
     7
  5
4DC
 10
612.395975
 20
211.980633
 30
0.0
 11
615.395975
 21
211.980633
 31
0.0
  0
LINE
  8
0
  6
CONTINUOUS
 62
     7
  5
4DD
 10
615.395975
 20
227.174517
 30
0.0
 11
612.395975
 21
227.174517
 31
0.0
  0
LINE
  8
0
  6
CONTINUOUS
 62
     7
  5
4DE
 10
615.395975
 20
232.902234
 30
0.0
 11
615.395975
 21
227.174517
 31
0.0
  0
LINE
  8
0
  6
CONTINUOUS
 62
     7
  5
4DF
 10
615.395975
 20
232.902234
 30
0.0
 11
617.995975
 21
232.902234
 31
0.0
  0
LINE
  8
0
  6
CONTINUOUS
 62
     7
  5
4E0
 10
617.995975
 20
217.70835
 30
0.0
 11
617.995975
 21
232.902234
 31
0.0
  0
LINE
  8
0
  6
CONTINUOUS
 62
     7
  5
4E1
 10
615.395975
 20
211.980633
 30
0.0
 11
615.395975
 21
217.70835
 31
0.0
  0
LINE
  8
0
  6
CONTINUOUS
 62
     7
  5
4E2
 10
612.395975
 20
227.174517
 30
0.0
 11
612.395975
 21
211.980633
 31
0.0
  0
LINE
  8
0
  6
CONTINUOUS
 62
     7
  5
4E3
 10
615.395975
 20
211.762339
 30
0.0
 11
615.395975
 21
211.980633
 31
0.0
  0
LINE
  8
0
  6
CONTINUOUS
 62
     7
  5
4E4
 10
612.395975
 20
211.980633
 30
0.0
 11
612.395975
 21
211.762339
 31
0.0
  0
LINE
  8
0
  6
CONTINUOUS
 62
     7
  5
4E5
 10
568.795975
 20
232.902234
 30
0.0
 11
571.395975
 21
232.902234
 31
0.0
  0
LINE
  8
0
  6
CONTINUOUS
 62
     7
  5
4E6
 10
571.395975
 20
227.174517
 30
0.0
 11
571.395975
 21
232.902234
 31
0.0
  0
LINE
  8
0
  6
CONTINUOUS
 62
     7
  5
4E7
 10
574.395975
 20
227.174517
 30
0.0
 11
571.395975
 21
227.174517
 31
0.0
  0
LINE
  8
0
  6
CONTINUOUS
 62
     7
  5
4E8
 10
568.795975
 20
217.70835
 30
0.0
 11
571.395975
 21
217.70835
 31
0.0
  0
LINE
  8
0
  6
CONTINUOUS
 62
     7
  5
4E9
 10
568.795975
 20
232.902234
 30
0.0
 11
568.795975
 21
217.70835
 31
0.0
  0
LINE
  8
0
  6
CONTINUOUS
 62
     7
  5
4EA
 10
571.395975
 20
217.70835
 30
0.0
 11
571.395975
 21
211.980633
 31
0.0
  0
LINE
  8
0
  6
CONTINUOUS
 62
     7
  5
4EB
 10
574.395975
 20
211.980633
 30
0.0
 11
574.395975
 21
227.174517
 31
0.0
  0
LINE
  8
0
  6
CONTINUOUS
 62
     7
  5
4EC
 10
618.395975
 20
207.66678
 30
0.0
 11
618.395975
 21
199.237009
 31
0.0
  0
LINE
  8
0
  6
CONTINUOUS
 62
     9
  5
4ED
 10
617.995975
 20
199.237009
 30
0.0
 11
618.395975
 21
199.237009
 31
0.0
  0
LINE
  8
0
  6
CONTINUOUS
 62
     9
  5
4EE
 10
568.395975
 20
199.237009
 30
0.0
 11
568.795975
 21
199.237009
 31
0.0
  0
LINE
  8
0
  6
CONTINUOUS
 62
     7
  5
4EF
 10
568.395975
 20
199.237009
 30
0.0
 11
568.395975
 21
207.66678
 31
0.0
  0
LINE
  8
0
  6
CONTINUOUS
 62
     7
  5
4F0
 10
618.395975
 20
199.237009
 30
0.0
 11
618.395975
 21
197.66678
 31
0.0
  0
LINE
  8
0
  6
CONTINUOUS
 62
     7
  5
4F1
 10
568.395975
 20
197.66678
 30
0.0
 11
568.395975
 21
199.237009
 31
0.0
  0
LINE
  8
0
  6
CONTINUOUS
 62
     7
  5
4F2
 10
568.795975
 20
215.453682
 30
0.0
 11
571.395975
 21
215.453682
 31
0.0
  0
LINE
  8
0
  6
CONTINUOUS
 62
     7
  5
4F3
 10
568.795975
 20
217.70835
 30
0.0
 11
568.795975
 21
215.453682
 31
0.0
  0
LINE
  8
0
  6
CONTINUOUS
 62
     7
  5
4F4
 10
617.995975
 20
215.453682
 30
0.0
 11
615.395975
 21
215.453682
 31
0.0
  0
LINE
  8
0
  6
CONTINUOUS
 62
     7
  5
4F5
 10
617.995975
 20
215.453682
 30
0.0
 11
617.995975
 21
217.70835
 31
0.0
  0
LINE
  8
0
  6
CONTINUOUS
 62
     7
  5
4F6
 10
612.395975
 20
217.764438
 30
0.0
 11
574.395975
 21
217.764438
 31
0.0
  0
LINE
  8
0
  6
CONTINUOUS
 62
     7
  5
4F7
 10
612.395975
 20
226.681842
 30
0.0
 11
574.395975
 21
226.681842
 31
0.0
  0
LINE
  8
0
  6
CONTINUOUS
 62
     7
  5
4F8
 10
612.395975
 20
215.290446
 30
0.0
 11
574.395975
 21
215.290446
 31
0.0
  0
LINE
  8
0
  6
CONTINUOUS
 62
     7
  5
4F9
 10
568.795975
 20
215.16678
 30
0.0
 11
568.795975
 21
215.453682
 31
0.0
  0
LINE
  8
0
  6
CONTINUOUS
 62
     7
  5
4FA
 10
617.995975
 20
215.453682
 30
0.0
 11
617.995975
 21
215.16678
 31
0.0
  0
LINE
  8
0
  6
CONTINUOUS
 62
     7
  5
4FB
 10
618.395975
 20
235.683354
 30
0.0
 11
618.395975
 21
236.088381
 31
0.0
  0
LINE
  8
0
  6
CONTINUOUS
 62
     7
  5
4FC
 10
617.995975
 20
235.683354
 30
0.0
 11
618.395975
 21
235.683354
 31
0.0
  0
LINE
  8
0
  6
CONTINUOUS
 62
     7
  5
4FD
 10
615.390975
 20
234.744562
 30
0.0
 11
615.395975
 21
234.744562
 31
0.0
  0
LINE
  8
0
  6
CONTINUOUS
 62
     7
  5
4FE
 10
615.395975
 20
234.744562
 30
0.0
 11
615.395975
 21
232.902234
 31
0.0
  0
LINE
  8
0
  6
CONTINUOUS
 62
     7
  5
4FF
 10
617.995975
 20
232.902234
 30
0.0
 11
617.995975
 21
235.683354
 31
0.0
  0
LINE
  8
0
  6
CONTINUOUS
 62
     7
  5
500
 10
568.395975
 20
235.683354
 30
0.0
 11
568.395975
 21
236.088381
 31
0.0
  0
LINE
  8
0
  6
CONTINUOUS
 62
     7
  5
501
 10
571.395975
 20
234.744562
 30
0.0
 11
571.400975
 21
234.744562
 31
0.0
  0
LINE
  8
0
  6
CONTINUOUS
 62
     7
  5
502
 10
568.395975
 20
235.683354
 30
0.0
 11
568.795975
 21
235.683354
 31
0.0
  0
LINE
  8
0
  6
CONTINUOUS
 62
     7
  5
503
 10
571.395975
 20
232.902234
 30
0.0
 11
571.395975
 21
234.744562
 31
0.0
  0
LINE
  8
0
  6
CONTINUOUS
 62
     7
  5
504
 10
568.795975
 20
235.683354
 30
0.0
 11
568.795975
 21
232.902234
 31
0.0
  0
LINE
  8
0
  6
CONTINUOUS
 62
     7
  5
505
 10
597.395975
 20
201.974158
 30
0.0
 11
593.395975
 21
203.654582
 31
0.0
  0
LINE
  8
0
  6
CONTINUOUS
 62
     7
  5
506
 10
593.395975
 20
203.654582
 30
0.0
 11
590.395975
 21
203.654582
 31
0.0
  0
LINE
  8
0
  6
CONTINUOUS
 62
     7
  5
507
 10
590.395975
 20
204.236698
 30
0.0
 11
593.610335
 21
204.236698
 31
0.0
  0
LINE
  8
0
  6
CONTINUOUS
 62
     7
  5
508
 10
593.610335
 20
204.236698
 30
0.0
 11
597.610335
 21
202.556274
 31
0.0
  0
LINE
  8
0
  6
CONTINUOUS
 62
     7
  5
509
 10
597.610335
 20
202.556274
 30
0.0
 11
612.395975
 21
202.556274
 31
0.0
  0
LINE
  8
0
  6
CONTINUOUS
 62
     7
  5
50A
 10
612.395975
 20
201.974158
 30
0.0
 11
597.395975
 21
201.974158
 31
0.0
  0
LINE
  8
0
  6
CONTINUOUS
 62
     7
  5
50B
 10
590.395975
 20
203.654582
 30
0.0
 11
590.395975
 21
204.236698
 31
0.0
  0
LINE
  8
0
  6
CONTINUOUS
 62
     7
  5
50C
 10
593.610335
 20
204.236698
 30
0.0
 11
593.610335
 21
208.352423
 31
0.0
  0
LINE
  8
0
  6
CONTINUOUS
 62
     7
  5
50D
 10
593.610335
 20
208.352423
 30
0.0
 11
590.395975
 21
208.352423
 31
0.0
  0
LINE
  8
0
  6
CONTINUOUS
 62
     7
  5
50E
 10
590.395975
 20
204.236698
 30
0.0
 11
590.395975
 21
208.352423
 31
0.0
  0
LINE
  8
0
  6
CONTINUOUS
 62
     7
  5
50F
 10
597.610335
 20
202.556274
 30
0.0
 11
597.610335
 21
206.671999
 31
0.0
  0
LINE
  8
0
  6
CONTINUOUS
 62
     7
  5
510
 10
597.610335
 20
206.671999
 30
0.0
 11
593.610335
 21
208.352423
 31
0.0
  0
LINE
  8
0
  6
CONTINUOUS
 62
     7
  5
511
 10
574.395975
 20
206.671999
 30
0.0
 11
590.395975
 21
206.671999
 31
0.0
  0
LINE
  8
0
  6
CONTINUOUS
 62
     7
  5
512
 10
592.395975
 20
203.654582
 30
0.0
 11
592.395975
 21
202.556274
 31
0.0
  0
LINE
  8
0
  6
CONTINUOUS
 62
     7
  5
513
 10
592.395975
 20
202.556274
 30
0.0
 11
574.395975
 21
202.556274
 31
0.0
  0
LINE
  8
0
  6
CONTINUOUS
 62
     7
  5
514
 10
612.395975
 20
206.671999
 30
0.0
 11
597.610335
 21
206.671999
 31
0.0
  0
LINE
  8
0
  6
CONTINUOUS
 62
     7
  5
515
 10
574.395975
 20
201.974158
 30
0.0
 11
592.395975
 21
201.974158
 31
0.0
  0
LINE
  8
0
  6
CONTINUOUS
 62
     7
  5
516
 10
592.395975
 20
201.974158
 30
0.0
 11
592.395975
 21
202.556274
 31
0.0
  0
LINE
  8
0
  6
CONTINUOUS
 62
     7
  5
517
 10
568.395975
 20
228.588381
 30
0.0
 11
568.395975
 21
235.683354
 31
0.0
  0
LINE
  8
0
  6
CONTINUOUS
 62
     7
  5
518
 10
618.395975
 20
235.683354
 30
0.0
 11
618.395975
 21
228.588381
 31
0.0
  0
LINE
  8
0
  6
CONTINUOUS
 62
     7
  5
519
 10
574.395975
 20
227.174517
 30
0.0
 11
574.395975
 21
235.345929
 31
0.0
  0
LINE
  8
0
  6
CONTINUOUS
 62
     7
  5
51A
 10
571.395975
 20
235.345929
 30
0.0
 11
571.400975
 21
235.345929
 31
0.0
  0
LINE
  8
0
  6
CONTINUOUS
 62
     7
  5
51B
 10
571.400975
 20
235.345929
 30
0.0
 11
574.395975
 21
235.345929
 31
0.0
  0
LINE
  8
0
  6
CONTINUOUS
 62
     7
  5
51C
 10
571.395975
 20
235.345929
 30
0.0
 11
571.395975
 21
234.744562
 31
0.0
  0
LINE
  8
0
  6
CONTINUOUS
 62
     7
  5
51D
 10
571.395975
 20
234.744562
 30
0.0
 11
571.395975
 21
232.902234
 31
0.0
  0
LINE
  8
0
  6
CONTINUOUS
 62
     7
  5
51E
 10
615.395975
 20
232.902234
 30
0.0
 11
615.395975
 21
234.744562
 31
0.0
  0
LINE
  8
0
  6
CONTINUOUS
 62
     7
  5
51F
 10
615.395975
 20
234.744562
 30
0.0
 11
615.395975
 21
235.345929
 31
0.0
  0
LINE
  8
0
  6
CONTINUOUS
 62
     7
  5
520
 10
612.395975
 20
235.345929
 30
0.0
 11
612.395975
 21
227.174517
 31
0.0
  0
LINE
  8
0
  6
CONTINUOUS
 62
     7
  5
521
 10
612.395975
 20
235.345929
 30
0.0
 11
615.390975
 21
235.345929
 31
0.0
  0
LINE
  8
0
  6
CONTINUOUS
 62
     7
  5
522
 10
615.390975
 20
235.345929
 30
0.0
 11
615.395975
 21
235.345929
 31
0.0
  0
LINE
  8
0
  6
CONTINUOUS
 62
     7
  5
523
 10
568.395975
 20
221.89085
 30
0.0
 11
568.395975
 21
228.588381
 31
0.0
  0
LINE
  8
0
  6
CONTINUOUS
 62
     9
  5
524
 10
568.395975
 20
221.89085
 30
0.0
 11
568.795975
 21
221.89085
 31
0.0
  0
LINE
  8
0
  6
CONTINUOUS
 62
     7
  5
525
 10
618.395975
 20
228.588381
 30
0.0
 11
618.395975
 21
221.89085
 31
0.0
  0
LINE
  8
0
  6
CONTINUOUS
 62
     9
  5
526
 10
617.995975
 20
221.89085
 30
0.0
 11
618.395975
 21
221.89085
 31
0.0
  0
LINE
  8
0
  6
CONTINUOUS
 62
     7
  5
527
 10
568.395975
 20
218.588381
 30
0.0
 11
568.395975
 21
221.89085
 31
0.0
  0
LINE
  8
0
  6
CONTINUOUS
 62
     7
  5
528
 10
618.395975
 20
221.89085
 30
0.0
 11
618.395975
 21
218.588381
 31
0.0
  0
LINE
  8
0
  6
CONTINUOUS
 62
     7
  5
529
 10
571.395975
 20
235.62811
 30
0.0
 11
574.395975
 21
235.62811
 31
0.0
  0
LINE
  8
0
  6
CONTINUOUS
 62
     7
  5
52A
 10
574.395975
 20
235.345929
 30
0.0
 11
574.395975
 21
235.62811
 31
0.0
  0
LINE
  8
0
  6
CONTINUOUS
 62
     7
  5
52B
 10
571.395975
 20
235.62811
 30
0.0
 11
571.395975
 21
235.345929
 31
0.0
  0
LINE
  8
0
  6
CONTINUOUS
 62
     7
  5
52C
 10
612.395975
 20
235.62811
 30
0.0
 11
615.395975
 21
235.62811
 31
0.0
  0
LINE
  8
0
  6
CONTINUOUS
 62
     7
  5
52D
 10
612.395975
 20
235.62811
 30
0.0
 11
612.395975
 21
235.345929
 31
0.0
  0
LINE
  8
0
  6
CONTINUOUS
 62
     7
  5
52E
 10
615.395975
 20
235.345929
 30
0.0
 11
615.395975
 21
235.62811
 31
0.0
  0
LINE
  8
0
  6
CONTINUOUS
 62
     7
  5
52F
 10
615.395975
 20
238.462986
 30
0.0
 11
617.995975
 21
238.462986
 31
0.0
  0
LINE
  8
0
  6
CONTINUOUS
 62
     7
  5
530
 10
615.395975
 20
243.148171
 30
0.0
 11
612.395975
 21
243.148171
 31
0.0
  0
LINE
  8
0
  6
CONTINUOUS
 62
     7
  5
531
 10
615.395975
 20
245.983048
 30
0.0
 11
615.395975
 21
243.148171
 31
0.0
  0
LINE
  8
0
  6
CONTINUOUS
 62
     7
  5
532
 10
615.395975
 20
245.983048
 30
0.0
 11
617.995975
 21
245.983048
 31
0.0
  0
LINE
  8
0
  6
CONTINUOUS
 62
     7
  5
533
 10
617.995975
 20
238.462986
 30
0.0
 11
617.995975
 21
245.983048
 31
0.0
  0
LINE
  8
0
  6
CONTINUOUS
 62
     7
  5
534
 10
612.395975
 20
243.148171
 30
0.0
 11
612.395975
 21
235.62811
 31
0.0
  0
LINE
  8
0
  6
CONTINUOUS
 62
     7
  5
535
 10
615.395975
 20
235.62811
 30
0.0
 11
615.395975
 21
238.462986
 31
0.0
  0
LINE
  8
0
  6
CONTINUOUS
 62
     7
  5
536
 10
568.795975
 20
245.983048
 30
0.0
 11
571.395975
 21
245.983048
 31
0.0
  0
LINE
  8
0
  6
CONTINUOUS
 62
     7
  5
537
 10
571.395975
 20
243.148171
 30
0.0
 11
571.395975
 21
245.983048
 31
0.0
  0
LINE
  8
0
  6
CONTINUOUS
 62
     7
  5
538
 10
574.395975
 20
243.148171
 30
0.0
 11
571.395975
 21
243.148171
 31
0.0
  0
LINE
  8
0
  6
CONTINUOUS
 62
     7
  5
539
 10
568.795975
 20
238.462986
 30
0.0
 11
571.395975
 21
238.462986
 31
0.0
  0
LINE
  8
0
  6
CONTINUOUS
 62
     7
  5
53A
 10
568.795975
 20
245.983048
 30
0.0
 11
568.795975
 21
238.462986
 31
0.0
  0
LINE
  8
0
  6
CONTINUOUS
 62
     7
  5
53B
 10
574.395975
 20
235.62811
 30
0.0
 11
574.395975
 21
243.148171
 31
0.0
  0
LINE
  8
0
  6
CONTINUOUS
 62
     7
  5
53C
 10
571.395975
 20
238.462986
 30
0.0
 11
571.395975
 21
235.62811
 31
0.0
  0
LINE
  8
0
  6
CONTINUOUS
 62
     7
  5
53D
 10
568.795975
 20
238.462986
 30
0.0
 11
568.795975
 21
236.088381
 31
0.0
  0
LINE
  8
0
  6
CONTINUOUS
 62
     7
  5
53E
 10
617.995975
 20
236.088381
 30
0.0
 11
617.995975
 21
238.462986
 31
0.0
  0
LINE
  8
0
  6
CONTINUOUS
 62
     7
  5
53F
 10
612.395975
 20
235.118555
 30
0.0
 11
574.395975
 21
235.118555
 31
0.0
  0
LINE
  8
0
  6
CONTINUOUS
 62
     7
  5
540
 10
612.395975
 20
238.316608
 30
0.0
 11
574.395975
 21
238.316608
 31
0.0
  0
LINE
  8
0
  6
CONTINUOUS
 62
     7
  5
541
 10
612.395975
 20
242.730188
 30
0.0
 11
574.395975
 21
242.730188
 31
0.0
  0
LINE
  8
0
  6
CONTINUOUS
 62
     7
  5
542
 10
568.795975
 20
246.443319
 30
0.0
 11
568.795975
 21
245.983048
 31
0.0
  0
LINE
  8
0
  6
CONTINUOUS
 62
     7
  5
543
 10
571.400975
 20
246.421988
 30
0.0
 11
571.400975
 21
246.443319
 31
0.0
  0
LINE
  8
0
  6
CONTINUOUS
 62
     7
  5
544
 10
571.395975
 20
246.421988
 30
0.0
 11
571.400975
 21
246.421988
 31
0.0
  0
LINE
  8
0
  6
CONTINUOUS
 62
     7
  5
545
 10
568.395975
 20
246.294882
 30
0.0
 11
568.795975
 21
246.294882
 31
0.0
  0
LINE
  8
0
  6
CONTINUOUS
 62
     7
  5
546
 10
571.395975
 20
245.983048
 30
0.0
 11
571.395975
 21
246.421988
 31
0.0
  0
LINE
  8
0
  6
CONTINUOUS
 62
     7
  5
547
 10
615.390975
 20
246.443319
 30
0.0
 11
615.390975
 21
246.421988
 31
0.0
  0
LINE
  8
0
  6
CONTINUOUS
 62
     7
  5
548
 10
617.995975
 20
246.294882
 30
0.0
 11
618.395975
 21
246.294882
 31
0.0
  0
LINE
  8
0
  6
CONTINUOUS
 62
     7
  5
549
 10
615.390975
 20
246.421988
 30
0.0
 11
615.395975
 21
246.421988
 31
0.0
  0
LINE
  8
0
  6
CONTINUOUS
 62
     7
  5
54A
 10
615.395975
 20
246.421988
 30
0.0
 11
615.395975
 21
245.983048
 31
0.0
  0
LINE
  8
0
  6
CONTINUOUS
 62
     7
  5
54B
 10
617.995975
 20
245.983048
 30
0.0
 11
617.995975
 21
246.443319
 31
0.0
  0
LINE
  8
0
  6
CONTINUOUS
 62
     7
  5
54C
 10
618.395975
 20
246.294882
 30
0.0
 11
618.395975
 21
238.943319
 31
0.0
  0
LINE
  8
0
  6
CONTINUOUS
 62
     7
  5
54D
 10
568.395975
 20
238.943319
 30
0.0
 11
568.395975
 21
246.294882
 31
0.0
  0
LINE
  8
0
  6
CONTINUOUS
 62
     7
  5
54E
 10
615.390975
 20
86.088807
 30
0.0
 11
615.390975
 21
85.777021
 31
0.0
  0
LINE
  8
0
  6
CONTINUOUS
 62
     7
  5
54F
 10
618.395975
 20
107.90538
 30
0.0
 11
617.995975
 21
107.90538
 31
0.0
  0
LINE
  8
0
  6
CONTINUOUS
 62
     7
  5
550
 10
618.395975
 20
87.660253
 30
0.0
 11
618.395975
 21
107.90538
 31
0.0
  0
LINE
  8
0
  6
CONTINUOUS
 62
     7
  5
551
 10
617.995975
 20
87.660253
 30
0.0
 11
618.395975
 21
87.660253
 31
0.0
  0
LINE
  8
0
  6
CONTINUOUS
 62
     7
  5
552
 10
617.995975
 20
83.936703
 30
0.0
 11
617.995975
 21
87.660253
 31
0.0
  0
LINE
  8
0
  6
CONTINUOUS
 62
     7
  5
553
 10
615.395975
 20
83.936703
 30
0.0
 11
617.995975
 21
83.936703
 31
0.0
  0
LINE
  8
0
  6
CONTINUOUS
 62
     7
  5
554
 10
615.395975
 20
85.777021
 30
0.0
 11
615.395975
 21
83.936703
 31
0.0
  0
LINE
  8
0
  6
CONTINUOUS
 62
     7
  5
555
 10
615.390975
 20
85.777021
 30
0.0
 11
615.395975
 21
85.777021
 31
0.0
  0
LINE
  8
0
  6
CONTINUOUS
 62
     7
  5
556
 10
568.795975
 20
107.90538
 30
0.0
 11
568.395975
 21
107.90538
 31
0.0
  0
LINE
  8
0
  6
CONTINUOUS
 62
     7
  5
557
 10
571.395975
 20
85.777021
 30
0.0
 11
571.400975
 21
85.777021
 31
0.0
  0
LINE
  8
0
  6
CONTINUOUS
 62
     7
  5
558
 10
571.395975
 20
83.936703
 30
0.0
 11
571.395975
 21
85.777021
 31
0.0
  0
LINE
  8
0
  6
CONTINUOUS
 62
     7
  5
559
 10
568.795975
 20
83.936703
 30
0.0
 11
571.395975
 21
83.936703
 31
0.0
  0
LINE
  8
0
  6
CONTINUOUS
 62
     7
  5
55A
 10
568.795975
 20
87.660253
 30
0.0
 11
568.795975
 21
83.936703
 31
0.0
  0
LINE
  8
0
  6
CONTINUOUS
 62
     7
  5
55B
 10
568.395975
 20
87.660253
 30
0.0
 11
568.795975
 21
87.660253
 31
0.0
  0
LINE
  8
0
  6
CONTINUOUS
 62
     7
  5
55C
 10
571.400975
 20
85.777021
 30
0.0
 11
571.400975
 21
86.088807
 31
0.0
  0
LINE
  8
0
  6
CONTINUOUS
 62
     7
  5
55D
 10
568.395975
 20
87.660253
 30
0.0
 11
568.395975
 21
107.90538
 31
0.0
  0
LINE
  8
0
  6
CONTINUOUS
 62
     7
  5
55E
 10
615.395975
 20
83.659774
 30
0.0
 11
617.995975
 21
83.659774
 31
0.0
  0
LINE
  8
0
  6
CONTINUOUS
 62
     7
  5
55F
 10
615.395975
 20
83.936703
 30
0.0
 11
615.395975
 21
83.659774
 31
0.0
  0
LINE
  8
0
  6
CONTINUOUS
 62
     7
  5
560
 10
617.995975
 20
83.659774
 30
0.0
 11
617.995975
 21
83.936703
 31
0.0
  0
LINE
  8
0
  6
CONTINUOUS
 62
     7
  5
561
 10
615.395975
 20
75.141683
 30
0.0
 11
617.995975
 21
75.141683
 31
0.0
  0
LINE
  8
0
  6
CONTINUOUS
 62
     7
  5
562
 10
615.395975
 20
71.930574
 30
0.0
 11
615.395975
 21
75.141683
 31
0.0
  0
LINE
  8
0
  6
CONTINUOUS
 62
     7
  5
563
 10
612.395975
 20
71.930574
 30
0.0
 11
615.395975
 21
71.930574
 31
0.0
  0
LINE
  8
0
  6
CONTINUOUS
 62
     7
  5
564
 10
612.395975
 20
80.448665
 30
0.0
 11
612.395975
 21
71.930574
 31
0.0
  0
LINE
  8
0
  6
CONTINUOUS
 62
     7
  5
565
 10
615.395975
 20
80.448665
 30
0.0
 11
612.395975
 21
80.448665
 31
0.0
  0
LINE
  8
0
  6
CONTINUOUS
 62
     7
  5
566
 10
615.395975
 20
83.659774
 30
0.0
 11
615.395975
 21
80.448665
 31
0.0
  0
LINE
  8
0
  6
CONTINUOUS
 62
     7
  5
567
 10
617.995975
 20
75.141683
 30
0.0
 11
617.995975
 21
83.659774
 31
0.0
  0
LINE
  8
0
  6
CONTINUOUS
 62
     7
  5
568
 10
568.795975
 20
83.659774
 30
0.0
 11
571.395975
 21
83.659774
 31
0.0
  0
LINE
  8
0
  6
CONTINUOUS
 62
     7
  5
569
 10
571.395975
 20
83.659774
 30
0.0
 11
571.395975
 21
83.936703
 31
0.0
  0
LINE
  8
0
  6
CONTINUOUS
 62
     7
  5
56A
 10
568.795975
 20
83.936703
 30
0.0
 11
568.795975
 21
83.659774
 31
0.0
  0
LINE
  8
0
  6
CONTINUOUS
 62
     7
  5
56B
 10
574.395975
 20
80.448665
 30
0.0
 11
571.395975
 21
80.448665
 31
0.0
  0
LINE
  8
0
  6
CONTINUOUS
 62
     7
  5
56C
 10
574.395975
 20
71.930574
 30
0.0
 11
574.395975
 21
80.448665
 31
0.0
  0
LINE
  8
0
  6
CONTINUOUS
 62
     7
  5
56D
 10
571.395975
 20
71.930574
 30
0.0
 11
574.395975
 21
71.930574
 31
0.0
  0
LINE
  8
0
  6
CONTINUOUS
 62
     7
  5
56E
 10
571.395975
 20
75.141683
 30
0.0
 11
571.395975
 21
71.930574
 31
0.0
  0
LINE
  8
0
  6
CONTINUOUS
 62
     7
  5
56F
 10
568.795975
 20
75.141683
 30
0.0
 11
571.395975
 21
75.141683
 31
0.0
  0
LINE
  8
0
  6
CONTINUOUS
 62
     7
  5
570
 10
571.395975
 20
80.448665
 30
0.0
 11
571.395975
 21
83.659774
 31
0.0
  0
LINE
  8
0
  6
CONTINUOUS
 62
     7
  5
571
 10
568.795975
 20
83.659774
 30
0.0
 11
568.795975
 21
75.141683
 31
0.0
  0
LINE
  8
0
  6
CONTINUOUS
 62
     7
  5
572
 10
612.395975
 20
80.448665
 30
0.0
 11
612.395975
 21
82.975433
 31
0.0
  0
LINE
  8
0
  6
CONTINUOUS
 62
     7
  5
573
 10
574.395975
 20
82.975433
 30
0.0
 11
574.395975
 21
80.448665
 31
0.0
  0
LINE
  8
0
  6
CONTINUOUS
 62
     7
  5
574
 10
612.395975
 20
75.572438
 30
0.0
 11
574.395975
 21
75.572438
 31
0.0
  0
LINE
  8
0
  6
CONTINUOUS
 62
     7
  5
575
 10
612.395975
 20
80.571769
 30
0.0
 11
574.395975
 21
80.571769
 31
0.0
  0
LINE
  8
0
  6
CONTINUOUS
 62
     7
  5
576
 10
612.395975
 20
83.486689
 30
0.0
 11
574.395975
 21
83.486689
 31
0.0
  0
LINE
  8
0
  6
CONTINUOUS
 62
     7
  5
577
 10
574.395975
 20
83.613522
 30
0.0
 11
612.395975
 21
83.613522
 31
0.0
  0
LINE
  8
0
  6
CONTINUOUS
 62
     7
  5
578
 10
615.395975
 20
71.246233
 30
0.0
 11
615.395975
 21
71.760929
 31
0.0
  0
LINE
  8
0
  6
CONTINUOUS
 62
     7
  5
579
 10
615.395975
 20
71.760929
 30
0.0
 11
615.395975
 21
71.930574
 31
0.0
  0
LINE
  8
0
  6
CONTINUOUS
 62
     7
  5
57A
 10
612.395975
 20
71.930574
 30
0.0
 11
612.395975
 21
71.246233
 31
0.0
  0
LINE
  8
0
  6
CONTINUOUS
 62
     7
  5
57B
 10
574.395975
 20
71.246233
 30
0.0
 11
574.395975
 21
71.930574
 31
0.0
  0
LINE
  8
0
  6
CONTINUOUS
 62
     7
  5
57C
 10
571.395975
 20
71.930574
 30
0.0
 11
571.395975
 21
71.760929
 31
0.0
  0
LINE
  8
0
  6
CONTINUOUS
 62
     7
  5
57D
 10
571.395975
 20
71.760929
 30
0.0
 11
571.395975
 21
71.246233
 31
0.0
  0
LINE
  8
0
  6
CONTINUOUS
 62
     7
  5
57E
 10
617.995975
 20
72.780377
 30
0.0
 11
618.395975
 21
72.780377
 31
0.0
  0
LINE
  8
0
  6
CONTINUOUS
 62
     7
  5
57F
 10
617.995975
 20
71.246233
 30
0.0
 11
617.995975
 21
72.780377
 31
0.0
  0
LINE
  8
0
  6
CONTINUOUS
 62
     7
  5
580
 10
615.395975
 20
71.246233
 30
0.0
 11
617.995975
 21
71.246233
 31
0.0
  0
LINE
  8
0
  6
CONTINUOUS
 62
     7
  5
581
 10
615.395975
 20
71.760929
 30
0.0
 11
615.395975
 21
71.246233
 31
0.0
  0
LINE
  8
0
  6
CONTINUOUS
 62
     7
  5
582
 10
615.390975
 20
71.760929
 30
0.0
 11
615.395975
 21
71.760929
 31
0.0
  0
LINE
  8
0
  6
CONTINUOUS
 62
     7
  5
583
 10
615.390975
 20
71.930574
 30
0.0
 11
615.390975
 21
71.760929
 31
0.0
  0
LINE
  8
0
  6
CONTINUOUS
 62
     7
  5
584
 10
618.395975
 20
72.780377
 30
0.0
 11
618.395975
 21
87.660253
 31
0.0
  0
LINE
  8
0
  6
CONTINUOUS
 62
     7
  5
585
 10
571.395975
 20
71.760929
 30
0.0
 11
571.400975
 21
71.760929
 31
0.0
  0
LINE
  8
0
  6
CONTINUOUS
 62
     7
  5
586
 10
571.395975
 20
71.246233
 30
0.0
 11
571.395975
 21
71.760929
 31
0.0
  0
LINE
  8
0
  6
CONTINUOUS
 62
     7
  5
587
 10
568.795975
 20
71.246233
 30
0.0
 11
571.395975
 21
71.246233
 31
0.0
  0
LINE
  8
0
  6
CONTINUOUS
 62
     7
  5
588
 10
568.795975
 20
72.780377
 30
0.0
 11
568.795975
 21
71.246233
 31
0.0
  0
LINE
  8
0
  6
CONTINUOUS
 62
     7
  5
589
 10
568.395975
 20
72.780377
 30
0.0
 11
568.795975
 21
72.780377
 31
0.0
  0
LINE
  8
0
  6
CONTINUOUS
 62
     7
  5
58A
 10
571.400975
 20
71.760929
 30
0.0
 11
571.400975
 21
71.930574
 31
0.0
  0
LINE
  8
0
  6
CONTINUOUS
 62
     7
  5
58B
 10
568.395975
 20
72.780377
 30
0.0
 11
568.395975
 21
87.660253
 31
0.0
  0
LINE
  8
0
  6
CONTINUOUS
 62
     7
  5
58C
 10
568.795975
 20
70.946233
 30
0.0
 11
571.395975
 21
70.946233
 31
0.0
  0
LINE
  8
0
  6
CONTINUOUS
 62
     7
  5
58D
 10
571.395975
 20
70.946233
 30
0.0
 11
571.395975
 21
71.246233
 31
0.0
  0
LINE
  8
0
  6
CONTINUOUS
 62
     7
  5
58E
 10
568.795975
 20
71.246233
 30
0.0
 11
568.795975
 21
70.946233
 31
0.0
  0
LINE
  8
0
  6
CONTINUOUS
 62
     7
  5
58F
 10
615.395975
 20
70.946233
 30
0.0
 11
617.995975
 21
70.946233
 31
0.0
  0
LINE
  8
0
  6
CONTINUOUS
 62
     7
  5
590
 10
615.395975
 20
71.246233
 30
0.0
 11
615.395975
 21
70.946233
 31
0.0
  0
LINE
  8
0
  6
CONTINUOUS
 62
     7
  5
591
 10
617.995975
 20
70.946233
 30
0.0
 11
617.995975
 21
71.246233
 31
0.0
  0
LINE
  8
0
  6
CONTINUOUS
 62
     7
  5
592
 10
574.395975
 20
71.246233
 30
0.0
 11
574.395975
 21
70.946233
 31
0.0
  0
LINE
  8
0
  6
CONTINUOUS
 62
     7
  5
593
 10
574.395975
 20
70.946233
 30
0.0
 11
571.395975
 21
70.946233
 31
0.0
  0
LINE
  8
0
  6
CONTINUOUS
 62
     7
  5
594
 10
612.395975
 20
74.40399
 30
0.0
 11
574.395975
 21
74.40399
 31
0.0
  0
LINE
  8
0
  6
CONTINUOUS
 62
     7
  5
595
 10
574.395975
 20
74.646233
 30
0.0
 11
612.395975
 21
74.646233
 31
0.0
  0
LINE
  8
0
  6
CONTINUOUS
 62
     7
  5
596
 10
612.395975
 20
70.946233
 30
0.0
 11
612.395975
 21
71.246233
 31
0.0
  0
LINE
  8
0
  6
CONTINUOUS
 62
     7
  5
597
 10
615.395975
 20
70.946233
 30
0.0
 11
612.395975
 21
70.946233
 31
0.0
  0
LINE
  8
0
  6
CONTINUOUS
 62
     7
  5
598
 10
612.395975
 20
71.246233
 30
0.0
 11
574.395975
 21
71.246233
 31
0.0
  0
LINE
  8
0
  6
CONTINUOUS
 62
     7
  5
599
 10
618.395975
 20
72.780377
 30
0.0
 11
618.395975
 21
71.246233
 31
0.0
  0
LINE
  8
0
  6
CONTINUOUS
 62
     7
  5
59A
 10
618.395975
 20
71.246233
 30
0.0
 11
617.995975
 21
71.246233
 31
0.0
  0
LINE
  8
0
  6
CONTINUOUS
 62
     7
  5
59B
 10
568.795975
 20
71.246233
 30
0.0
 11
568.395975
 21
71.246233
 31
0.0
  0
LINE
  8
0
  6
CONTINUOUS
 62
     7
  5
59C
 10
568.395975
 20
71.246233
 30
0.0
 11
568.395975
 21
72.780377
 31
0.0
  0
LINE
  8
0
  6
CONTINUOUS
 62
     7
  5
59D
 10
576.295975
 20
60.446233
 30
0.0
 11
590.295975
 21
60.446233
 31
0.0
  0
LINE
  8
0
  6
CONTINUOUS
 62
     7
  5
59E
 10
579.295975
 20
66.446233
 30
0.0
 11
579.295975
 21
71.246233
 31
0.0
  0
LINE
  8
0
  6
CONTINUOUS
 62
     7
  5
59F
 10
587.295975
 20
66.446233
 30
0.0
 11
587.295975
 21
71.246233
 31
0.0
  0
LINE
  8
0
  6
CONTINUOUS
 62
     7
  5
5A0
 10
576.295975
 20
66.446233
 30
0.0
 11
576.295975
 21
60.446233
 31
0.0
  0
LINE
  8
0
  6
CONTINUOUS
 62
     7
  5
5A1
 10
587.295975
 20
66.446233
 30
0.0
 11
590.295975
 21
66.446233
 31
0.0
  0
LINE
  8
0
  6
CONTINUOUS
 62
     7
  5
5A2
 10
576.295975
 20
66.446233
 30
0.0
 11
579.295975
 21
66.446233
 31
0.0
  0
LINE
  8
0
  6
CONTINUOUS
 62
     7
  5
5A3
 10
590.295975
 20
66.446233
 30
0.0
 11
590.295975
 21
60.446233
 31
0.0
  0
LINE
  8
0
  6
CONTINUOUS
 62
     7
  5
5A4
 10
608.395975
 20
74.646233
 30
0.0
 11
608.395975
 21
75.572438
 31
0.0
  0
LINE
  8
0
  6
CONTINUOUS
 62
     7
  5
5A5
 10
578.395975
 20
75.572438
 30
0.0
 11
578.395975
 21
74.646233
 31
0.0
  0
LINE
  8
0
  6
CONTINUOUS
 62
     7
  5
5A6
 10
511.395975
 20
216.246233
 30
0.0
 11
568.795975
 21
216.246233
 31
0.0
  0
ARC
  8
0
  6
CONTINUOUS
 62
     7
  5
5A7
 10
511.395975
 20
214.246233
 30
0.0
 40
2.0
 50
90.0
 51
180.0
210
0.0
220
0.0
230
1.0
  0
LINE
  8
0
  6
CONTINUOUS
 62
     7
  5
5A8
 10
509.395975
 20
51.246233
 30
0.0
 11
509.395975
 21
214.246233
 31
0.0
  0
LINE
  8
0
  6
CONTINUOUS
 62
     7
  5
5A9
 10
504.395975
 20
51.246233
 30
0.0
 11
509.395975
 21
51.246233
 31
0.0
  0
LINE
  8
0
  6
CONTINUOUS
 62
     7
  5
5AA
 10
504.395975
 20
51.246233
 30
0.0
 11
504.395975
 21
214.246233
 31
0.0
  0
ARC
  8
0
  6
CONTINUOUS
 62
     7
  5
5AB
 10
511.395975
 20
214.246233
 30
0.0
 40
7.0
 50
90.0
 51
180.0
210
0.0
220
0.0
230
1.0
  0
LINE
  8
0
  6
CONTINUOUS
 62
     7
  5
5AC
 10
511.395975
 20
221.246233
 30
0.0
 11
568.395975
 21
221.246233
 31
0.0
  0
LINE
  8
0
  6
CONTINUOUS
 62
     7
  5
5AD
 10
498.395975
 20
62.246233
 30
0.0
 11
498.395975
 21
52.246233
 31
0.0
  0
LINE
  8
0
  6
CONTINUOUS
 62
     7
  5
5AE
 10
498.395975
 20
75.246233
 30
0.0
 11
498.395975
 21
65.246233
 31
0.0
  0
LINE
  8
0
  6
CONTINUOUS
 62
     7
  5
5AF
 10
515.895975
 20
54.246233
 30
0.0
 11
515.895975
 21
57.246233
 31
0.0
  0
LINE
  8
0
  6
CONTINUOUS
 62
     7
  5
5B0
 10
515.895975
 20
57.246233
 30
0.0
 11
515.895975
 21
60.246233
 31
0.0
  0
LINE
  8
0
  6
CONTINUOUS
 62
     7
  5
5B1
 10
515.895975
 20
67.246233
 30
0.0
 11
515.895975
 21
70.246233
 31
0.0
  0
LINE
  8
0
  6
CONTINUOUS
 62
     7
  5
5B2
 10
515.895975
 20
70.246233
 30
0.0
 11
515.895975
 21
73.246233
 31
0.0
  0
LINE
  8
0
  6
CONTINUOUS
 62
     7
  5
5B3
 10
516.395975
 20
72.746233
 30
0.0
 11
516.395975
 21
67.746233
 31
0.0
  0
LINE
  8
0
  6
CONTINUOUS
 62
     7
  5
5B4
 10
516.395975
 20
59.746233
 30
0.0
 11
516.395975
 21
54.746233
 31
0.0
  0
LINE
  8
0
  6
CONTINUOUS
 62
     7
  5
5B5
 10
608.395975
 20
227.246233
 30
0.0
 11
578.395975
 21
227.246233
 31
0.0
  0
LINE
  8
0
  6
CONTINUOUS
 62
     7
  5
5B6
 10
608.395975
 20
226.681842
 30
0.0
 11
608.395975
 21
227.246233
 31
0.0
  0
LINE
  8
0
  6
CONTINUOUS
 62
     7
  5
5B7
 10
578.395975
 20
227.246233
 30
0.0
 11
578.395975
 21
226.681842
 31
0.0
  0
LINE
  8
0
  6
CONTINUOUS
 62
     7
  5
5B8
 10
574.395975
 20
246.443319
 30
0.0
 11
571.400975
 21
246.443319
 31
0.0
  0
LINE
  8
0
  6
CONTINUOUS
 62
     7
  5
5B9
 10
571.400975
 20
246.443319
 30
0.0
 11
571.395975
 21
246.443319
 31
0.0
  0
LINE
  8
0
  6
CONTINUOUS
 62
     7
  5
5BA
 10
615.395975
 20
246.443319
 30
0.0
 11
615.390975
 21
246.443319
 31
0.0
  0
LINE
  8
0
  6
CONTINUOUS
 62
     7
  5
5BB
 10
615.390975
 20
246.443319
 30
0.0
 11
612.395975
 21
246.443319
 31
0.0
  0
LINE
  8
0
  6
CONTINUOUS
 62
     7
  5
5BC
 10
568.795975
 20
238.943319
 30
0.0
 11
568.395975
 21
238.943319
 31
0.0
  0
LINE
  8
0
  6
CONTINUOUS
 62
     7
  5
5BD
 10
618.395975
 20
238.943319
 30
0.0
 11
617.995975
 21
238.943319
 31
0.0
  0
LINE
  8
0
  6
CONTINUOUS
 62
     7
  5
5BE
 10
568.795975
 20
128.711551
 30
0.0
 11
568.395975
 21
128.711551
 31
0.0
  0
LINE
  8
0
  6
CONTINUOUS
 62
     7
  5
5BF
 10
618.395975
 20
128.711551
 30
0.0
 11
617.995975
 21
128.711551
 31
0.0
  0
LINE
  8
0
  6
CONTINUOUS
 62
     7
  5
5C0
 10
612.395975
 20
82.975433
 30
0.0
 11
615.395975
 21
82.975433
 31
0.0
  0
LINE
  8
0
  6
CONTINUOUS
 62
     7
  5
5C1
 10
571.395975
 20
82.975433
 30
0.0
 11
574.395975
 21
82.975433
 31
0.0
  0
LINE
  8
0
  6
CONTINUOUS
 62
     7
  5
5C2
 10
618.395975
 20
156.638747
 30
0.0
 11
617.995975
 21
156.638747
 31
0.0
  0
LINE
  8
0
  6
CONTINUOUS
 62
     7
  5
5C3
 10
568.795975
 20
156.638747
 30
0.0
 11
568.395975
 21
156.638747
 31
0.0
  0
LINE
  8
0
  6
CONTINUOUS
 62
     7
  5
5C4
 10
612.395975
 20
103.711551
 30
0.0
 11
615.390975
 21
103.711551
 31
0.0
  0
LINE
  8
0
  6
CONTINUOUS
 62
     7
  5
5C5
 10
571.400975
 20
103.711551
 30
0.0
 11
574.395975
 21
103.711551
 31
0.0
  0
LINE
  8
0
  6
CONTINUOUS
 62
     7
  5
5C6
 10
617.995975
 20
111.211551
 30
0.0
 11
618.395975
 21
111.211551
 31
0.0
  0
LINE
  8
0
  6
CONTINUOUS
 62
     7
  5
5C7
 10
568.395975
 20
111.211551
 30
0.0
 11
568.795975
 21
111.211551
 31
0.0
  0
LINE
  8
0
  6
CONTINUOUS
 62
     7
  5
5C8
 10
618.395975
 20
187.138482
 30
0.0
 11
617.995975
 21
187.138482
 31
0.0
  0
LINE
  8
0
  6
CONTINUOUS
 62
     7
  5
5C9
 10
568.795975
 20
187.138482
 30
0.0
 11
568.395975
 21
187.138482
 31
0.0
  0
LINE
  8
0
  6
CONTINUOUS
 62
     7
  5
5CA
 10
618.395975
 20
179.638482
 30
0.0
 11
617.995975
 21
179.638482
 31
0.0
  0
LINE
  8
0
  6
CONTINUOUS
 62
     7
  5
5CB
 10
568.795975
 20
179.638482
 30
0.0
 11
568.395975
 21
179.638482
 31
0.0
  0
LINE
  8
0
  6
CONTINUOUS
 62
     7
  5
5CC
 10
568.395975
 20
169.638482
 30
0.0
 11
568.795975
 21
169.638482
 31
0.0
  0
LINE
  8
0
  6
CONTINUOUS
 62
     7
  5
5CD
 10
617.995975
 20
169.638482
 30
0.0
 11
618.395975
 21
169.638482
 31
0.0
  0
LINE
  8
0
  6
CONTINUOUS
 62
     7
  5
5CE
 10
571.395975
 20
215.16678
 30
0.0
 11
568.395975
 21
215.16678
 31
0.0
  0
LINE
  8
0
  6
CONTINUOUS
 62
     7
  5
5CF
 10
618.395975
 20
215.16678
 30
0.0
 11
615.395975
 21
215.16678
 31
0.0
  0
LINE
  8
0
  6
CONTINUOUS
 62
     7
  5
5D0
 10
618.395975
 20
207.66678
 30
0.0
 11
617.995975
 21
207.66678
 31
0.0
  0
LINE
  8
0
  6
CONTINUOUS
 62
     7
  5
5D1
 10
568.795975
 20
207.66678
 30
0.0
 11
568.395975
 21
207.66678
 31
0.0
  0
LINE
  8
0
  6
CONTINUOUS
 62
     7
  5
5D2
 10
617.995975
 20
197.66678
 30
0.0
 11
618.395975
 21
197.66678
 31
0.0
  0
LINE
  8
0
  6
CONTINUOUS
 62
     7
  5
5D3
 10
568.395975
 20
197.66678
 30
0.0
 11
568.795975
 21
197.66678
 31
0.0
  0
LINE
  8
0
  6
CONTINUOUS
 62
     7
  5
5D4
 10
618.395975
 20
236.088381
 30
0.0
 11
615.395975
 21
236.088381
 31
0.0
  0
LINE
  8
0
  6
CONTINUOUS
 62
     7
  5
5D5
 10
571.395975
 20
236.088381
 30
0.0
 11
568.395975
 21
236.088381
 31
0.0
  0
LINE
  8
0
  6
CONTINUOUS
 62
     7
  5
5D6
 10
568.795975
 20
228.588381
 30
0.0
 11
568.395975
 21
228.588381
 31
0.0
  0
LINE
  8
0
  6
CONTINUOUS
 62
     7
  5
5D7
 10
618.395975
 20
228.588381
 30
0.0
 11
617.995975
 21
228.588381
 31
0.0
  0
LINE
  8
0
  6
CONTINUOUS
 62
     7
  5
5D8
 10
568.395975
 20
218.588381
 30
0.0
 11
568.795975
 21
218.588381
 31
0.0
  0
LINE
  8
0
  6
CONTINUOUS
 62
     7
  5
5D9
 10
617.995975
 20
218.588381
 30
0.0
 11
618.395975
 21
218.588381
 31
0.0
  0
LINE
  8
0
  6
CONTINUOUS
 62
     7
  5
5DA
 10
571.400975
 20
246.443319
 30
0.0
 11
571.395975
 21
246.443319
 31
0.0
  0
LINE
  8
0
  6
CONTINUOUS
 62
     7
  5
5DB
 10
571.395975
 20
246.443319
 30
0.0
 11
568.795975
 21
246.443319
 31
0.0
  0
LINE
  8
0
  6
CONTINUOUS
 62
     7
  5
5DC
 10
617.995975
 20
246.443319
 30
0.0
 11
615.395975
 21
246.443319
 31
0.0
  0
LINE
  8
0
  6
CONTINUOUS
 62
     7
  5
5DD
 10
615.395975
 20
246.443319
 30
0.0
 11
615.390975
 21
246.443319
 31
0.0
  0
LINE
  8
0
  6
CONTINUOUS
 62
     7
  5
5DE
 10
612.395975
 20
71.246233
 30
0.0
 11
615.395975
 21
71.246233
 31
0.0
  0
LINE
  8
0
  6
CONTINUOUS
 62
     7
  5
5DF
 10
571.395975
 20
71.246233
 30
0.0
 11
574.395975
 21
71.246233
 31
0.0
  0
LINE
  8
0
  6
CONTINUOUS
 62
     7
  5
5E0
 10
504.395975
 20
62.246233
 30
0.0
 11
498.395975
 21
62.246233
 31
0.0
  0
LINE
  8
0
  6
CONTINUOUS
 62
     7
  5
5E1
 10
498.395975
 20
52.246233
 30
0.0
 11
504.395975
 21
52.246233
 31
0.0
  0
LINE
  8
0
  6
CONTINUOUS
 62
     7
  5
5E2
 10
504.395975
 20
75.246233
 30
0.0
 11
498.395975
 21
75.246233
 31
0.0
  0
LINE
  8
0
  6
CONTINUOUS
 62
     7
  5
5E3
 10
498.395975
 20
65.246233
 30
0.0
 11
504.395975
 21
65.246233
 31
0.0
  0
LINE
  8
0
  6
CONTINUOUS
 62
     7
  5
5E4
 10
509.395975
 20
54.246233
 30
0.0
 11
515.895975
 21
54.246233
 31
0.0
  0
LINE
  8
0
  6
CONTINUOUS
 62
     7
  5
5E5
 10
515.895975
 20
60.246233
 30
0.0
 11
509.395975
 21
60.246233
 31
0.0
  0
LINE
  8
0
  6
CONTINUOUS
 62
     7
  5
5E6
 10
509.395975
 20
67.246233
 30
0.0
 11
515.895975
 21
67.246233
 31
0.0
  0
LINE
  8
0
  6
CONTINUOUS
 62
     7
  5
5E7
 10
515.895975
 20
73.246233
 30
0.0
 11
509.395975
 21
73.246233
 31
0.0
  0
LINE
  8
0
  6
CONTINUOUS
 62
     7
  5
5E8
 10
515.895975
 20
67.246233
 30
0.0
 11
516.395975
 21
67.746233
 31
0.0
  0
LINE
  8
0
  6
CONTINUOUS
 62
     7
  5
5E9
 10
516.395975
 20
72.746233
 30
0.0
 11
515.895975
 21
73.246233
 31
0.0
  0
LINE
  8
0
  6
CONTINUOUS
 62
     7
  5
5EA
 10
515.895975
 20
54.246233
 30
0.0
 11
516.395975
 21
54.746233
 31
0.0
  0
LINE
  8
0
  6
CONTINUOUS
 62
     7
  5
5EB
 10
516.395975
 20
59.746233
 30
0.0
 11
515.895975
 21
60.246233
 31
0.0
  0
ENDBLK
  8
0
  5
5EC
  0
BLOCK
  8
0
  5
5EF
  2
AID2955
 70
     0
 10
0.0
 20
0.0
 30
0.0
  3
#auxiliary draft view
  0
LINE
  8
0
  6
CONTINUOUS
 62
     7
  5
5F0
 10
255.741713
 20
-178.894048
 30
0.0
 11
255.741713
 21
-181.494048
 31
0.0
  0
LINE
  8
0
  6
CONTINUOUS
 62
     7
  5
5F1
 10
247.391713
 20
-175.894048
 30
0.0
 11
247.391713
 21
-178.894048
 31
0.0
  0
LINE
  8
0
  6
CONTINUOUS
 62
     7
  5
5F2
 10
269.541713
 20
-175.894048
 30
0.0
 11
247.391713
 21
-175.894048
 31
0.0
  0
LINE
  8
0
  6
CONTINUOUS
 62
     7
  5
5F3
 10
277.891713
 20
-178.894048
 30
0.0
 11
277.891713
 21
-181.494048
 31
0.0
  0
LINE
  8
0
  6
CONTINUOUS
 62
     7
  5
5F4
 10
255.741713
 20
-181.494048
 30
0.0
 11
277.891713
 21
-181.494048
 31
0.0
  0
LINE
  8
0
  6
CONTINUOUS
 62
     7
  5
5F5
 10
247.391713
 20
-178.894048
 30
0.0
 11
255.741713
 21
-178.894048
 31
0.0
  0
LINE
  8
0
  6
CONTINUOUS
 62
     7
  5
5F6
 10
269.541713
 20
-178.894048
 30
0.0
 11
269.541713
 21
-175.894048
 31
0.0
  0
LINE
  8
0
  6
CONTINUOUS
 62
     7
  5
5F7
 10
277.891713
 20
-178.894048
 30
0.0
 11
269.541713
 21
-178.894048
 31
0.0
  0
LINE
  8
0
  6
CONTINUOUS
 62
     7
  5
5F8
 10
277.891713
 20
-132.294048
 30
0.0
 11
277.891713
 21
-134.894048
 31
0.0
  0
LINE
  8
0
  6
CONTINUOUS
 62
     7
  5
5F9
 10
269.541713
 20
-137.894048
 30
0.0
 11
269.541713
 21
-134.894048
 31
0.0
  0
LINE
  8
0
  6
CONTINUOUS
 62
     7
  5
5FA
 10
247.391713
 20
-134.894048
 30
0.0
 11
247.391713
 21
-137.894048
 31
0.0
  0
LINE
  8
0
  6
CONTINUOUS
 62
     7
  5
5FB
 10
255.741713
 20
-132.294048
 30
0.0
 11
255.741713
 21
-134.894048
 31
0.0
  0
LINE
  8
0
  6
CONTINUOUS
 62
     7
  5
5FC
 10
277.891713
 20
-132.294048
 30
0.0
 11
255.741713
 21
-132.294048
 31
0.0
  0
LINE
  8
0
  6
CONTINUOUS
 62
     7
  5
5FD
 10
247.391713
 20
-137.894048
 30
0.0
 11
269.541713
 21
-137.894048
 31
0.0
  0
LINE
  8
0
  6
CONTINUOUS
 62
     7
  5
5FE
 10
255.741713
 20
-134.894048
 30
0.0
 11
247.391713
 21
-134.894048
 31
0.0
  0
LINE
  8
0
  6
CONTINUOUS
 62
     7
  5
5FF
 10
269.541713
 20
-134.894048
 30
0.0
 11
277.891713
 21
-134.894048
 31
0.0
  0
LINE
  8
0
  6
CONTINUOUS
 62
     7
  5
600
 10
247.391713
 20
-175.894048
 30
0.0
 11
239.041713
 21
-175.894048
 31
0.0
  0
LINE
  8
0
  6
CONTINUOUS
 62
     7
  5
601
 10
239.041713
 20
-137.894048
 30
0.0
 11
247.391713
 21
-137.894048
 31
0.0
  0
LINE
  8
0
  6
CONTINUOUS
 62
     7
  5
602
 10
283.891713
 20
-131.894048
 30
0.0
 11
290.391713
 21
-131.894048
 31
0.0
  0
LINE
  8
0
  6
CONTINUOUS
 62
     7
  5
603
 10
281.441713
 20
-134.899048
 30
0.0
 11
290.391713
 21
-134.899048
 31
0.0
  0
LINE
  8
0
  6
CONTINUOUS
 62
     7
  5
604
 10
281.441713
 20
-134.894048
 30
0.0
 11
281.441713
 21
-134.899048
 31
0.0
  0
LINE
  8
0
  6
CONTINUOUS
 62
     7
  5
605
 10
283.891713
 20
-131.894048
 30
0.0
 11
283.891713
 21
-132.294048
 31
0.0
  0
LINE
  8
0
  6
CONTINUOUS
 62
     7
  5
606
 10
283.891713
 20
-132.294048
 30
0.0
 11
277.891713
 21
-132.294048
 31
0.0
  0
LINE
  8
0
  6
CONTINUOUS
 62
     7
  5
607
 10
277.891713
 20
-134.894048
 30
0.0
 11
281.441713
 21
-134.894048
 31
0.0
  0
LINE
  8
0
  6
CONTINUOUS
 62
     7
  5
608
 10
290.391713
 20
-178.889048
 30
0.0
 11
281.441713
 21
-178.889048
 31
0.0
  0
LINE
  8
0
  6
CONTINUOUS
 62
     7
  5
609
 10
283.891713
 20
-181.894048
 30
0.0
 11
290.391713
 21
-181.894048
 31
0.0
  0
LINE
  8
0
  6
CONTINUOUS
 62
     7
  5
60A
 10
283.891713
 20
-181.494048
 30
0.0
 11
283.891713
 21
-181.894048
 31
0.0
  0
LINE
  8
0
  6
CONTINUOUS
 62
     7
  5
60B
 10
281.441713
 20
-178.889048
 30
0.0
 11
281.441713
 21
-178.894048
 31
0.0
  0
LINE
  8
0
  6
CONTINUOUS
 62
     7
  5
60C
 10
277.891713
 20
-181.494048
 30
0.0
 11
283.891713
 21
-181.494048
 31
0.0
  0
LINE
  8
0
  6
CONTINUOUS
 62
     7
  5
60D
 10
281.441713
 20
-178.894048
 30
0.0
 11
277.891713
 21
-178.894048
 31
0.0
  0
LINE
  8
0
  6
CONTINUOUS
 62
     7
  5
60E
 10
256.141713
 20
-175.894048
 30
0.0
 11
256.141713
 21
-137.894048
 31
0.0
  0
LINE
  8
0
  6
CONTINUOUS
 62
     7
  5
60F
 10
269.141713
 20
-175.894048
 30
0.0
 11
269.141713
 21
-137.894048
 31
0.0
  0
LINE
  8
0
  6
CONTINUOUS
 62
     7
  5
610
 10
242.391713
 20
-131.894048
 30
0.0
 11
252.391713
 21
-131.894048
 31
0.0
  0
LINE
  8
0
  6
CONTINUOUS
 62
     7
  5
611
 10
252.391713
 20
-132.294048
 30
0.0
 11
252.391713
 21
-131.894048
 31
0.0
  0
LINE
  8
0
  6
CONTINUOUS
 62
     7
  5
612
 10
242.391713
 20
-131.894048
 30
0.0
 11
242.391713
 21
-132.294048
 31
0.0
  0
LINE
  8
0
  6
CONTINUOUS
 62
     7
  5
613
 10
252.391713
 20
-181.894048
 30
0.0
 11
252.391713
 21
-181.494048
 31
0.0
  0
LINE
  8
0
  6
CONTINUOUS
 62
     7
  5
614
 10
252.391713
 20
-181.894048
 30
0.0
 11
242.391713
 21
-181.894048
 31
0.0
  0
LINE
  8
0
  6
CONTINUOUS
 62
     7
  5
615
 10
242.391713
 20
-181.494048
 30
0.0
 11
242.391713
 21
-181.894048
 31
0.0
  0
LINE
  8
0
  6
CONTINUOUS
 62
     7
  5
616
 10
247.391713
 20
-132.294048
 30
0.0
 11
247.391713
 21
-134.894048
 31
0.0
  0
LINE
  8
0
  6
CONTINUOUS
 62
     7
  5
617
 10
239.041713
 20
-134.894048
 30
0.0
 11
247.391713
 21
-134.894048
 31
0.0
  0
LINE
  8
0
  6
CONTINUOUS
 62
     7
  5
618
 10
239.041713
 20
-137.894048
 30
0.0
 11
239.041713
 21
-134.894048
 31
0.0
  0
LINE
  8
0
  6
CONTINUOUS
 62
     7
  5
619
 10
216.891713
 20
-134.894048
 30
0.0
 11
216.891713
 21
-137.894048
 31
0.0
  0
LINE
  8
0
  6
CONTINUOUS
 62
     7
  5
61A
 10
247.391713
 20
-132.294048
 30
0.0
 11
225.241713
 21
-132.294048
 31
0.0
  0
LINE
  8
0
  6
CONTINUOUS
 62
     7
  5
61B
 10
225.241713
 20
-132.294048
 30
0.0
 11
225.241713
 21
-134.894048
 31
0.0
  0
LINE
  8
0
  6
CONTINUOUS
 62
     7
  5
61C
 10
216.891713
 20
-137.894048
 30
0.0
 11
239.041713
 21
-137.894048
 31
0.0
  0
LINE
  8
0
  6
CONTINUOUS
 62
     7
  5
61D
 10
225.241713
 20
-134.894048
 30
0.0
 11
216.891713
 21
-134.894048
 31
0.0
  0
LINE
  8
0
  6
CONTINUOUS
 62
     7
  5
61E
 10
225.241713
 20
-181.494048
 30
0.0
 11
247.391713
 21
-181.494048
 31
0.0
  0
LINE
  8
0
  6
CONTINUOUS
 62
     7
  5
61F
 10
216.891713
 20
-175.894048
 30
0.0
 11
216.891713
 21
-178.894048
 31
0.0
  0
LINE
  8
0
  6
CONTINUOUS
 62
     7
  5
620
 10
247.391713
 20
-178.894048
 30
0.0
 11
247.391713
 21
-181.494048
 31
0.0
  0
LINE
  8
0
  6
CONTINUOUS
 62
     7
  5
621
 10
247.391713
 20
-178.894048
 30
0.0
 11
239.041713
 21
-178.894048
 31
0.0
  0
LINE
  8
0
  6
CONTINUOUS
 62
     7
  5
622
 10
216.891713
 20
-178.894048
 30
0.0
 11
225.241713
 21
-178.894048
 31
0.0
  0
LINE
  8
0
  6
CONTINUOUS
 62
     7
  5
623
 10
239.041713
 20
-178.894048
 30
0.0
 11
239.041713
 21
-175.894048
 31
0.0
  0
LINE
  8
0
  6
CONTINUOUS
 62
     7
  5
624
 10
239.041713
 20
-175.894048
 30
0.0
 11
216.891713
 21
-175.894048
 31
0.0
  0
LINE
  8
0
  6
CONTINUOUS
 62
     7
  5
625
 10
225.241713
 20
-178.894048
 30
0.0
 11
225.241713
 21
-181.494048
 31
0.0
  0
LINE
  8
0
  6
CONTINUOUS
 62
     7
  5
626
 10
216.891713
 20
-175.894048
 30
0.0
 11
208.541713
 21
-175.894048
 31
0.0
  0
LINE
  8
0
  6
CONTINUOUS
 62
     7
  5
627
 10
253.391713
 20
-181.894048
 30
0.0
 11
259.891713
 21
-181.894048
 31
0.0
  0
LINE
  8
0
  6
CONTINUOUS
 62
     7
  5
628
 10
253.391713
 20
-181.494048
 30
0.0
 11
253.391713
 21
-181.894048
 31
0.0
  0
LINE
  8
0
  6
CONTINUOUS
 62
     7
  5
629
 10
247.391713
 20
-181.494048
 30
0.0
 11
253.391713
 21
-181.494048
 31
0.0
  0
LINE
  8
0
  6
CONTINUOUS
 62
     7
  5
62A
 10
253.391713
 20
-131.894048
 30
0.0
 11
259.891713
 21
-131.894048
 31
0.0
  0
LINE
  8
0
  6
CONTINUOUS
 62
     7
  5
62B
 10
253.391713
 20
-131.894048
 30
0.0
 11
253.391713
 21
-132.294048
 31
0.0
  0
LINE
  8
0
  6
CONTINUOUS
 62
     7
  5
62C
 10
253.391713
 20
-132.294048
 30
0.0
 11
247.391713
 21
-132.294048
 31
0.0
  0
LINE
  8
0
  6
CONTINUOUS
 62
     7
  5
62D
 10
208.541713
 20
-137.894048
 30
0.0
 11
216.891713
 21
-137.894048
 31
0.0
  0
LINE
  8
0
  6
CONTINUOUS
 62
     7
  5
62E
 10
225.641713
 20
-175.894048
 30
0.0
 11
225.641713
 21
-137.894048
 31
0.0
  0
LINE
  8
0
  6
CONTINUOUS
 62
     7
  5
62F
 10
238.641713
 20
-175.894048
 30
0.0
 11
238.641713
 21
-137.894048
 31
0.0
  0
LINE
  8
0
  6
CONTINUOUS
 62
     7
  5
630
 10
221.891713
 20
-132.294048
 30
0.0
 11
221.891713
 21
-131.894048
 31
0.0
  0
LINE
  8
0
  6
CONTINUOUS
 62
     7
  5
631
 10
211.891713
 20
-131.894048
 30
0.0
 11
211.891713
 21
-132.294048
 31
0.0
  0
LINE
  8
0
  6
CONTINUOUS
 62
     7
  5
632
 10
211.891713
 20
-131.894048
 30
0.0
 11
221.891713
 21
-131.894048
 31
0.0
  0
LINE
  8
0
  6
CONTINUOUS
 62
     7
  5
633
 10
221.891713
 20
-181.894048
 30
0.0
 11
221.891713
 21
-181.494048
 31
0.0
  0
LINE
  8
0
  6
CONTINUOUS
 62
     7
  5
634
 10
211.891713
 20
-181.494048
 30
0.0
 11
211.891713
 21
-181.894048
 31
0.0
  0
LINE
  8
0
  6
CONTINUOUS
 62
     7
  5
635
 10
221.891713
 20
-181.894048
 30
0.0
 11
211.891713
 21
-181.894048
 31
0.0
  0
LINE
  8
0
  6
CONTINUOUS
 62
     7
  5
636
 10
194.741713
 20
-178.894048
 30
0.0
 11
194.741713
 21
-181.494048
 31
0.0
  0
LINE
  8
0
  6
CONTINUOUS
 62
     7
  5
637
 10
186.391713
 20
-175.894048
 30
0.0
 11
186.391713
 21
-178.894048
 31
0.0
  0
LINE
  8
0
  6
CONTINUOUS
 62
     7
  5
638
 10
208.541713
 20
-178.894048
 30
0.0
 11
208.541713
 21
-175.894048
 31
0.0
  0
LINE
  8
0
  6
CONTINUOUS
 62
     7
  5
639
 10
216.891713
 20
-178.894048
 30
0.0
 11
216.891713
 21
-181.494048
 31
0.0
  0
LINE
  8
0
  6
CONTINUOUS
 62
     7
  5
63A
 10
208.541713
 20
-175.894048
 30
0.0
 11
186.391713
 21
-175.894048
 31
0.0
  0
LINE
  8
0
  6
CONTINUOUS
 62
     7
  5
63B
 10
186.433069
 20
-178.894048
 30
0.0
 11
194.741713
 21
-178.894048
 31
0.0
  0
LINE
  8
0
  6
CONTINUOUS
 62
     7
  5
63C
 10
216.891713
 20
-178.894048
 30
0.0
 11
208.541713
 21
-178.894048
 31
0.0
  0
LINE
  8
0
  6
CONTINUOUS
 62
     7
  5
63D
 10
194.741713
 20
-181.494048
 30
0.0
 11
216.891713
 21
-181.494048
 31
0.0
  0
LINE
  8
0
  6
CONTINUOUS
 62
     7
  5
63E
 10
216.891713
 20
-132.294048
 30
0.0
 11
216.891713
 21
-134.894048
 31
0.0
  0
LINE
  8
0
  6
CONTINUOUS
 62
     7
  5
63F
 10
208.541713
 20
-137.894048
 30
0.0
 11
208.541713
 21
-134.894048
 31
0.0
  0
LINE
  8
0
  6
CONTINUOUS
 62
     7
  5
640
 10
186.391713
 20
-137.894048
 30
0.0
 11
208.541713
 21
-137.894048
 31
0.0
  0
LINE
  8
0
  6
CONTINUOUS
 62
     7
  5
641
 10
194.741713
 20
-132.294048
 30
0.0
 11
194.741713
 21
-134.894048
 31
0.0
  0
LINE
  8
0
  6
CONTINUOUS
 62
     7
  5
642
 10
186.391713
 20
-134.894048
 30
0.0
 11
186.391713
 21
-137.894048
 31
0.0
  0
LINE
  8
0
  6
CONTINUOUS
 62
     7
  5
643
 10
208.541713
 20
-134.894048
 30
0.0
 11
216.891713
 21
-134.894048
 31
0.0
  0
LINE
  8
0
  6
CONTINUOUS
 62
     7
  5
644
 10
216.891713
 20
-132.294048
 30
0.0
 11
194.741713
 21
-132.294048
 31
0.0
  0
LINE
  8
0
  6
CONTINUOUS
 62
     7
  5
645
 10
194.741713
 20
-134.894048
 30
0.0
 11
186.433069
 21
-134.894048
 31
0.0
  0
LINE
  8
0
  6
CONTINUOUS
 62
     7
  5
646
 10
178.124599
 20
-137.894048
 30
0.0
 11
186.391713
 21
-137.894048
 31
0.0
  0
LINE
  8
0
  6
CONTINUOUS
 62
     7
  5
647
 10
222.891713
 20
-131.894048
 30
0.0
 11
229.391713
 21
-131.894048
 31
0.0
  0
LINE
  8
0
  6
CONTINUOUS
 62
     7
  5
648
 10
222.891713
 20
-131.894048
 30
0.0
 11
222.891713
 21
-132.294048
 31
0.0
  0
LINE
  8
0
  6
CONTINUOUS
 62
     7
  5
649
 10
222.891713
 20
-132.294048
 30
0.0
 11
216.891713
 21
-132.294048
 31
0.0
  0
LINE
  8
0
  6
CONTINUOUS
 62
     7
  5
64A
 10
195.141713
 20
-175.894048
 30
0.0
 11
195.141713
 21
-137.894048
 31
0.0
  0
LINE
  8
0
  6
CONTINUOUS
 62
     7
  5
64B
 10
208.141713
 20
-175.894048
 30
0.0
 11
208.141713
 21
-137.894048
 31
0.0
  0
LINE
  8
0
  6
CONTINUOUS
 62
     7
  5
64C
 10
222.891713
 20
-181.894048
 30
0.0
 11
229.391713
 21
-181.894048
 31
0.0
  0
LINE
  8
0
  6
CONTINUOUS
 62
     7
  5
64D
 10
222.891713
 20
-181.494048
 30
0.0
 11
222.891713
 21
-181.894048
 31
0.0
  0
LINE
  8
0
  6
CONTINUOUS
 62
     7
  5
64E
 10
216.891713
 20
-181.494048
 30
0.0
 11
222.891713
 21
-181.494048
 31
0.0
  0
LINE
  8
0
  6
CONTINUOUS
 62
     7
  5
64F
 10
186.391713
 20
-175.894048
 30
0.0
 11
178.124599
 21
-175.894048
 31
0.0
  0
LINE
  8
0
  6
CONTINUOUS
 62
     7
  5
650
 10
191.391713
 20
-181.894048
 30
0.0
 11
191.391713
 21
-181.494048
 31
0.0
  0
LINE
  8
0
  6
CONTINUOUS
 62
     7
  5
651
 10
191.391713
 20
-181.894048
 30
0.0
 11
181.391713
 21
-181.894048
 31
0.0
  0
LINE
  8
0
  6
CONTINUOUS
 62
     7
  5
652
 10
181.391713
 20
-181.494048
 30
0.0
 11
181.391713
 21
-181.894048
 31
0.0
  0
LINE
  8
0
  6
CONTINUOUS
 62
     7
  5
653
 10
191.391713
 20
-132.294048
 30
0.0
 11
191.391713
 21
-131.894048
 31
0.0
  0
LINE
  8
0
  6
CONTINUOUS
 62
     7
  5
654
 10
181.391713
 20
-131.894048
 30
0.0
 11
181.391713
 21
-132.294048
 31
0.0
  0
LINE
  8
0
  6
CONTINUOUS
 62
     7
  5
655
 10
181.391713
 20
-131.894048
 30
0.0
 11
191.391713
 21
-131.894048
 31
0.0
  0
LINE
  8
0
  6
CONTINUOUS
 62
     7
  5
656
 10
155.973123
 20
-175.894048
 30
0.0
 11
155.973123
 21
-178.889048
 31
0.0
  0
LINE
  8
0
  6
CONTINUOUS
 62
     7
  5
657
 10
155.973123
 20
-178.889048
 30
0.0
 11
155.973123
 21
-178.894048
 31
0.0
  0
LINE
  8
0
  6
CONTINUOUS
 62
     7
  5
658
 10
155.975061
 20
-175.894048
 30
0.0
 11
155.973123
 21
-175.894048
 31
0.0
  0
LINE
  8
0
  6
CONTINUOUS
 62
     7
  5
659
 10
155.975061
 20
-175.894048
 30
0.0
 11
155.975061
 21
-178.894048
 31
0.0
  0
LINE
  8
0
  6
CONTINUOUS
 62
     7
  5
65A
 10
155.973123
 20
-178.894048
 30
0.0
 11
155.975061
 21
-178.894048
 31
0.0
  0
LINE
  8
0
  6
CONTINUOUS
 62
     7
  5
65B
 10
164.324887
 20
-178.894048
 30
0.0
 11
164.324887
 21
-181.494048
 31
0.0
  0
LINE
  8
0
  6
CONTINUOUS
 62
     7
  5
65C
 10
155.975061
 20
-178.894048
 30
0.0
 11
164.324887
 21
-178.894048
 31
0.0
  0
LINE
  8
0
  6
CONTINUOUS
 62
     7
  5
65D
 10
178.124599
 20
-178.894048
 30
0.0
 11
178.124599
 21
-175.894048
 31
0.0
  0
LINE
  8
0
  6
CONTINUOUS
 62
     7
  5
65E
 10
186.433069
 20
-178.894048
 30
0.0
 11
178.124599
 21
-178.894048
 31
0.0
  0
LINE
  8
0
  6
CONTINUOUS
 62
     7
  5
65F
 10
186.474424
 20
-178.894048
 30
0.0
 11
186.474424
 21
-181.494048
 31
0.0
  0
LINE
  8
0
  6
CONTINUOUS
 62
     7
  5
660
 10
164.324887
 20
-181.494048
 30
0.0
 11
186.474424
 21
-181.494048
 31
0.0
  0
LINE
  8
0
  6
CONTINUOUS
 62
     7
  5
661
 10
178.124599
 20
-175.894048
 30
0.0
 11
155.975061
 21
-175.894048
 31
0.0
  0
LINE
  8
0
  6
CONTINUOUS
 62
     7
  5
662
 10
155.975061
 20
-134.894048
 30
0.0
 11
155.975061
 21
-137.894048
 31
0.0
  0
LINE
  8
0
  6
CONTINUOUS
 62
     7
  5
663
 10
155.973123
 20
-134.894048
 30
0.0
 11
155.973123
 21
-134.899048
 31
0.0
  0
LINE
  8
0
  6
CONTINUOUS
 62
     7
  5
664
 10
155.973123
 20
-134.899048
 30
0.0
 11
155.973123
 21
-137.894048
 31
0.0
  0
LINE
  8
0
  6
CONTINUOUS
 62
     7
  5
665
 10
155.975061
 20
-134.894048
 30
0.0
 11
155.973123
 21
-134.894048
 31
0.0
  0
LINE
  8
0
  6
CONTINUOUS
 62
     7
  5
666
 10
155.973123
 20
-137.894048
 30
0.0
 11
155.975061
 21
-137.894048
 31
0.0
  0
LINE
  8
0
  6
CONTINUOUS
 62
     7
  5
667
 10
186.474424
 20
-132.294048
 30
0.0
 11
186.474424
 21
-134.894048
 31
0.0
  0
LINE
  8
0
  6
CONTINUOUS
 62
     7
  5
668
 10
178.124599
 20
-134.894048
 30
0.0
 11
186.433069
 21
-134.894048
 31
0.0
  0
LINE
  8
0
  6
CONTINUOUS
 62
     7
  5
669
 10
178.124599
 20
-137.894048
 30
0.0
 11
178.124599
 21
-134.894048
 31
0.0
  0
LINE
  8
0
  6
CONTINUOUS
 62
     7
  5
66A
 10
164.324887
 20
-132.294048
 30
0.0
 11
164.324887
 21
-134.894048
 31
0.0
  0
LINE
  8
0
  6
CONTINUOUS
 62
     7
  5
66B
 10
186.474424
 20
-132.294048
 30
0.0
 11
164.324887
 21
-132.294048
 31
0.0
  0
LINE
  8
0
  6
CONTINUOUS
 62
     7
  5
66C
 10
164.324887
 20
-134.894048
 30
0.0
 11
155.975061
 21
-134.894048
 31
0.0
  0
LINE
  8
0
  6
CONTINUOUS
 62
     7
  5
66D
 10
155.975061
 20
-137.894048
 30
0.0
 11
178.124599
 21
-137.894048
 31
0.0
  0
LINE
  8
0
  6
CONTINUOUS
 62
     7
  5
66E
 10
164.304864
 20
-181.494048
 30
0.0
 11
164.304864
 21
-178.894048
 31
0.0
  0
LINE
  8
0
  6
CONTINUOUS
 62
     7
  5
66F
 10
164.304864
 20
-181.494048
 30
0.0
 11
164.324887
 21
-181.494048
 31
0.0
  0
LINE
  8
0
  6
CONTINUOUS
 62
     7
  5
670
 10
164.304864
 20
-132.294048
 30
0.0
 11
164.304864
 21
-134.894048
 31
0.0
  0
LINE
  8
0
  6
CONTINUOUS
 62
     7
  5
671
 10
164.324887
 20
-132.294048
 30
0.0
 11
164.304864
 21
-132.294048
 31
0.0
  0
LINE
  8
0
  6
CONTINUOUS
 62
     7
  5
672
 10
144.744617
 20
-137.894048
 30
0.0
 11
155.973123
 21
-137.894048
 31
0.0
  0
LINE
  8
0
  6
CONTINUOUS
 62
     7
  5
673
 10
155.973123
 20
-134.894048
 30
0.0
 11
155.162409
 21
-134.894048
 31
0.0
  0
LINE
  8
0
  6
CONTINUOUS
 62
     7
  5
674
 10
155.162409
 20
-134.894048
 30
0.0
 11
151.648523
 21
-134.894048
 31
0.0
  0
LINE
  8
0
  6
CONTINUOUS
 62
     7
  5
675
 10
151.648523
 20
-134.894048
 30
0.0
 11
151.546671
 21
-134.894048
 31
0.0
  0
LINE
  8
0
  6
CONTINUOUS
 62
     7
  5
676
 10
151.546671
 20
-178.894048
 30
0.0
 11
151.648523
 21
-178.894048
 31
0.0
  0
LINE
  8
0
  6
CONTINUOUS
 62
     7
  5
677
 10
151.648523
 20
-178.894048
 30
0.0
 11
155.162409
 21
-178.894048
 31
0.0
  0
LINE
  8
0
  6
CONTINUOUS
 62
     7
  5
678
 10
155.162409
 20
-178.894048
 30
0.0
 11
155.973123
 21
-178.894048
 31
0.0
  0
LINE
  8
0
  6
CONTINUOUS
 62
     7
  5
679
 10
155.973123
 20
-175.894048
 30
0.0
 11
144.744617
 21
-175.894048
 31
0.0
  0
LINE
  8
0
  6
CONTINUOUS
 62
     7
  5
67A
 10
164.72294
 20
-175.894048
 30
0.0
 11
164.72294
 21
-137.894048
 31
0.0
  0
LINE
  8
0
  6
CONTINUOUS
 62
     7
  5
67B
 10
177.722668
 20
-175.894048
 30
0.0
 11
177.722668
 21
-137.894048
 31
0.0
  0
LINE
  8
0
  6
CONTINUOUS
 62
     7
  5
67C
 10
164.70097
 20
-175.894048
 30
0.0
 11
164.70097
 21
-137.894048
 31
0.0
  0
LINE
  8
0
  6
CONTINUOUS
 62
     7
  5
67D
 10
192.462447
 20
-131.894048
 30
0.0
 11
198.891713
 21
-131.894048
 31
0.0
  0
LINE
  8
0
  6
CONTINUOUS
 62
     7
  5
67E
 10
192.320728
 20
-132.294048
 30
0.0
 11
192.320728
 21
-131.894048
 31
0.0
  0
LINE
  8
0
  6
CONTINUOUS
 62
     7
  5
67F
 10
192.462447
 20
-131.894048
 30
0.0
 11
192.462447
 21
-132.294048
 31
0.0
  0
LINE
  8
0
  6
CONTINUOUS
 62
     7
  5
680
 10
192.462447
 20
-132.294048
 30
0.0
 11
186.472486
 21
-132.294048
 31
0.0
  0
LINE
  8
0
  6
CONTINUOUS
 62
     7
  5
681
 10
192.320728
 20
-181.894048
 30
0.0
 11
192.320728
 21
-181.494048
 31
0.0
  0
LINE
  8
0
  6
CONTINUOUS
 62
     7
  5
682
 10
192.462447
 20
-181.894048
 30
0.0
 11
198.891713
 21
-181.894048
 31
0.0
  0
LINE
  8
0
  6
CONTINUOUS
 62
     7
  5
683
 10
192.462447
 20
-181.494048
 30
0.0
 11
192.462447
 21
-181.894048
 31
0.0
  0
LINE
  8
0
  6
CONTINUOUS
 62
     7
  5
684
 10
186.472486
 20
-181.494048
 30
0.0
 11
192.462447
 21
-181.494048
 31
0.0
  0
LINE
  8
0
  6
CONTINUOUS
 62
     7
  5
685
 10
192.462447
 20
-181.894048
 30
0.0
 11
192.320728
 21
-181.894048
 31
0.0
  0
LINE
  8
0
  6
CONTINUOUS
 62
     7
  5
686
 10
192.320728
 20
-131.894048
 30
0.0
 11
192.462447
 21
-131.894048
 31
0.0
  0
LINE
  8
0
  6
CONTINUOUS
 62
     7
  5
687
 10
157.812997
 20
-181.894048
 30
0.0
 11
150.892454
 21
-181.894048
 31
0.0
  0
LINE
  8
0
  6
CONTINUOUS
 62
     9
  5
688
 10
150.892454
 20
-181.494048
 30
0.0
 11
150.892454
 21
-181.894048
 31
0.0
  0
LINE
  8
0
  6
CONTINUOUS
 62
     7
  5
689
 10
150.892454
 20
-131.894048
 30
0.0
 11
157.812997
 21
-131.894048
 31
0.0
  0
LINE
  8
0
  6
CONTINUOUS
 62
     9
  5
68A
 10
150.892454
 20
-131.894048
 30
0.0
 11
150.892454
 21
-132.294048
 31
0.0
  0
LINE
  8
0
  6
CONTINUOUS
 62
     7
  5
68B
 10
127.252328
 20
-160.894048
 30
0.0
 11
126.864711
 21
-160.894048
 31
0.0
  0
LINE
  8
0
  6
CONTINUOUS
 62
     7
  5
68C
 10
127.252328
 20
-175.894048
 30
0.0
 11
127.252328
 21
-160.894048
 31
0.0
  0
LINE
  8
0
  6
CONTINUOUS
 62
     7
  5
68D
 10
125.682229
 20
-156.894048
 30
0.0
 11
125.280568
 21
-156.894048
 31
0.0
  0
LINE
  8
0
  6
CONTINUOUS
 62
     7
  5
68E
 10
127.252328
 20
-160.894048
 30
0.0
 11
125.682229
 21
-156.894048
 31
0.0
  0
LINE
  8
0
  6
CONTINUOUS
 62
     7
  5
68F
 10
127.252328
 20
-137.894048
 30
0.0
 11
127.252328
 21
-155.894048
 31
0.0
  0
LINE
  8
0
  6
CONTINUOUS
 62
     7
  5
690
 10
126.864711
 20
-155.894048
 30
0.0
 11
127.252328
 21
-155.894048
 31
0.0
  0
LINE
  8
0
  6
CONTINUOUS
 62
     7
  5
691
 10
125.682229
 20
-156.894048
 30
0.0
 11
125.682229
 21
-155.894048
 31
0.0
  0
LINE
  8
0
  6
CONTINUOUS
 62
     7
  5
692
 10
115.133733
 20
-175.894048
 30
0.0
 11
115.133733
 21
-137.894048
 31
0.0
  0
LINE
  8
0
  6
CONTINUOUS
 62
     7
  5
693
 10
80.657311
 20
-181.894048
 30
0.0
 11
81.992373
 21
-181.894048
 31
0.0
  0
LINE
  8
0
  6
CONTINUOUS
 62
     7
  5
694
 10
80.657311
 20
-181.494048
 30
0.0
 11
80.657311
 21
-181.894048
 31
0.0
  0
LINE
  8
0
  6
CONTINUOUS
 62
     7
  5
695
 10
80.657311
 20
-131.894048
 30
0.0
 11
80.657311
 21
-132.294048
 31
0.0
  0
LINE
  8
0
  6
CONTINUOUS
 62
     7
  5
696
 10
80.657311
 20
-131.894048
 30
0.0
 11
81.992373
 21
-131.894048
 31
0.0
  0
LINE
  8
0
  6
CONTINUOUS
 62
     7
  5
697
 10
93.520889
 20
-175.894048
 30
0.0
 11
93.520889
 21
-137.894048
 31
0.0
  0
LINE
  8
0
  6
CONTINUOUS
 62
     7
  5
698
 10
80.48311
 20
-134.894048
 30
0.0
 11
80.983133
 21
-134.894048
 31
0.0
  0
LINE
  8
0
  6
CONTINUOUS
 62
     7
  5
699
 10
81.992373
 20
-131.894048
 30
0.0
 11
97.299675
 21
-131.894048
 31
0.0
  0
LINE
  8
0
  6
CONTINUOUS
 62
     7
  5
69A
 10
80.983133
 20
-134.899048
 30
0.0
 11
81.220414
 21
-134.899048
 31
0.0
  0
LINE
  8
0
  6
CONTINUOUS
 62
     7
  5
69B
 10
80.983133
 20
-134.894048
 30
0.0
 11
80.983133
 21
-134.899048
 31
0.0
  0
LINE
  8
0
  6
CONTINUOUS
 62
     7
  5
69C
 10
81.992373
 20
-132.294048
 30
0.0
 11
80.48311
 21
-132.294048
 31
0.0
  0
LINE
  8
0
  6
CONTINUOUS
 62
     7
  5
69D
 10
81.992373
 20
-131.894048
 30
0.0
 11
81.992373
 21
-132.294048
 31
0.0
  0
LINE
  8
0
  6
CONTINUOUS
 62
     7
  5
69E
 10
80.48311
 20
-181.494048
 30
0.0
 11
81.992373
 21
-181.494048
 31
0.0
  0
LINE
  8
0
  6
CONTINUOUS
 62
     7
  5
69F
 10
81.992373
 20
-181.494048
 30
0.0
 11
81.992373
 21
-181.894048
 31
0.0
  0
LINE
  8
0
  6
CONTINUOUS
 62
     7
  5
6A0
 10
80.983133
 20
-178.894048
 30
0.0
 11
80.48311
 21
-178.894048
 31
0.0
  0
LINE
  8
0
  6
CONTINUOUS
 62
     7
  5
6A1
 10
80.983133
 20
-178.889048
 30
0.0
 11
80.983133
 21
-178.894048
 31
0.0
  0
LINE
  8
0
  6
CONTINUOUS
 62
     7
  5
6A2
 10
81.992373
 20
-181.894048
 30
0.0
 11
97.299675
 21
-181.894048
 31
0.0
  0
LINE
  8
0
  6
CONTINUOUS
 62
     7
  5
6A3
 10
81.220414
 20
-178.889048
 30
0.0
 11
80.983133
 21
-178.889048
 31
0.0
  0
LINE
  8
0
  6
CONTINUOUS
 62
     7
  5
6A4
 10
80.183221
 20
-178.894048
 30
0.0
 11
80.183221
 21
-181.494048
 31
0.0
  0
LINE
  8
0
  6
CONTINUOUS
 62
     7
  5
6A5
 10
80.48311
 20
-178.894048
 30
0.0
 11
80.183221
 21
-178.894048
 31
0.0
  0
LINE
  8
0
  6
CONTINUOUS
 62
     7
  5
6A6
 10
80.183221
 20
-181.494048
 30
0.0
 11
80.48311
 21
-181.494048
 31
0.0
  0
LINE
  8
0
  6
CONTINUOUS
 62
     7
  5
6A7
 10
80.183221
 20
-132.294048
 30
0.0
 11
80.183221
 21
-134.894048
 31
0.0
  0
LINE
  8
0
  6
CONTINUOUS
 62
     7
  5
6A8
 10
80.183221
 20
-134.894048
 30
0.0
 11
80.48311
 21
-134.894048
 31
0.0
  0
LINE
  8
0
  6
CONTINUOUS
 62
     7
  5
6A9
 10
80.48311
 20
-132.294048
 30
0.0
 11
80.183221
 21
-132.294048
 31
0.0
  0
LINE
  8
0
  6
CONTINUOUS
 62
     7
  5
6AA
 10
80.217978
 20
-175.894048
 30
0.0
 11
80.48311
 21
-175.894048
 31
0.0
  0
LINE
  8
0
  6
CONTINUOUS
 62
     7
  5
6AB
 10
80.217978
 20
-178.894048
 30
0.0
 11
80.217978
 21
-175.894048
 31
0.0
  0
LINE
  8
0
  6
CONTINUOUS
 62
     7
  5
6AC
 10
80.48311
 20
-137.894048
 30
0.0
 11
80.217978
 21
-137.894048
 31
0.0
  0
LINE
  8
0
  6
CONTINUOUS
 62
     7
  5
6AD
 10
80.217978
 20
-137.894048
 30
0.0
 11
80.217978
 21
-134.894048
 31
0.0
  0
LINE
  8
0
  6
CONTINUOUS
 62
     7
  5
6AE
 10
83.67737
 20
-175.894048
 30
0.0
 11
83.67737
 21
-137.894048
 31
0.0
  0
LINE
  8
0
  6
CONTINUOUS
 62
     7
  5
6AF
 10
83.920658
 20
-137.894048
 30
0.0
 11
83.920658
 21
-175.894048
 31
0.0
  0
LINE
  8
0
  6
CONTINUOUS
 62
     7
  5
6B0
 10
80.51964
 20
-175.894048
 30
0.0
 11
80.51964
 21
-137.894048
 31
0.0
  0
LINE
  8
0
  6
CONTINUOUS
 62
     7
  5
6B1
 10
83.973724
 20
-175.894048
 30
0.0
 11
83.973724
 21
-137.894048
 31
0.0
  0
LINE
  8
0
  6
CONTINUOUS
 62
     7
  5
6B2
 10
102.803232
 20
-157.764191
 30
0.0
 11
102.424618
 21
-157.108407
 31
0.0
  0
LINE
  8
0
  6
CONTINUOUS
 62
     7
  5
6B3
 10
102.424618
 20
-157.108407
 30
0.0
 11
102.424618
 21
-153.894048
 31
0.0
  0
LINE
  8
0
  6
CONTINUOUS
 62
     7
  5
6B4
 10
102.424618
 20
-153.894048
 30
0.0
 11
102.803232
 21
-153.894048
 31
0.0
  0
LINE
  8
0
  6
CONTINUOUS
 62
     7
  5
6B5
 10
117.454053
 20
-132.294048
 30
0.0
 11
117.454053
 21
-131.894048
 31
0.0
  0
LINE
  8
0
  6
CONTINUOUS
 62
     7
  5
6B6
 10
95.396686
 20
-134.899048
 30
0.0
 11
96.230554
 21
-134.899048
 31
0.0
  0
LINE
  8
0
  6
CONTINUOUS
 62
     7
  5
6B7
 10
95.396686
 20
-134.894048
 30
0.0
 11
95.396686
 21
-134.899048
 31
0.0
  0
LINE
  8
0
  6
CONTINUOUS
 62
     7
  5
6B8
 10
93.52376
 20
-134.894048
 30
0.0
 11
95.396686
 21
-134.894048
 31
0.0
  0
LINE
  8
0
  6
CONTINUOUS
 62
     7
  5
6B9
 10
93.52376
 20
-132.294048
 30
0.0
 11
93.52376
 21
-134.894048
 31
0.0
  0
LINE
  8
0
  6
CONTINUOUS
 62
     7
  5
6BA
 10
97.299675
 20
-132.294048
 30
0.0
 11
93.52376
 21
-132.294048
 31
0.0
  0
LINE
  8
0
  6
CONTINUOUS
 62
     7
  5
6BB
 10
97.299675
 20
-131.894048
 30
0.0
 11
97.299675
 21
-132.294048
 31
0.0
  0
LINE
  8
0
  6
CONTINUOUS
 62
     7
  5
6BC
 10
97.299675
 20
-131.894048
 30
0.0
 11
117.454053
 21
-131.894048
 31
0.0
  0
LINE
  8
0
  6
CONTINUOUS
 62
     7
  5
6BD
 10
96.230554
 20
-178.889048
 30
0.0
 11
95.396686
 21
-178.889048
 31
0.0
  0
LINE
  8
0
  6
CONTINUOUS
 62
     7
  5
6BE
 10
117.454053
 20
-181.894048
 30
0.0
 11
117.454053
 21
-181.494048
 31
0.0
  0
LINE
  8
0
  6
CONTINUOUS
 62
     7
  5
6BF
 10
97.299675
 20
-181.494048
 30
0.0
 11
97.299675
 21
-181.894048
 31
0.0
  0
LINE
  8
0
  6
CONTINUOUS
 62
     7
  5
6C0
 10
93.52376
 20
-181.494048
 30
0.0
 11
97.299675
 21
-181.494048
 31
0.0
  0
LINE
  8
0
  6
CONTINUOUS
 62
     7
  5
6C1
 10
93.52376
 20
-178.894048
 30
0.0
 11
93.52376
 21
-181.494048
 31
0.0
  0
LINE
  8
0
  6
CONTINUOUS
 62
     7
  5
6C2
 10
95.396686
 20
-178.894048
 30
0.0
 11
93.52376
 21
-178.894048
 31
0.0
  0
LINE
  8
0
  6
CONTINUOUS
 62
     7
  5
6C3
 10
95.396686
 20
-178.889048
 30
0.0
 11
95.396686
 21
-178.894048
 31
0.0
  0
LINE
  8
0
  6
CONTINUOUS
 62
     7
  5
6C4
 10
97.299675
 20
-181.894048
 30
0.0
 11
117.454053
 21
-181.894048
 31
0.0
  0
LINE
  8
0
  6
CONTINUOUS
 62
     7
  5
6C5
 10
93.248072
 20
-178.894048
 30
0.0
 11
93.248072
 21
-181.494048
 31
0.0
  0
LINE
  8
0
  6
CONTINUOUS
 62
     7
  5
6C6
 10
93.52376
 20
-178.894048
 30
0.0
 11
93.248072
 21
-178.894048
 31
0.0
  0
LINE
  8
0
  6
CONTINUOUS
 62
     7
  5
6C7
 10
93.248072
 20
-181.494048
 30
0.0
 11
93.52376
 21
-181.494048
 31
0.0
  0
LINE
  8
0
  6
CONTINUOUS
 62
     7
  5
6C8
 10
93.248072
 20
-132.294048
 30
0.0
 11
93.248072
 21
-134.894048
 31
0.0
  0
LINE
  8
0
  6
CONTINUOUS
 62
     7
  5
6C9
 10
89.955254
 20
-137.894048
 30
0.0
 11
89.955254
 21
-134.894048
 31
0.0
  0
LINE
  8
0
  6
CONTINUOUS
 62
     7
  5
6CA
 10
81.220414
 20
-137.894048
 30
0.0
 11
89.955254
 21
-137.894048
 31
0.0
  0
LINE
  8
0
  6
CONTINUOUS
 62
     7
  5
6CB
 10
81.220414
 20
-134.894048
 30
0.0
 11
81.220414
 21
-137.894048
 31
0.0
  0
LINE
  8
0
  6
CONTINUOUS
 62
     7
  5
6CC
 10
84.513232
 20
-134.894048
 30
0.0
 11
81.220414
 21
-134.894048
 31
0.0
  0
LINE
  8
0
  6
CONTINUOUS
 62
     7
  5
6CD
 10
84.513232
 20
-132.294048
 30
0.0
 11
84.513232
 21
-134.894048
 31
0.0
  0
LINE
  8
0
  6
CONTINUOUS
 62
     7
  5
6CE
 10
89.955254
 20
-134.894048
 30
0.0
 11
93.248072
 21
-134.894048
 31
0.0
  0
LINE
  8
0
  6
CONTINUOUS
 62
     7
  5
6CF
 10
93.248072
 20
-132.294048
 30
0.0
 11
84.513232
 21
-132.294048
 31
0.0
  0
LINE
  8
0
  6
CONTINUOUS
 62
     7
  5
6D0
 10
84.513232
 20
-178.894048
 30
0.0
 11
84.513232
 21
-181.494048
 31
0.0
  0
LINE
  8
0
  6
CONTINUOUS
 62
     7
  5
6D1
 10
81.220414
 20
-178.894048
 30
0.0
 11
84.513232
 21
-178.894048
 31
0.0
  0
LINE
  8
0
  6
CONTINUOUS
 62
     7
  5
6D2
 10
81.220414
 20
-175.894048
 30
0.0
 11
81.220414
 21
-178.894048
 31
0.0
  0
LINE
  8
0
  6
CONTINUOUS
 62
     7
  5
6D3
 10
89.955254
 20
-175.894048
 30
0.0
 11
81.220414
 21
-175.894048
 31
0.0
  0
LINE
  8
0
  6
CONTINUOUS
 62
     7
  5
6D4
 10
89.955254
 20
-178.894048
 30
0.0
 11
89.955254
 21
-175.894048
 31
0.0
  0
LINE
  8
0
  6
CONTINUOUS
 62
     7
  5
6D5
 10
93.248072
 20
-178.894048
 30
0.0
 11
89.955254
 21
-178.894048
 31
0.0
  0
LINE
  8
0
  6
CONTINUOUS
 62
     7
  5
6D6
 10
84.513232
 20
-181.494048
 30
0.0
 11
93.248072
 21
-181.494048
 31
0.0
  0
LINE
  8
0
  6
CONTINUOUS
 62
     7
  5
6D7
 10
93.248072
 20
-134.894048
 30
0.0
 11
93.52376
 21
-134.894048
 31
0.0
  0
LINE
  8
0
  6
CONTINUOUS
 62
     7
  5
6D8
 10
93.52376
 20
-132.294048
 30
0.0
 11
93.248072
 21
-132.294048
 31
0.0
  0
LINE
  8
0
  6
CONTINUOUS
 62
     7
  5
6D9
 10
89.955254
 20
-175.894048
 30
0.0
 11
92.510767
 21
-175.894048
 31
0.0
  0
LINE
  8
0
  6
CONTINUOUS
 62
     7
  5
6DA
 10
92.510767
 20
-137.894048
 30
0.0
 11
89.955254
 21
-137.894048
 31
0.0
  0
LINE
  8
0
  6
CONTINUOUS
 62
     7
  5
6DB
 10
84.94666
 20
-175.894048
 30
0.0
 11
84.94666
 21
-137.894048
 31
0.0
  0
LINE
  8
0
  6
CONTINUOUS
 62
     7
  5
6DC
 10
90.073203
 20
-175.894048
 30
0.0
 11
90.073203
 21
-137.894048
 31
0.0
  0
LINE
  8
0
  6
CONTINUOUS
 62
     7
  5
6DD
 10
92.975057
 20
-175.894048
 30
0.0
 11
92.975057
 21
-137.894048
 31
0.0
  0
LINE
  8
0
  6
CONTINUOUS
 62
     7
  5
6DE
 10
93.098424
 20
-137.894048
 30
0.0
 11
93.098424
 21
-175.894048
 31
0.0
  0
LINE
  8
0
  6
CONTINUOUS
 62
     7
  5
6DF
 10
80.48311
 20
-178.894048
 30
0.0
 11
80.983133
 21
-178.894048
 31
0.0
  0
LINE
  8
0
  6
CONTINUOUS
 62
     7
  5
6E0
 10
80.983133
 20
-178.894048
 30
0.0
 11
81.220414
 21
-178.894048
 31
0.0
  0
LINE
  8
0
  6
CONTINUOUS
 62
     7
  5
6E1
 10
81.220414
 20
-175.894048
 30
0.0
 11
80.48311
 21
-175.894048
 31
0.0
  0
LINE
  8
0
  6
CONTINUOUS
 62
     7
  5
6E2
 10
80.48311
 20
-137.894048
 30
0.0
 11
81.220414
 21
-137.894048
 31
0.0
  0
LINE
  8
0
  6
CONTINUOUS
 62
     7
  5
6E3
 10
81.220414
 20
-134.894048
 30
0.0
 11
80.983133
 21
-134.894048
 31
0.0
  0
LINE
  8
0
  6
CONTINUOUS
 62
     7
  5
6E4
 10
80.983133
 20
-134.894048
 30
0.0
 11
80.48311
 21
-134.894048
 31
0.0
  0
LINE
  8
0
  6
CONTINUOUS
 62
     7
  5
6E5
 10
122.858254
 20
-178.889048
 30
0.0
 11
121.565703
 21
-178.889048
 31
0.0
  0
LINE
  8
0
  6
CONTINUOUS
 62
     7
  5
6E6
 10
124.047727
 20
-181.894048
 30
0.0
 11
139.703933
 21
-181.894048
 31
0.0
  0
LINE
  8
0
  6
CONTINUOUS
 62
     7
  5
6E7
 10
124.047727
 20
-181.494048
 30
0.0
 11
124.047727
 21
-181.894048
 31
0.0
  0
LINE
  8
0
  6
CONTINUOUS
 62
     7
  5
6E8
 10
118.629506
 20
-181.494048
 30
0.0
 11
124.047727
 21
-181.494048
 31
0.0
  0
LINE
  8
0
  6
CONTINUOUS
 62
     7
  5
6E9
 10
118.629506
 20
-178.894048
 30
0.0
 11
118.629506
 21
-181.494048
 31
0.0
  0
LINE
  8
0
  6
CONTINUOUS
 62
     7
  5
6EA
 10
121.565703
 20
-178.894048
 30
0.0
 11
118.629506
 21
-178.894048
 31
0.0
  0
LINE
  8
0
  6
CONTINUOUS
 62
     7
  5
6EB
 10
121.565703
 20
-178.889048
 30
0.0
 11
121.565703
 21
-178.894048
 31
0.0
  0
LINE
  8
0
  6
CONTINUOUS
 62
     7
  5
6EC
 10
121.565703
 20
-134.894048
 30
0.0
 11
121.565703
 21
-134.899048
 31
0.0
  0
LINE
  8
0
  6
CONTINUOUS
 62
     7
  5
6ED
 10
118.629506
 20
-134.894048
 30
0.0
 11
121.565703
 21
-134.894048
 31
0.0
  0
LINE
  8
0
  6
CONTINUOUS
 62
     7
  5
6EE
 10
118.629506
 20
-132.294048
 30
0.0
 11
118.629506
 21
-134.894048
 31
0.0
  0
LINE
  8
0
  6
CONTINUOUS
 62
     7
  5
6EF
 10
124.047727
 20
-132.294048
 30
0.0
 11
118.629506
 21
-132.294048
 31
0.0
  0
LINE
  8
0
  6
CONTINUOUS
 62
     7
  5
6F0
 10
124.047727
 20
-131.894048
 30
0.0
 11
124.047727
 21
-132.294048
 31
0.0
  0
LINE
  8
0
  6
CONTINUOUS
 62
     7
  5
6F1
 10
124.047727
 20
-131.894048
 30
0.0
 11
139.703933
 21
-131.894048
 31
0.0
  0
LINE
  8
0
  6
CONTINUOUS
 62
     7
  5
6F2
 10
121.565703
 20
-134.899048
 30
0.0
 11
122.858254
 21
-134.899048
 31
0.0
  0
LINE
  8
0
  6
CONTINUOUS
 62
     7
  5
6F3
 10
118.42372
 20
-178.894048
 30
0.0
 11
118.42372
 21
-181.494048
 31
0.0
  0
LINE
  8
0
  6
CONTINUOUS
 62
     7
  5
6F4
 10
118.629506
 20
-178.894048
 30
0.0
 11
118.42372
 21
-178.894048
 31
0.0
  0
LINE
  8
0
  6
CONTINUOUS
 62
     7
  5
6F5
 10
118.42372
 20
-181.494048
 30
0.0
 11
118.629506
 21
-181.494048
 31
0.0
  0
LINE
  8
0
  6
CONTINUOUS
 62
     7
  5
6F6
 10
118.42372
 20
-132.294048
 30
0.0
 11
118.42372
 21
-134.894048
 31
0.0
  0
LINE
  8
0
  6
CONTINUOUS
 62
     7
  5
6F7
 10
112.347886
 20
-137.894048
 30
0.0
 11
112.347886
 21
-134.894048
 31
0.0
  0
LINE
  8
0
  6
CONTINUOUS
 62
     7
  5
6F8
 10
96.230554
 20
-137.894048
 30
0.0
 11
112.347886
 21
-137.894048
 31
0.0
  0
LINE
  8
0
  6
CONTINUOUS
 62
     7
  5
6F9
 10
96.230554
 20
-134.894048
 30
0.0
 11
96.230554
 21
-137.894048
 31
0.0
  0
LINE
  8
0
  6
CONTINUOUS
 62
     7
  5
6FA
 10
102.306388
 20
-134.894048
 30
0.0
 11
96.230554
 21
-134.894048
 31
0.0
  0
LINE
  8
0
  6
CONTINUOUS
 62
     7
  5
6FB
 10
102.306388
 20
-132.294048
 30
0.0
 11
102.306388
 21
-134.894048
 31
0.0
  0
LINE
  8
0
  6
CONTINUOUS
 62
     7
  5
6FC
 10
112.347886
 20
-134.894048
 30
0.0
 11
118.42372
 21
-134.894048
 31
0.0
  0
LINE
  8
0
  6
CONTINUOUS
 62
     7
  5
6FD
 10
118.42372
 20
-132.294048
 30
0.0
 11
102.306388
 21
-132.294048
 31
0.0
  0
LINE
  8
0
  6
CONTINUOUS
 62
     7
  5
6FE
 10
118.42372
 20
-134.894048
 30
0.0
 11
118.629506
 21
-134.894048
 31
0.0
  0
LINE
  8
0
  6
CONTINUOUS
 62
     7
  5
6FF
 10
118.629506
 20
-132.294048
 30
0.0
 11
118.42372
 21
-132.294048
 31
0.0
  0
LINE
  8
0
  6
CONTINUOUS
 62
     7
  5
700
 10
102.306388
 20
-178.894048
 30
0.0
 11
102.306388
 21
-181.494048
 31
0.0
  0
LINE
  8
0
  6
CONTINUOUS
 62
     7
  5
701
 10
96.230554
 20
-178.894048
 30
0.0
 11
102.306388
 21
-178.894048
 31
0.0
  0
LINE
  8
0
  6
CONTINUOUS
 62
     7
  5
702
 10
96.230554
 20
-175.894048
 30
0.0
 11
96.230554
 21
-178.894048
 31
0.0
  0
LINE
  8
0
  6
CONTINUOUS
 62
     7
  5
703
 10
112.347886
 20
-175.894048
 30
0.0
 11
96.230554
 21
-175.894048
 31
0.0
  0
LINE
  8
0
  6
CONTINUOUS
 62
     7
  5
704
 10
112.347886
 20
-178.894048
 30
0.0
 11
112.347886
 21
-175.894048
 31
0.0
  0
LINE
  8
0
  6
CONTINUOUS
 62
     7
  5
705
 10
118.42372
 20
-178.894048
 30
0.0
 11
112.347886
 21
-178.894048
 31
0.0
  0
LINE
  8
0
  6
CONTINUOUS
 62
     7
  5
706
 10
102.306388
 20
-181.494048
 30
0.0
 11
118.42372
 21
-181.494048
 31
0.0
  0
LINE
  8
0
  6
CONTINUOUS
 62
     7
  5
707
 10
114.473371
 20
-134.899048
 30
0.0
 11
114.473371
 21
-137.894048
 31
0.0
  0
LINE
  8
0
  6
CONTINUOUS
 62
     7
  5
708
 10
114.473371
 20
-137.894048
 30
0.0
 11
112.347886
 21
-137.894048
 31
0.0
  0
LINE
  8
0
  6
CONTINUOUS
 62
     7
  5
709
 10
114.473371
 20
-175.894048
 30
0.0
 11
114.473371
 21
-178.889048
 31
0.0
  0
LINE
  8
0
  6
CONTINUOUS
 62
     7
  5
70A
 10
112.347886
 20
-175.894048
 30
0.0
 11
114.473371
 21
-175.894048
 31
0.0
  0
LINE
  8
0
  6
CONTINUOUS
 62
     7
  5
70B
 10
102.803232
 20
-175.894048
 30
0.0
 11
102.803232
 21
-137.894048
 31
0.0
  0
LINE
  8
0
  6
CONTINUOUS
 62
     7
  5
70C
 10
112.262614
 20
-175.894048
 30
0.0
 11
112.262614
 21
-137.894048
 31
0.0
  0
LINE
  8
0
  6
CONTINUOUS
 62
     7
  5
70D
 10
114.428691
 20
-175.894048
 30
0.0
 11
114.428691
 21
-137.894048
 31
0.0
  0
LINE
  8
0
  6
CONTINUOUS
 62
     7
  5
70E
 10
114.703933
 20
-175.894048
 30
0.0
 11
114.473371
 21
-175.894048
 31
0.0
  0
LINE
  8
0
  6
CONTINUOUS
 62
     7
  5
70F
 10
114.473371
 20
-137.894048
 30
0.0
 11
114.703933
 21
-137.894048
 31
0.0
  0
LINE
  8
0
  6
CONTINUOUS
 62
     7
  5
710
 10
92.510767
 20
-137.894048
 30
0.0
 11
96.230554
 21
-137.894048
 31
0.0
  0
LINE
  8
0
  6
CONTINUOUS
 62
     7
  5
711
 10
96.230554
 20
-134.894048
 30
0.0
 11
95.396686
 21
-134.894048
 31
0.0
  0
LINE
  8
0
  6
CONTINUOUS
 62
     7
  5
712
 10
95.396686
 20
-134.894048
 30
0.0
 11
93.52376
 21
-134.894048
 31
0.0
  0
LINE
  8
0
  6
CONTINUOUS
 62
     7
  5
713
 10
93.52376
 20
-178.894048
 30
0.0
 11
95.396686
 21
-178.894048
 31
0.0
  0
LINE
  8
0
  6
CONTINUOUS
 62
     7
  5
714
 10
95.396686
 20
-178.894048
 30
0.0
 11
96.230554
 21
-178.894048
 31
0.0
  0
LINE
  8
0
  6
CONTINUOUS
 62
     7
  5
715
 10
96.230554
 20
-175.894048
 30
0.0
 11
92.510767
 21
-175.894048
 31
0.0
  0
LINE
  8
0
  6
CONTINUOUS
 62
     7
  5
716
 10
121.950079
 20
-161.108407
 30
0.0
 11
126.315948
 21
-161.108407
 31
0.0
  0
LINE
  8
0
  6
CONTINUOUS
 62
     7
  5
717
 10
120.365936
 20
-157.108407
 30
0.0
 11
121.950079
 21
-161.108407
 31
0.0
  0
LINE
  8
0
  6
CONTINUOUS
 62
     7
  5
718
 10
120.365936
 20
-157.108407
 30
0.0
 11
124.731805
 21
-157.108407
 31
0.0
  0
LINE
  8
0
  6
CONTINUOUS
 62
     7
  5
719
 10
126.315948
 20
-161.108407
 30
0.0
 11
124.731805
 21
-157.108407
 31
0.0
  0
LINE
  8
0
  6
CONTINUOUS
 62
     7
  5
71A
 10
120.365936
 20
-153.894048
 30
0.0
 11
120.365936
 21
-157.108407
 31
0.0
  0
LINE
  8
0
  6
CONTINUOUS
 62
     7
  5
71B
 10
124.731805
 20
-157.108407
 30
0.0
 11
124.731805
 21
-153.894048
 31
0.0
  0
LINE
  8
0
  6
CONTINUOUS
 62
     7
  5
71C
 10
120.365936
 20
-153.894048
 30
0.0
 11
124.731805
 21
-153.894048
 31
0.0
  0
LINE
  8
0
  6
CONTINUOUS
 62
     7
  5
71D
 10
126.315948
 20
-175.894048
 30
0.0
 11
126.315948
 21
-161.108407
 31
0.0
  0
LINE
  8
0
  6
CONTINUOUS
 62
     7
  5
71E
 10
125.280568
 20
-153.894048
 30
0.0
 11
125.280568
 21
-156.894048
 31
0.0
  0
LINE
  8
0
  6
CONTINUOUS
 62
     7
  5
71F
 10
125.280568
 20
-156.894048
 30
0.0
 11
126.864711
 21
-160.894048
 31
0.0
  0
LINE
  8
0
  6
CONTINUOUS
 62
     7
  5
720
 10
126.864711
 20
-160.894048
 30
0.0
 11
126.864711
 21
-175.894048
 31
0.0
  0
LINE
  8
0
  6
CONTINUOUS
 62
     7
  5
721
 10
124.731805
 20
-153.894048
 30
0.0
 11
125.280568
 21
-153.894048
 31
0.0
  0
LINE
  8
0
  6
CONTINUOUS
 62
     7
  5
722
 10
126.315948
 20
-137.894048
 30
0.0
 11
126.315948
 21
-155.894048
 31
0.0
  0
LINE
  8
0
  6
CONTINUOUS
 62
     7
  5
723
 10
126.864711
 20
-155.894048
 30
0.0
 11
126.864711
 21
-137.894048
 31
0.0
  0
LINE
  8
0
  6
CONTINUOUS
 62
     7
  5
724
 10
126.315948
 20
-155.894048
 30
0.0
 11
126.864711
 21
-155.894048
 31
0.0
  0
LINE
  8
0
  6
CONTINUOUS
 62
     7
  5
725
 10
121.950079
 20
-161.108407
 30
0.0
 11
121.950079
 21
-175.894048
 31
0.0
  0
LINE
  8
0
  6
CONTINUOUS
 62
     7
  5
726
 10
121.950079
 20
-153.894048
 30
0.0
 11
121.950079
 21
-137.894048
 31
0.0
  0
LINE
  8
0
  6
CONTINUOUS
 62
     7
  5
727
 10
126.315948
 20
-155.894048
 30
0.0
 11
125.280568
 21
-155.894048
 31
0.0
  0
LINE
  8
0
  6
CONTINUOUS
 62
     7
  5
728
 10
157.812997
 20
-181.894048
 30
0.0
 11
168.39235
 21
-181.894048
 31
0.0
  0
LINE
  8
0
  6
CONTINUOUS
 62
     7
  5
729
 10
157.812997
 20
-181.494048
 30
0.0
 11
157.812997
 21
-181.894048
 31
0.0
  0
LINE
  8
0
  6
CONTINUOUS
 62
     7
  5
72A
 10
151.648523
 20
-181.494048
 30
0.0
 11
157.812997
 21
-181.494048
 31
0.0
  0
LINE
  8
0
  6
CONTINUOUS
 62
     7
  5
72B
 10
151.648523
 20
-178.894048
 30
0.0
 11
151.648523
 21
-181.494048
 31
0.0
  0
LINE
  8
0
  6
CONTINUOUS
 62
     7
  5
72C
 10
155.162409
 20
-178.894048
 30
0.0
 11
151.648523
 21
-178.894048
 31
0.0
  0
LINE
  8
0
  6
CONTINUOUS
 62
     7
  5
72D
 10
155.162409
 20
-178.889048
 30
0.0
 11
155.162409
 21
-178.894048
 31
0.0
  0
LINE
  8
0
  6
CONTINUOUS
 62
     7
  5
72E
 10
157.812997
 20
-131.894048
 30
0.0
 11
168.39235
 21
-131.894048
 31
0.0
  0
LINE
  8
0
  6
CONTINUOUS
 62
     7
  5
72F
 10
155.162409
 20
-134.894048
 30
0.0
 11
155.162409
 21
-134.899048
 31
0.0
  0
LINE
  8
0
  6
CONTINUOUS
 62
     7
  5
730
 10
151.648523
 20
-134.894048
 30
0.0
 11
155.162409
 21
-134.894048
 31
0.0
  0
LINE
  8
0
  6
CONTINUOUS
 62
     7
  5
731
 10
151.648523
 20
-132.294048
 30
0.0
 11
151.648523
 21
-134.894048
 31
0.0
  0
LINE
  8
0
  6
CONTINUOUS
 62
     7
  5
732
 10
157.812997
 20
-131.894048
 30
0.0
 11
157.812997
 21
-132.294048
 31
0.0
  0
LINE
  8
0
  6
CONTINUOUS
 62
     7
  5
733
 10
157.812997
 20
-132.294048
 30
0.0
 11
151.648523
 21
-132.294048
 31
0.0
  0
LINE
  8
0
  6
CONTINUOUS
 62
     7
  5
734
 10
151.546671
 20
-178.894048
 30
0.0
 11
151.546671
 21
-181.494048
 31
0.0
  0
LINE
  8
0
  6
CONTINUOUS
 62
     7
  5
735
 10
151.648523
 20
-178.894048
 30
0.0
 11
151.546671
 21
-178.894048
 31
0.0
  0
LINE
  8
0
  6
CONTINUOUS
 62
     7
  5
736
 10
151.546671
 20
-181.494048
 30
0.0
 11
151.648523
 21
-181.494048
 31
0.0
  0
LINE
  8
0
  6
CONTINUOUS
 62
     7
  5
737
 10
130.712296
 20
-178.894048
 30
0.0
 11
130.712296
 21
-181.494048
 31
0.0
  0
LINE
  8
0
  6
CONTINUOUS
 62
     7
  5
738
 10
122.858254
 20
-178.894048
 30
0.0
 11
130.712296
 21
-178.894048
 31
0.0
  0
LINE
  8
0
  6
CONTINUOUS
 62
     7
  5
739
 10
122.858254
 20
-175.894048
 30
0.0
 11
122.858254
 21
-178.894048
 31
0.0
  0
LINE
  8
0
  6
CONTINUOUS
 62
     7
  5
73A
 10
143.692629
 20
-175.894048
 30
0.0
 11
122.858254
 21
-175.894048
 31
0.0
  0
LINE
  8
0
  6
CONTINUOUS
 62
     7
  5
73B
 10
143.692629
 20
-178.894048
 30
0.0
 11
143.692629
 21
-175.894048
 31
0.0
  0
LINE
  8
0
  6
CONTINUOUS
 62
     7
  5
73C
 10
151.546671
 20
-178.894048
 30
0.0
 11
143.692629
 21
-178.894048
 31
0.0
  0
LINE
  8
0
  6
CONTINUOUS
 62
     7
  5
73D
 10
130.712296
 20
-181.494048
 30
0.0
 11
151.546671
 21
-181.494048
 31
0.0
  0
LINE
  8
0
  6
CONTINUOUS
 62
     7
  5
73E
 10
151.546671
 20
-132.294048
 30
0.0
 11
151.546671
 21
-134.894048
 31
0.0
  0
LINE
  8
0
  6
CONTINUOUS
 62
     7
  5
73F
 10
151.546671
 20
-134.894048
 30
0.0
 11
151.648523
 21
-134.894048
 31
0.0
  0
LINE
  8
0
  6
CONTINUOUS
 62
     7
  5
740
 10
151.648523
 20
-132.294048
 30
0.0
 11
151.546671
 21
-132.294048
 31
0.0
  0
LINE
  8
0
  6
CONTINUOUS
 62
     7
  5
741
 10
143.692629
 20
-137.894048
 30
0.0
 11
143.692629
 21
-134.894048
 31
0.0
  0
LINE
  8
0
  6
CONTINUOUS
 62
     7
  5
742
 10
122.858254
 20
-137.894048
 30
0.0
 11
143.692629
 21
-137.894048
 31
0.0
  0
LINE
  8
0
  6
CONTINUOUS
 62
     7
  5
743
 10
122.858254
 20
-134.894048
 30
0.0
 11
122.858254
 21
-137.894048
 31
0.0
  0
LINE
  8
0
  6
CONTINUOUS
 62
     7
  5
744
 10
130.712296
 20
-134.894048
 30
0.0
 11
122.858254
 21
-134.894048
 31
0.0
  0
LINE
  8
0
  6
CONTINUOUS
 62
     7
  5
745
 10
130.712296
 20
-132.294048
 30
0.0
 11
130.712296
 21
-134.894048
 31
0.0
  0
LINE
  8
0
  6
CONTINUOUS
 62
     7
  5
746
 10
143.692629
 20
-134.894048
 30
0.0
 11
151.546671
 21
-134.894048
 31
0.0
  0
LINE
  8
0
  6
CONTINUOUS
 62
     7
  5
747
 10
151.546671
 20
-132.294048
 30
0.0
 11
130.712296
 21
-132.294048
 31
0.0
  0
LINE
  8
0
  6
CONTINUOUS
 62
     7
  5
748
 10
143.692629
 20
-175.894048
 30
0.0
 11
144.744617
 21
-175.894048
 31
0.0
  0
LINE
  8
0
  6
CONTINUOUS
 62
     7
  5
749
 10
144.744617
 20
-175.894048
 30
0.0
 11
144.744617
 21
-178.889048
 31
0.0
  0
LINE
  8
0
  6
CONTINUOUS
 62
     7
  5
74A
 10
144.744617
 20
-134.899048
 30
0.0
 11
144.744617
 21
-137.894048
 31
0.0
  0
LINE
  8
0
  6
CONTINUOUS
 62
     7
  5
74B
 10
144.744617
 20
-137.894048
 30
0.0
 11
143.692629
 21
-137.894048
 31
0.0
  0
LINE
  8
0
  6
CONTINUOUS
 62
     7
  5
74C
 10
131.19039
 20
-175.894048
 30
0.0
 11
131.19039
 21
-137.894048
 31
0.0
  0
LINE
  8
0
  6
CONTINUOUS
 62
     7
  5
74D
 10
143.418239
 20
-175.894048
 30
0.0
 11
143.418239
 21
-137.894048
 31
0.0
  0
LINE
  8
0
  6
CONTINUOUS
 62
     7
  5
74E
 10
144.490317
 20
-175.894048
 30
0.0
 11
144.490317
 21
-137.894048
 31
0.0
  0
LINE
  8
0
  6
CONTINUOUS
 62
     7
  5
74F
 10
114.703933
 20
-137.894048
 30
0.0
 11
122.858254
 21
-137.894048
 31
0.0
  0
LINE
  8
0
  6
CONTINUOUS
 62
     7
  5
750
 10
122.814795
 20
-134.894048
 30
0.0
 11
121.565703
 21
-134.894048
 31
0.0
  0
LINE
  8
0
  6
CONTINUOUS
 62
     7
  5
751
 10
121.565703
 20
-134.894048
 30
0.0
 11
118.629506
 21
-134.894048
 31
0.0
  0
LINE
  8
0
  6
CONTINUOUS
 62
     7
  5
752
 10
118.629506
 20
-134.894048
 30
0.0
 11
118.42372
 21
-134.894048
 31
0.0
  0
LINE
  8
0
  6
CONTINUOUS
 62
     7
  5
753
 10
118.42372
 20
-178.894048
 30
0.0
 11
118.629506
 21
-178.894048
 31
0.0
  0
LINE
  8
0
  6
CONTINUOUS
 62
     7
  5
754
 10
118.629506
 20
-178.894048
 30
0.0
 11
121.565703
 21
-178.894048
 31
0.0
  0
LINE
  8
0
  6
CONTINUOUS
 62
     7
  5
755
 10
121.565703
 20
-178.894048
 30
0.0
 11
122.814795
 21
-178.894048
 31
0.0
  0
LINE
  8
0
  6
CONTINUOUS
 62
     7
  5
756
 10
122.858254
 20
-175.894048
 30
0.0
 11
114.703933
 21
-175.894048
 31
0.0
  0
LINE
  8
0
  6
CONTINUOUS
 62
     7
  5
757
 10
122.203933
 20
-131.894048
 30
0.0
 11
124.047727
 21
-131.894048
 31
0.0
  0
LINE
  8
0
  6
CONTINUOUS
 62
     7
  5
758
 10
124.047727
 20
-181.894048
 30
0.0
 11
122.203933
 21
-181.894048
 31
0.0
  0
LINE
  8
0
  6
CONTINUOUS
 62
     7
  5
759
 10
144.490317
 20
-157.108407
 30
0.0
 11
147.558119
 21
-157.108407
 31
0.0
  0
LINE
  8
0
  6
CONTINUOUS
 62
     7
  5
75A
 10
147.558119
 20
-157.108407
 30
0.0
 11
147.558119
 21
-153.894048
 31
0.0
  0
LINE
  8
0
  6
CONTINUOUS
 62
     7
  5
75B
 10
144.490317
 20
-153.894048
 30
0.0
 11
147.558119
 21
-153.894048
 31
0.0
  0
LINE
  8
0
  6
CONTINUOUS
 62
     7
  5
75C
 10
148.342175
 20
-175.894048
 30
0.0
 11
148.342175
 21
-161.108407
 31
0.0
  0
LINE
  8
0
  6
CONTINUOUS
 62
     7
  5
75D
 10
148.342175
 20
-161.108407
 30
0.0
 11
147.558119
 21
-157.108407
 31
0.0
  0
LINE
  8
0
  6
CONTINUOUS
 62
     7
  5
75E
 10
147.829724
 20
-153.894048
 30
0.0
 11
147.829724
 21
-156.894048
 31
0.0
  0
LINE
  8
0
  6
CONTINUOUS
 62
     7
  5
75F
 10
147.829724
 20
-156.894048
 30
0.0
 11
148.61378
 21
-160.894048
 31
0.0
  0
LINE
  8
0
  6
CONTINUOUS
 62
     7
  5
760
 10
148.61378
 20
-160.894048
 30
0.0
 11
148.61378
 21
-175.894048
 31
0.0
  0
LINE
  8
0
  6
CONTINUOUS
 62
     7
  5
761
 10
147.558119
 20
-153.894048
 30
0.0
 11
147.829724
 21
-153.894048
 31
0.0
  0
LINE
  8
0
  6
CONTINUOUS
 62
     7
  5
762
 10
144.490317
 20
-161.108407
 30
0.0
 11
148.342175
 21
-161.108407
 31
0.0
  0
LINE
  8
0
  6
CONTINUOUS
 62
     7
  5
763
 10
148.342175
 20
-137.894048
 30
0.0
 11
148.342175
 21
-155.894048
 31
0.0
  0
LINE
  8
0
  6
CONTINUOUS
 62
     7
  5
764
 10
148.342175
 20
-155.894048
 30
0.0
 11
147.829724
 21
-155.894048
 31
0.0
  0
LINE
  8
0
  6
CONTINUOUS
 62
     7
  5
765
 10
148.61378
 20
-155.894048
 30
0.0
 11
148.61378
 21
-137.894048
 31
0.0
  0
LINE
  8
0
  6
CONTINUOUS
 62
     7
  5
766
 10
148.342175
 20
-155.894048
 30
0.0
 11
148.61378
 21
-155.894048
 31
0.0
  0
LINE
  8
0
  6
CONTINUOUS
 62
     7
  5
767
 10
117.454053
 20
-131.894048
 30
0.0
 11
122.203933
 21
-131.894048
 31
0.0
  0
LINE
  8
0
  6
CONTINUOUS
 62
     7
  5
768
 10
117.454053
 20
-181.894048
 30
0.0
 11
122.203933
 21
-181.894048
 31
0.0
  0
LINE
  8
0
  6
CONTINUOUS
 62
     7
  5
769
 10
149.390807
 20
-137.894048
 30
0.0
 11
149.390807
 21
-155.894048
 31
0.0
  0
LINE
  8
0
  6
CONTINUOUS
 62
     7
  5
76A
 10
148.61378
 20
-155.894048
 30
0.0
 11
149.390807
 21
-155.894048
 31
0.0
  0
LINE
  8
0
  6
CONTINUOUS
 62
     7
  5
76B
 10
149.390807
 20
-160.894048
 30
0.0
 11
148.61378
 21
-160.894048
 31
0.0
  0
LINE
  8
0
  6
CONTINUOUS
 62
     7
  5
76C
 10
149.390807
 20
-175.894048
 30
0.0
 11
149.390807
 21
-160.894048
 31
0.0
  0
LINE
  8
0
  6
CONTINUOUS
 62
     7
  5
76D
 10
148.502695
 20
-156.894048
 30
0.0
 11
147.829724
 21
-156.894048
 31
0.0
  0
LINE
  8
0
  6
CONTINUOUS
 62
     7
  5
76E
 10
149.390807
 20
-160.894048
 30
0.0
 11
148.502695
 21
-156.894048
 31
0.0
  0
LINE
  8
0
  6
CONTINUOUS
 62
     7
  5
76F
 10
148.502695
 20
-156.894048
 30
0.0
 11
148.502695
 21
-155.894048
 31
0.0
  0
LINE
  8
0
  6
CONTINUOUS
 62
     7
  5
770
 10
150.891713
 20
-131.894048
 30
0.0
 11
150.892454
 21
-131.894048
 31
0.0
  0
LINE
  8
0
  6
CONTINUOUS
 62
     7
  5
771
 10
150.892454
 20
-181.894048
 30
0.0
 11
150.891713
 21
-181.894048
 31
0.0
  0
LINE
  8
0
  6
CONTINUOUS
 62
     7
  5
772
 10
131.007275
 20
-175.894048
 30
0.0
 11
131.007275
 21
-137.894048
 31
0.0
  0
LINE
  8
0
  6
CONTINUOUS
 62
     7
  5
773
 10
143.391713
 20
-181.894048
 30
0.0
 11
149.891713
 21
-181.894048
 31
0.0
  0
LINE
  8
0
  6
CONTINUOUS
 62
     7
  5
774
 10
149.891713
 20
-181.894048
 30
0.0
 11
149.891713
 21
-181.494048
 31
0.0
  0
LINE
  8
0
  6
CONTINUOUS
 62
     7
  5
775
 10
143.391713
 20
-131.894048
 30
0.0
 11
149.891713
 21
-131.894048
 31
0.0
  0
LINE
  8
0
  6
CONTINUOUS
 62
     7
  5
776
 10
149.891713
 20
-132.294048
 30
0.0
 11
149.891713
 21
-131.894048
 31
0.0
  0
LINE
  8
0
  6
CONTINUOUS
 62
     7
  5
777
 10
164.641713
 20
-175.894048
 30
0.0
 11
164.641713
 21
-137.894048
 31
0.0
  0
LINE
  8
0
  6
CONTINUOUS
 62
     7
  5
778
 10
173.891713
 20
-131.894048
 30
0.0
 11
180.391713
 21
-131.894048
 31
0.0
  0
LINE
  8
0
  6
CONTINUOUS
 62
     7
  5
779
 10
180.391713
 20
-132.294048
 30
0.0
 11
180.391713
 21
-131.894048
 31
0.0
  0
LINE
  8
0
  6
CONTINUOUS
 62
     7
  5
77A
 10
173.891713
 20
-181.894048
 30
0.0
 11
180.391713
 21
-181.894048
 31
0.0
  0
LINE
  8
0
  6
CONTINUOUS
 62
     7
  5
77B
 10
180.391713
 20
-181.894048
 30
0.0
 11
180.391713
 21
-181.494048
 31
0.0
  0
LINE
  8
0
  6
CONTINUOUS
 62
     7
  5
77C
 10
204.391713
 20
-181.894048
 30
0.0
 11
210.891713
 21
-181.894048
 31
0.0
  0
LINE
  8
0
  6
CONTINUOUS
 62
     7
  5
77D
 10
210.891713
 20
-181.894048
 30
0.0
 11
210.891713
 21
-181.494048
 31
0.0
  0
LINE
  8
0
  6
CONTINUOUS
 62
     7
  5
77E
 10
204.391713
 20
-131.894048
 30
0.0
 11
210.891713
 21
-131.894048
 31
0.0
  0
LINE
  8
0
  6
CONTINUOUS
 62
     7
  5
77F
 10
210.891713
 20
-132.294048
 30
0.0
 11
210.891713
 21
-131.894048
 31
0.0
  0
LINE
  8
0
  6
CONTINUOUS
 62
     7
  5
780
 10
234.891713
 20
-181.894048
 30
0.0
 11
241.391713
 21
-181.894048
 31
0.0
  0
LINE
  8
0
  6
CONTINUOUS
 62
     7
  5
781
 10
241.391713
 20
-181.894048
 30
0.0
 11
241.391713
 21
-181.494048
 31
0.0
  0
LINE
  8
0
  6
CONTINUOUS
 62
     7
  5
782
 10
234.891713
 20
-131.894048
 30
0.0
 11
241.391713
 21
-131.894048
 31
0.0
  0
LINE
  8
0
  6
CONTINUOUS
 62
     7
  5
783
 10
241.391713
 20
-132.294048
 30
0.0
 11
241.391713
 21
-131.894048
 31
0.0
  0
LINE
  8
0
  6
CONTINUOUS
 62
     7
  5
784
 10
283.891713
 20
-181.894048
 30
0.0
 11
282.891713
 21
-181.894048
 31
0.0
  0
LINE
  8
0
  6
CONTINUOUS
 62
     7
  5
785
 10
272.891713
 20
-181.894048
 30
0.0
 11
265.391713
 21
-181.894048
 31
0.0
  0
LINE
  8
0
  6
CONTINUOUS
 62
     7
  5
786
 10
265.391713
 20
-181.494048
 30
0.0
 11
265.391713
 21
-181.894048
 31
0.0
  0
LINE
  8
0
  6
CONTINUOUS
 62
     7
  5
787
 10
265.391713
 20
-131.894048
 30
0.0
 11
272.891713
 21
-131.894048
 31
0.0
  0
LINE
  8
0
  6
CONTINUOUS
 62
     7
  5
788
 10
282.891713
 20
-131.894048
 30
0.0
 11
283.891713
 21
-131.894048
 31
0.0
  0
LINE
  8
0
  6
CONTINUOUS
 62
     7
  5
789
 10
265.391713
 20
-131.894048
 30
0.0
 11
265.391713
 21
-132.294048
 31
0.0
  0
LINE
  8
0
  6
CONTINUOUS
 62
     7
  5
78A
 10
277.891713
 20
-178.894048
 30
0.0
 11
281.441713
 21
-178.894048
 31
0.0
  0
LINE
  8
0
  6
CONTINUOUS
 62
     7
  5
78B
 10
281.441713
 20
-178.894048
 30
0.0
 11
290.226521
 21
-178.894048
 31
0.0
  0
LINE
  8
0
  6
CONTINUOUS
 62
     7
  5
78C
 10
290.226521
 20
-175.894048
 30
0.0
 11
269.541713
 21
-175.894048
 31
0.0
  0
LINE
  8
0
  6
CONTINUOUS
 62
     7
  5
78D
 10
290.226521
 20
-175.894048
 30
0.0
 11
290.226521
 21
-178.889048
 31
0.0
  0
LINE
  8
0
  6
CONTINUOUS
 62
     7
  5
78E
 10
290.226521
 20
-178.889048
 30
0.0
 11
290.226521
 21
-178.894048
 31
0.0
  0
LINE
  8
0
  6
CONTINUOUS
 62
     7
  5
78F
 10
269.541713
 20
-137.894048
 30
0.0
 11
290.226521
 21
-137.894048
 31
0.0
  0
LINE
  8
0
  6
CONTINUOUS
 62
     7
  5
790
 10
290.226521
 20
-134.894048
 30
0.0
 11
290.226521
 21
-134.899048
 31
0.0
  0
LINE
  8
0
  6
CONTINUOUS
 62
     7
  5
791
 10
290.226521
 20
-134.899048
 30
0.0
 11
290.226521
 21
-137.894048
 31
0.0
  0
LINE
  8
0
  6
CONTINUOUS
 62
     7
  5
792
 10
290.226521
 20
-134.894048
 30
0.0
 11
281.441713
 21
-134.894048
 31
0.0
  0
LINE
  8
0
  6
CONTINUOUS
 62
     7
  5
793
 10
281.441713
 20
-134.894048
 30
0.0
 11
277.891713
 21
-134.894048
 31
0.0
  0
LINE
  8
0
  6
CONTINUOUS
 62
     7
  5
794
 10
282.891713
 20
-181.894048
 30
0.0
 11
272.891713
 21
-181.894048
 31
0.0
  0
LINE
  8
0
  6
CONTINUOUS
 62
     7
  5
795
 10
272.891713
 20
-131.894048
 30
0.0
 11
277.891713
 21
-131.894048
 31
0.0
  0
LINE
  8
0
  6
CONTINUOUS
 62
     7
  5
796
 10
277.891713
 20
-131.894048
 30
0.0
 11
282.891713
 21
-131.894048
 31
0.0
  0
LINE
  8
0
  6
CONTINUOUS
 62
     7
  5
797
 10
290.435041
 20
-131.894048
 30
0.0
 11
290.435041
 21
-134.894048
 31
0.0
  0
LINE
  8
0
  6
CONTINUOUS
 62
     7
  5
798
 10
315.891713
 20
-131.894048
 30
0.0
 11
290.435041
 21
-131.894048
 31
0.0
  0
LINE
  8
0
  6
CONTINUOUS
 62
     7
  5
799
 10
315.891713
 20
-137.894048
 30
0.0
 11
315.891713
 21
-131.894048
 31
0.0
  0
LINE
  8
0
  6
CONTINUOUS
 62
     7
  5
79A
 10
290.226521
 20
-137.894048
 30
0.0
 11
315.891713
 21
-137.894048
 31
0.0
  0
LINE
  8
0
  6
CONTINUOUS
 62
     7
  5
79B
 10
290.435041
 20
-134.894048
 30
0.0
 11
290.226521
 21
-134.894048
 31
0.0
  0
LINE
  8
0
  6
CONTINUOUS
 62
     7
  5
79C
 10
315.891713
 20
-181.894048
 30
0.0
 11
315.891713
 21
-175.894048
 31
0.0
  0
LINE
  8
0
  6
CONTINUOUS
 62
     7
  5
79D
 10
315.891713
 20
-181.894048
 30
0.0
 11
290.435041
 21
-181.894048
 31
0.0
  0
LINE
  8
0
  6
CONTINUOUS
 62
     7
  5
79E
 10
290.435041
 20
-178.894048
 30
0.0
 11
290.435041
 21
-181.894048
 31
0.0
  0
LINE
  8
0
  6
CONTINUOUS
 62
     7
  5
79F
 10
315.891713
 20
-175.894048
 30
0.0
 11
290.226521
 21
-175.894048
 31
0.0
  0
LINE
  8
0
  6
CONTINUOUS
 62
     7
  5
7A0
 10
290.226521
 20
-178.894048
 30
0.0
 11
290.435041
 21
-178.894048
 31
0.0
  0
LINE
  8
0
  6
CONTINUOUS
 62
     7
  5
7A1
 10
319.391713
 20
-147.894048
 30
0.0
 11
332.891713
 21
-147.894048
 31
0.0
  0
LINE
  8
0
  6
CONTINUOUS
 62
     7
  5
7A2
 10
319.391713
 20
-155.894048
 30
0.0
 11
332.891713
 21
-155.894048
 31
0.0
  0
LINE
  8
0
  6
CONTINUOUS
 62
     7
  5
7A3
 10
332.891713
 20
-157.894048
 30
0.0
 11
319.391713
 21
-157.894048
 31
0.0
  0
LINE
  8
0
  6
CONTINUOUS
 62
     7
  5
7A4
 10
332.891713
 20
-163.894048
 30
0.0
 11
332.891713
 21
-157.894048
 31
0.0
  0
LINE
  8
0
  6
CONTINUOUS
 62
     7
  5
7A5
 10
332.891713
 20
-171.894048
 30
0.0
 11
332.891713
 21
-165.894048
 31
0.0
  0
LINE
  8
0
  6
CONTINUOUS
 62
     7
  5
7A6
 10
315.891713
 20
-171.894048
 30
0.0
 11
332.891713
 21
-171.894048
 31
0.0
  0
LINE
  8
0
  6
CONTINUOUS
 62
     7
  5
7A7
 10
332.891713
 20
-141.894048
 30
0.0
 11
315.891713
 21
-141.894048
 31
0.0
  0
LINE
  8
0
  6
CONTINUOUS
 62
     7
  5
7A8
 10
332.891713
 20
-147.894048
 30
0.0
 11
332.891713
 21
-141.894048
 31
0.0
  0
LINE
  8
0
  6
CONTINUOUS
 62
     7
  5
7A9
 10
319.391713
 20
-163.894048
 30
0.0
 11
332.891713
 21
-163.894048
 31
0.0
  0
LINE
  8
0
  6
CONTINUOUS
 62
     7
  5
7AA
 10
319.391713
 20
-157.894048
 30
0.0
 11
319.391713
 21
-155.894048
 31
0.0
  0
LINE
  8
0
  6
CONTINUOUS
 62
     7
  5
7AB
 10
332.891713
 20
-165.894048
 30
0.0
 11
319.391713
 21
-165.894048
 31
0.0
  0
LINE
  8
0
  6
CONTINUOUS
 62
     7
  5
7AC
 10
332.891713
 20
-149.894048
 30
0.0
 11
319.391713
 21
-149.894048
 31
0.0
  0
LINE
  8
0
  6
CONTINUOUS
 62
     7
  5
7AD
 10
319.391713
 20
-165.894048
 30
0.0
 11
319.391713
 21
-163.894048
 31
0.0
  0
LINE
  8
0
  6
CONTINUOUS
 62
     7
  5
7AE
 10
332.891713
 20
-155.894048
 30
0.0
 11
332.891713
 21
-149.894048
 31
0.0
  0
LINE
  8
0
  6
CONTINUOUS
 62
     7
  5
7AF
 10
319.391713
 20
-149.894048
 30
0.0
 11
319.391713
 21
-147.894048
 31
0.0
  0
LINE
  8
0
  6
CONTINUOUS
 62
     7
  5
7B0
 10
315.891713
 20
-171.894048
 30
0.0
 11
315.891713
 21
-141.894048
 31
0.0
  0
LINE
  8
0
  6
CONTINUOUS
 62
     7
  5
7B1
 10
285.891713
 20
-175.894048
 30
0.0
 11
285.891713
 21
-137.894048
 31
0.0
  0
LINE
  8
0
  6
CONTINUOUS
 62
     7
  5
7B2
 10
315.891713
 20
-175.894048
 30
0.0
 11
315.891713
 21
-171.894048
 31
0.0
  0
LINE
  8
0
  6
CONTINUOUS
 62
     7
  5
7B3
 10
315.891713
 20
-141.894048
 30
0.0
 11
315.891713
 21
-137.894048
 31
0.0
  0
LINE
  8
0
  6
CONTINUOUS
 62
     9
  5
7B4
 10
308.891713
 20
-74.894048
 30
0.0
 11
293.891713
 21
-74.894048
 31
0.0
  0
LINE
  8
0
  6
CONTINUOUS
 62
     7
  5
7B5
 10
308.891713
 20
-74.894048
 30
0.0
 11
308.891713
 21
-131.894048
 31
0.0
  0
LINE
  8
0
  6
CONTINUOUS
 62
     7
  5
7B6
 10
293.891713
 20
-74.894048
 30
0.0
 11
293.891713
 21
-131.894048
 31
0.0
  0
LINE
  8
0
  6
CONTINUOUS
 62
     7
  5
7B7
 10
293.891713
 20
-67.894048
 30
0.0
 11
308.891713
 21
-67.894048
 31
0.0
  0
LINE
  8
0
  6
CONTINUOUS
 62
     7
  5
7B8
 10
308.891713
 20
-67.894048
 30
0.0
 11
308.891713
 21
-74.894048
 31
0.0
  0
LINE
  8
0
  6
CONTINUOUS
 62
     7
  5
7B9
 10
293.891713
 20
-74.894048
 30
0.0
 11
293.891713
 21
-67.894048
 31
0.0
  0
LINE
  8
0
  6
CONTINUOUS
 62
     7
  5
7BA
 10
306.391713
 20
-61.894048
 30
0.0
 11
301.391713
 21
-61.894048
 31
0.0
  0
LINE
  8
0
  6
CONTINUOUS
 62
     7
  5
7BB
 10
301.391713
 20
-61.894048
 30
0.0
 11
296.391713
 21
-61.894048
 31
0.0
  0
LINE
  8
0
  6
CONTINUOUS
 62
     7
  5
7BC
 10
290.391713
 20
-134.894048
 30
0.0
 11
290.391713
 21
-131.894048
 31
0.0
  0
LINE
  8
0
  6
CONTINUOUS
 62
     7
  5
7BD
 10
290.391713
 20
-181.894048
 30
0.0
 11
290.391713
 21
-178.894048
 31
0.0
  0
LINE
  8
0
  6
CONTINUOUS
 62
     7
  5
7BE
 10
259.891713
 20
-181.894048
 30
0.0
 11
259.891713
 21
-181.494048
 31
0.0
  0
LINE
  8
0
  6
CONTINUOUS
 62
     7
  5
7BF
 10
259.891713
 20
-132.294048
 30
0.0
 11
259.891713
 21
-131.894048
 31
0.0
  0
LINE
  8
0
  6
CONTINUOUS
 62
     7
  5
7C0
 10
229.391713
 20
-132.294048
 30
0.0
 11
229.391713
 21
-131.894048
 31
0.0
  0
LINE
  8
0
  6
CONTINUOUS
 62
     7
  5
7C1
 10
229.391713
 20
-181.894048
 30
0.0
 11
229.391713
 21
-181.494048
 31
0.0
  0
LINE
  8
0
  6
CONTINUOUS
 62
     7
  5
7C2
 10
198.891713
 20
-132.294048
 30
0.0
 11
198.891713
 21
-131.894048
 31
0.0
  0
LINE
  8
0
  6
CONTINUOUS
 62
     7
  5
7C3
 10
198.891713
 20
-181.894048
 30
0.0
 11
198.891713
 21
-181.494048
 31
0.0
  0
LINE
  8
0
  6
CONTINUOUS
 62
     7
  5
7C4
 10
150.89235
 20
-181.494048
 30
0.0
 11
150.89235
 21
-181.894048
 31
0.0
  0
LINE
  8
0
  6
CONTINUOUS
 62
     7
  5
7C5
 10
150.89235
 20
-131.894048
 30
0.0
 11
150.89235
 21
-132.294048
 31
0.0
  0
LINE
  8
0
  6
CONTINUOUS
 62
     7
  5
7C6
 10
80.48311
 20
-132.294048
 30
0.0
 11
80.48311
 21
-134.894048
 31
0.0
  0
LINE
  8
0
  6
CONTINUOUS
 62
     7
  5
7C7
 10
80.48311
 20
-178.894048
 30
0.0
 11
80.48311
 21
-181.494048
 31
0.0
  0
LINE
  8
0
  6
CONTINUOUS
 62
     7
  5
7C8
 10
80.48311
 20
-175.894048
 30
0.0
 11
80.48311
 21
-178.894048
 31
0.0
  0
LINE
  8
0
  6
CONTINUOUS
 62
     7
  5
7C9
 10
80.48311
 20
-134.894048
 30
0.0
 11
80.48311
 21
-137.894048
 31
0.0
  0
LINE
  8
0
  6
CONTINUOUS
 62
     7
  5
7CA
 10
139.703933
 20
-181.894048
 30
0.0
 11
139.703933
 21
-181.494048
 31
0.0
  0
LINE
  8
0
  6
CONTINUOUS
 62
     7
  5
7CB
 10
139.703933
 20
-132.294048
 30
0.0
 11
139.703933
 21
-131.894048
 31
0.0
  0
LINE
  8
0
  6
CONTINUOUS
 62
     7
  5
7CC
 10
92.510767
 20
-134.894048
 30
0.0
 11
92.510767
 21
-137.894048
 31
0.0
  0
LINE
  8
0
  6
CONTINUOUS
 62
     7
  5
7CD
 10
92.510767
 20
-175.894048
 30
0.0
 11
92.510767
 21
-178.894048
 31
0.0
  0
LINE
  8
0
  6
CONTINUOUS
 62
     7
  5
7CE
 10
168.39235
 20
-181.894048
 30
0.0
 11
168.39235
 21
-181.494048
 31
0.0
  0
LINE
  8
0
  6
CONTINUOUS
 62
     7
  5
7CF
 10
168.39235
 20
-132.294048
 30
0.0
 11
168.39235
 21
-131.894048
 31
0.0
  0
LINE
  8
0
  6
CONTINUOUS
 62
     7
  5
7D0
 10
114.703933
 20
-134.899048
 30
0.0
 11
114.703933
 21
-137.894048
 31
0.0
  0
LINE
  8
0
  6
CONTINUOUS
 62
     7
  5
7D1
 10
114.703933
 20
-175.894048
 30
0.0
 11
114.703933
 21
-178.889048
 31
0.0
  0
LINE
  8
0
  6
CONTINUOUS
 62
     7
  5
7D2
 10
122.203933
 20
-131.894048
 30
0.0
 11
122.203933
 21
-132.294048
 31
0.0
  0
LINE
  8
0
  6
CONTINUOUS
 62
     7
  5
7D3
 10
122.203933
 20
-181.494048
 30
0.0
 11
122.203933
 21
-181.894048
 31
0.0
  0
LINE
  8
0
  6
CONTINUOUS
 62
     7
  5
7D4
 10
150.891713
 20
-131.894048
 30
0.0
 11
150.891713
 21
-132.294048
 31
0.0
  0
LINE
  8
0
  6
CONTINUOUS
 62
     7
  5
7D5
 10
150.891713
 20
-181.494048
 30
0.0
 11
150.891713
 21
-181.894048
 31
0.0
  0
LINE
  8
0
  6
CONTINUOUS
 62
     7
  5
7D6
 10
143.391713
 20
-181.494048
 30
0.0
 11
143.391713
 21
-181.894048
 31
0.0
  0
LINE
  8
0
  6
CONTINUOUS
 62
     7
  5
7D7
 10
143.391713
 20
-131.894048
 30
0.0
 11
143.391713
 21
-132.294048
 31
0.0
  0
LINE
  8
0
  6
CONTINUOUS
 62
     7
  5
7D8
 10
173.891713
 20
-131.894048
 30
0.0
 11
173.891713
 21
-132.294048
 31
0.0
  0
LINE
  8
0
  6
CONTINUOUS
 62
     7
  5
7D9
 10
173.891713
 20
-181.494048
 30
0.0
 11
173.891713
 21
-181.894048
 31
0.0
  0
LINE
  8
0
  6
CONTINUOUS
 62
     7
  5
7DA
 10
204.391713
 20
-181.494048
 30
0.0
 11
204.391713
 21
-181.894048
 31
0.0
  0
LINE
  8
0
  6
CONTINUOUS
 62
     7
  5
7DB
 10
204.391713
 20
-131.894048
 30
0.0
 11
204.391713
 21
-132.294048
 31
0.0
  0
LINE
  8
0
  6
CONTINUOUS
 62
     7
  5
7DC
 10
234.891713
 20
-181.494048
 30
0.0
 11
234.891713
 21
-181.894048
 31
0.0
  0
LINE
  8
0
  6
CONTINUOUS
 62
     7
  5
7DD
 10
234.891713
 20
-131.894048
 30
0.0
 11
234.891713
 21
-132.294048
 31
0.0
  0
LINE
  8
0
  6
CONTINUOUS
 62
     7
  5
7DE
 10
272.891713
 20
-181.494048
 30
0.0
 11
272.891713
 21
-181.894048
 31
0.0
  0
LINE
  8
0
  6
CONTINUOUS
 62
     7
  5
7DF
 10
282.891713
 20
-181.894048
 30
0.0
 11
282.891713
 21
-181.494048
 31
0.0
  0
LINE
  8
0
  6
CONTINUOUS
 62
     7
  5
7E0
 10
272.891713
 20
-131.894048
 30
0.0
 11
272.891713
 21
-132.294048
 31
0.0
  0
LINE
  8
0
  6
CONTINUOUS
 62
     7
  5
7E1
 10
282.891713
 20
-132.294048
 30
0.0
 11
282.891713
 21
-131.894048
 31
0.0
  0
LINE
  8
0
  6
CONTINUOUS
 62
     7
  5
7E2
 10
306.391713
 20
-67.894048
 30
0.0
 11
306.391713
 21
-61.894048
 31
0.0
  0
LINE
  8
0
  6
CONTINUOUS
 62
     7
  5
7E3
 10
296.391713
 20
-61.894048
 30
0.0
 11
296.391713
 21
-67.894048
 31
0.0
  0
ENDBLK
  8
0
  5
7E4
  0
BLOCK
  8
0
  5
7E7
  2
AID3959
 70
     0
 10
0.0
 20
0.0
 30
0.0
  3
#auxiliary draft view
  0
LINE
  8
0
  6
CONTINUOUS
 62
     7
  5
7E8
 10
259.891713
 20
499.111126
 30
0.0
 11
253.391713
 21
499.111126
 31
0.0
  0
LINE
  8
0
  6
CONTINUOUS
 62
     7
  5
7E9
 10
253.391713
 20
499.111126
 30
0.0
 11
253.391713
 21
498.711126
 31
0.0
  0
LINE
  8
0
  6
CONTINUOUS
 62
     7
  5
7EA
 10
259.891713
 20
449.111126
 30
0.0
 11
253.391713
 21
449.111126
 31
0.0
  0
LINE
  8
0
  6
CONTINUOUS
 62
     7
  5
7EB
 10
253.391713
 20
449.511126
 30
0.0
 11
253.391713
 21
449.111126
 31
0.0
  0
LINE
  8
0
  6
CONTINUOUS
 62
     7
  5
7EC
 10
229.391713
 20
449.111126
 30
0.0
 11
222.891713
 21
449.111126
 31
0.0
  0
LINE
  8
0
  6
CONTINUOUS
 62
     7
  5
7ED
 10
222.891713
 20
449.511126
 30
0.0
 11
222.891713
 21
449.111126
 31
0.0
  0
LINE
  8
0
  6
CONTINUOUS
 62
     7
  5
7EE
 10
229.391713
 20
499.111126
 30
0.0
 11
222.891713
 21
499.111126
 31
0.0
  0
LINE
  8
0
  6
CONTINUOUS
 62
     7
  5
7EF
 10
222.891713
 20
499.111126
 30
0.0
 11
222.891713
 21
498.711126
 31
0.0
  0
LINE
  8
0
  6
CONTINUOUS
 62
     7
  5
7F0
 10
198.891713
 20
449.111126
 30
0.0
 11
192.320728
 21
449.111126
 31
0.0
  0
LINE
  8
0
  6
CONTINUOUS
 62
     7
  5
7F1
 10
192.320728
 20
449.511126
 30
0.0
 11
192.320728
 21
449.111126
 31
0.0
  0
LINE
  8
0
  6
CONTINUOUS
 62
     7
  5
7F2
 10
198.891713
 20
499.111126
 30
0.0
 11
192.320728
 21
499.111126
 31
0.0
  0
LINE
  8
0
  6
CONTINUOUS
 62
     7
  5
7F3
 10
192.320728
 20
499.111126
 30
0.0
 11
192.320728
 21
498.711126
 31
0.0
  0
LINE
  8
0
  6
CONTINUOUS
 62
     9
  5
7F4
 10
160.892245
 20
499.111126
 30
0.0
 11
160.892245
 21
498.711126
 31
0.0
  0
LINE
  8
0
  6
CONTINUOUS
 62
     9
  5
7F5
 10
160.892245
 20
449.511126
 30
0.0
 11
160.892245
 21
449.111126
 31
0.0
  0
LINE
  8
0
  6
CONTINUOUS
 62
     7
  5
7F6
 10
177.702264
 20
493.111126
 30
0.0
 11
177.702264
 21
455.111126
 31
0.0
  0
LINE
  8
0
  6
CONTINUOUS
 62
     7
  5
7F7
 10
177.722668
 20
493.111126
 30
0.0
 11
177.722668
 21
455.111126
 31
0.0
  0
LINE
  8
0
  6
CONTINUOUS
 62
     7
  5
7F8
 10
122.814795
 20
496.111126
 30
0.0
 11
119.851098
 21
496.111126
 31
0.0
  0
LINE
  8
0
  6
CONTINUOUS
 62
     7
  5
7F9
 10
119.851098
 20
496.111126
 30
0.0
 11
119.238804
 21
496.111126
 31
0.0
  0
LINE
  8
0
  6
CONTINUOUS
 62
     7
  5
7FA
 10
119.238804
 20
493.111126
 30
0.0
 11
130.522666
 21
493.111126
 31
0.0
  0
LINE
  8
0
  6
CONTINUOUS
 62
     7
  5
7FB
 10
119.238804
 20
493.111126
 30
0.0
 11
119.238804
 21
496.106126
 31
0.0
  0
LINE
  8
0
  6
CONTINUOUS
 62
     7
  5
7FC
 10
119.238804
 20
496.106126
 30
0.0
 11
119.238804
 21
496.111126
 31
0.0
  0
LINE
  8
0
  6
CONTINUOUS
 62
     7
  5
7FD
 10
130.522666
 20
455.111126
 30
0.0
 11
119.238804
 21
455.111126
 31
0.0
  0
LINE
  8
0
  6
CONTINUOUS
 62
     7
  5
7FE
 10
119.238804
 20
452.111126
 30
0.0
 11
119.238804
 21
452.116126
 31
0.0
  0
LINE
  8
0
  6
CONTINUOUS
 62
     7
  5
7FF
 10
119.238804
 20
452.116126
 30
0.0
 11
119.238804
 21
455.111126
 31
0.0
  0
LINE
  8
0
  6
CONTINUOUS
 62
     7
  5
800
 10
119.238804
 20
452.111126
 30
0.0
 11
119.851098
 21
452.111126
 31
0.0
  0
LINE
  8
0
  6
CONTINUOUS
 62
     7
  5
801
 10
119.851098
 20
452.111126
 30
0.0
 11
122.814795
 21
452.111126
 31
0.0
  0
LINE
  8
0
  6
CONTINUOUS
 62
     7
  5
802
 10
119.034842
 20
452.111126
 30
0.0
 11
119.034842
 21
455.111126
 31
0.0
  0
LINE
  8
0
  6
CONTINUOUS
 62
     7
  5
803
 10
119.034842
 20
452.111126
 30
0.0
 11
119.238804
 21
452.111126
 31
0.0
  0
LINE
  8
0
  6
CONTINUOUS
 62
     7
  5
804
 10
119.238804
 20
455.111126
 30
0.0
 11
119.034842
 21
455.111126
 31
0.0
  0
LINE
  8
0
  6
CONTINUOUS
 62
     7
  5
805
 10
96.668273
 20
449.511126
 30
0.0
 11
96.668273
 21
452.111126
 31
0.0
  0
LINE
  8
0
  6
CONTINUOUS
 62
     7
  5
806
 10
102.79158
 20
452.111126
 30
0.0
 11
96.668273
 21
452.111126
 31
0.0
  0
LINE
  8
0
  6
CONTINUOUS
 62
     7
  5
807
 10
102.79158
 20
455.111126
 30
0.0
 11
102.79158
 21
452.111126
 31
0.0
  0
LINE
  8
0
  6
CONTINUOUS
 62
     7
  5
808
 10
112.911536
 20
449.511126
 30
0.0
 11
112.911536
 21
452.111126
 31
0.0
  0
LINE
  8
0
  6
CONTINUOUS
 62
     7
  5
809
 10
96.668273
 20
449.511126
 30
0.0
 11
112.911536
 21
449.511126
 31
0.0
  0
LINE
  8
0
  6
CONTINUOUS
 62
     7
  5
80A
 10
112.911536
 20
452.111126
 30
0.0
 11
119.034842
 21
452.111126
 31
0.0
  0
LINE
  8
0
  6
CONTINUOUS
 62
     7
  5
80B
 10
119.034842
 20
455.111126
 30
0.0
 11
102.79158
 21
455.111126
 31
0.0
  0
LINE
  8
0
  6
CONTINUOUS
 62
     7
  5
80C
 10
112.911536
 20
496.111126
 30
0.0
 11
112.911536
 21
498.711126
 31
0.0
  0
LINE
  8
0
  6
CONTINUOUS
 62
     7
  5
80D
 10
119.034842
 20
493.111126
 30
0.0
 11
119.034842
 21
496.111126
 31
0.0
  0
LINE
  8
0
  6
CONTINUOUS
 62
     7
  5
80E
 10
102.79158
 20
496.111126
 30
0.0
 11
102.79158
 21
493.111126
 31
0.0
  0
LINE
  8
0
  6
CONTINUOUS
 62
     7
  5
80F
 10
96.668273
 20
496.111126
 30
0.0
 11
102.79158
 21
496.111126
 31
0.0
  0
LINE
  8
0
  6
CONTINUOUS
 62
     7
  5
810
 10
96.668273
 20
496.111126
 30
0.0
 11
96.668273
 21
498.711126
 31
0.0
  0
LINE
  8
0
  6
CONTINUOUS
 62
     7
  5
811
 10
112.911536
 20
498.711126
 30
0.0
 11
96.668273
 21
498.711126
 31
0.0
  0
LINE
  8
0
  6
CONTINUOUS
 62
     7
  5
812
 10
102.79158
 20
493.111126
 30
0.0
 11
119.034842
 21
493.111126
 31
0.0
  0
LINE
  8
0
  6
CONTINUOUS
 62
     7
  5
813
 10
119.034842
 20
496.111126
 30
0.0
 11
112.911536
 21
496.111126
 31
0.0
  0
LINE
  8
0
  6
CONTINUOUS
 62
     7
  5
814
 10
119.034842
 20
493.111126
 30
0.0
 11
119.238804
 21
493.111126
 31
0.0
  0
LINE
  8
0
  6
CONTINUOUS
 62
     7
  5
815
 10
119.238804
 20
496.111126
 30
0.0
 11
119.034842
 21
496.111126
 31
0.0
  0
LINE
  8
0
  6
CONTINUOUS
 62
     7
  5
816
 10
122.737213
 20
499.111126
 30
0.0
 11
131.403864
 21
499.111126
 31
0.0
  0
LINE
  8
0
  6
CONTINUOUS
 62
     9
  5
817
 10
131.403864
 20
498.711126
 30
0.0
 11
131.403864
 21
499.111126
 31
0.0
  0
LINE
  8
0
  6
CONTINUOUS
 62
     9
  5
818
 10
131.403864
 20
449.111126
 30
0.0
 11
131.403864
 21
449.511126
 31
0.0
  0
LINE
  8
0
  6
CONTINUOUS
 62
     7
  5
819
 10
131.403864
 20
449.111126
 30
0.0
 11
122.737213
 21
449.111126
 31
0.0
  0
LINE
  8
0
  6
CONTINUOUS
 62
     7
  5
81A
 10
115.018177
 20
498.711126
 30
0.0
 11
115.018177
 21
496.111126
 31
0.0
  0
LINE
  8
0
  6
CONTINUOUS
 62
     7
  5
81B
 10
115.018177
 20
498.711126
 30
0.0
 11
112.911536
 21
498.711126
 31
0.0
  0
LINE
  8
0
  6
CONTINUOUS
 62
     7
  5
81C
 10
115.018177
 20
449.511126
 30
0.0
 11
115.018177
 21
452.111126
 31
0.0
  0
LINE
  8
0
  6
CONTINUOUS
 62
     7
  5
81D
 10
112.911536
 20
449.511126
 30
0.0
 11
115.018177
 21
449.511126
 31
0.0
  0
LINE
  8
0
  6
CONTINUOUS
 62
     7
  5
81E
 10
131.403864
 20
499.111126
 30
0.0
 11
132.737213
 21
499.111126
 31
0.0
  0
LINE
  8
0
  6
CONTINUOUS
 62
     7
  5
81F
 10
132.737213
 20
449.111126
 30
0.0
 11
131.403864
 21
449.111126
 31
0.0
  0
LINE
  8
0
  6
CONTINUOUS
 62
     7
  5
820
 10
115.133733
 20
493.111126
 30
0.0
 11
115.133733
 21
455.111126
 31
0.0
  0
LINE
  8
0
  6
CONTINUOUS
 62
     7
  5
821
 10
112.822165
 20
493.111126
 30
0.0
 11
112.822165
 21
455.111126
 31
0.0
  0
LINE
  8
0
  6
CONTINUOUS
 62
     7
  5
822
 10
103.288874
 20
493.111126
 30
0.0
 11
103.288874
 21
455.111126
 31
0.0
  0
LINE
  8
0
  6
CONTINUOUS
 62
     7
  5
823
 10
115.018177
 20
498.711126
 30
0.0
 11
115.237213
 21
498.711126
 31
0.0
  0
LINE
  8
0
  6
CONTINUOUS
 62
     7
  5
824
 10
115.237213
 20
449.511126
 30
0.0
 11
115.018177
 21
449.511126
 31
0.0
  0
LINE
  8
0
  6
CONTINUOUS
 62
     7
  5
825
 10
93.515277
 20
499.111126
 30
0.0
 11
92.870644
 21
499.111126
 31
0.0
  0
LINE
  8
0
  6
CONTINUOUS
 62
     7
  5
826
 10
93.515277
 20
498.711126
 30
0.0
 11
93.515277
 21
499.111126
 31
0.0
  0
LINE
  8
0
  6
CONTINUOUS
 62
     7
  5
827
 10
94.618841
 20
496.106126
 30
0.0
 11
94.618841
 21
496.111126
 31
0.0
  0
LINE
  8
0
  6
CONTINUOUS
 62
     7
  5
828
 10
94.618841
 20
496.111126
 30
0.0
 11
96.668273
 21
496.111126
 31
0.0
  0
LINE
  8
0
  6
CONTINUOUS
 62
     7
  5
829
 10
96.668273
 20
498.711126
 30
0.0
 11
93.515277
 21
498.711126
 31
0.0
  0
LINE
  8
0
  6
CONTINUOUS
 62
     7
  5
82A
 10
93.515277
 20
449.111126
 30
0.0
 11
92.870644
 21
449.111126
 31
0.0
  0
LINE
  8
0
  6
CONTINUOUS
 62
     7
  5
82B
 10
94.618841
 20
452.111126
 30
0.0
 11
94.618841
 21
452.116126
 31
0.0
  0
LINE
  8
0
  6
CONTINUOUS
 62
     7
  5
82C
 10
93.515277
 20
449.111126
 30
0.0
 11
93.515277
 21
449.511126
 31
0.0
  0
LINE
  8
0
  6
CONTINUOUS
 62
     7
  5
82D
 10
96.668273
 20
452.111126
 30
0.0
 11
94.618841
 21
452.111126
 31
0.0
  0
LINE
  8
0
  6
CONTINUOUS
 62
     7
  5
82E
 10
93.515277
 20
449.511126
 30
0.0
 11
96.668273
 21
449.511126
 31
0.0
  0
LINE
  8
0
  6
CONTINUOUS
 62
     7
  5
82F
 10
127.252328
 20
478.111126
 30
0.0
 11
125.682229
 21
474.111126
 31
0.0
  0
LINE
  8
0
  6
CONTINUOUS
 62
     7
  5
830
 10
125.682229
 20
474.111126
 30
0.0
 11
125.682229
 21
471.111126
 31
0.0
  0
LINE
  8
0
  6
CONTINUOUS
 62
     7
  5
831
 10
125.682229
 20
471.111126
 30
0.0
 11
125.138331
 21
471.111126
 31
0.0
  0
LINE
  8
0
  6
CONTINUOUS
 62
     7
  5
832
 10
125.138331
 20
471.111126
 30
0.0
 11
125.138331
 21
474.325486
 31
0.0
  0
LINE
  8
0
  6
CONTINUOUS
 62
     7
  5
833
 10
125.138331
 20
474.325486
 30
0.0
 11
126.70843
 21
478.325486
 31
0.0
  0
LINE
  8
0
  6
CONTINUOUS
 62
     7
  5
834
 10
126.70843
 20
478.325486
 30
0.0
 11
126.70843
 21
493.111126
 31
0.0
  0
LINE
  8
0
  6
CONTINUOUS
 62
     7
  5
835
 10
127.252328
 20
493.111126
 30
0.0
 11
127.252328
 21
478.111126
 31
0.0
  0
LINE
  8
0
  6
CONTINUOUS
 62
     7
  5
836
 10
125.138331
 20
474.325486
 30
0.0
 11
120.73835
 21
474.325486
 31
0.0
  0
LINE
  8
0
  6
CONTINUOUS
 62
     7
  5
837
 10
120.73835
 20
474.325486
 30
0.0
 11
120.73835
 21
471.111126
 31
0.0
  0
LINE
  8
0
  6
CONTINUOUS
 62
     7
  5
838
 10
125.138331
 20
471.111126
 30
0.0
 11
120.73835
 21
471.111126
 31
0.0
  0
LINE
  8
0
  6
CONTINUOUS
 62
     7
  5
839
 10
126.70843
 20
478.325486
 30
0.0
 11
122.308449
 21
478.325486
 31
0.0
  0
LINE
  8
0
  6
CONTINUOUS
 62
     7
  5
83A
 10
122.308449
 20
478.325486
 30
0.0
 11
120.73835
 21
474.325486
 31
0.0
  0
LINE
  8
0
  6
CONTINUOUS
 62
     7
  5
83B
 10
93.515277
 20
499.111126
 30
0.0
 11
100.370644
 21
499.111126
 31
0.0
  0
LINE
  8
0
  6
CONTINUOUS
 62
     7
  5
83C
 10
100.370644
 20
449.111126
 30
0.0
 11
93.515277
 21
449.111126
 31
0.0
  0
LINE
  8
0
  6
CONTINUOUS
 62
     7
  5
83D
 10
122.308449
 20
493.111126
 30
0.0
 11
122.308449
 21
478.325486
 31
0.0
  0
LINE
  8
0
  6
CONTINUOUS
 62
     7
  5
83E
 10
122.308449
 20
455.111126
 30
0.0
 11
122.308449
 21
471.111126
 31
0.0
  0
LINE
  8
0
  6
CONTINUOUS
 62
     7
  5
83F
 10
125.682229
 20
473.111126
 30
0.0
 11
126.70843
 21
473.111126
 31
0.0
  0
LINE
  8
0
  6
CONTINUOUS
 62
     7
  5
840
 10
126.70843
 20
473.111126
 30
0.0
 11
126.70843
 21
455.111126
 31
0.0
  0
LINE
  8
0
  6
CONTINUOUS
 62
     7
  5
841
 10
127.252328
 20
455.111126
 30
0.0
 11
127.252328
 21
473.111126
 31
0.0
  0
LINE
  8
0
  6
CONTINUOUS
 62
     7
  5
842
 10
127.252328
 20
473.111126
 30
0.0
 11
126.70843
 21
473.111126
 31
0.0
  0
LINE
  8
0
  6
CONTINUOUS
 62
     7
  5
843
 10
96.668273
 20
496.111126
 30
0.0
 11
94.618841
 21
496.111126
 31
0.0
  0
LINE
  8
0
  6
CONTINUOUS
 62
     7
  5
844
 10
94.618841
 20
496.111126
 30
0.0
 11
93.925072
 21
496.111126
 31
0.0
  0
LINE
  8
0
  6
CONTINUOUS
 62
     7
  5
845
 10
93.925072
 20
493.111126
 30
0.0
 11
102.803232
 21
493.111126
 31
0.0
  0
LINE
  8
0
  6
CONTINUOUS
 62
     7
  5
846
 10
93.925072
 20
493.111126
 30
0.0
 11
93.925072
 21
496.106126
 31
0.0
  0
LINE
  8
0
  6
CONTINUOUS
 62
     7
  5
847
 10
93.925072
 20
496.106126
 30
0.0
 11
93.925072
 21
496.111126
 31
0.0
  0
LINE
  8
0
  6
CONTINUOUS
 62
     7
  5
848
 10
102.803232
 20
455.111126
 30
0.0
 11
93.925072
 21
455.111126
 31
0.0
  0
LINE
  8
0
  6
CONTINUOUS
 62
     7
  5
849
 10
93.925072
 20
452.111126
 30
0.0
 11
93.925072
 21
452.116126
 31
0.0
  0
LINE
  8
0
  6
CONTINUOUS
 62
     7
  5
84A
 10
93.925072
 20
452.116126
 30
0.0
 11
93.925072
 21
455.111126
 31
0.0
  0
LINE
  8
0
  6
CONTINUOUS
 62
     7
  5
84B
 10
93.925072
 20
452.111126
 30
0.0
 11
94.618841
 21
452.111126
 31
0.0
  0
LINE
  8
0
  6
CONTINUOUS
 62
     7
  5
84C
 10
94.618841
 20
452.111126
 30
0.0
 11
96.668273
 21
452.111126
 31
0.0
  0
LINE
  8
0
  6
CONTINUOUS
 62
     7
  5
84D
 10
93.650378
 20
493.111126
 30
0.0
 11
93.650378
 21
496.111126
 31
0.0
  0
LINE
  8
0
  6
CONTINUOUS
 62
     7
  5
84E
 10
93.650378
 20
493.111126
 30
0.0
 11
93.925072
 21
493.111126
 31
0.0
  0
LINE
  8
0
  6
CONTINUOUS
 62
     7
  5
84F
 10
93.925072
 20
496.111126
 30
0.0
 11
93.650378
 21
496.111126
 31
0.0
  0
LINE
  8
0
  6
CONTINUOUS
 62
     7
  5
850
 10
90.293794
 20
496.111126
 30
0.0
 11
90.293794
 21
498.711126
 31
0.0
  0
LINE
  8
0
  6
CONTINUOUS
 62
     7
  5
851
 10
84.746386
 20
496.111126
 30
0.0
 11
84.746386
 21
493.111126
 31
0.0
  0
LINE
  8
0
  6
CONTINUOUS
 62
     7
  5
852
 10
81.389802
 20
496.111126
 30
0.0
 11
84.746386
 21
496.111126
 31
0.0
  0
LINE
  8
0
  6
CONTINUOUS
 62
     7
  5
853
 10
81.389802
 20
496.111126
 30
0.0
 11
81.389802
 21
498.711126
 31
0.0
  0
LINE
  8
0
  6
CONTINUOUS
 62
     7
  5
854
 10
90.293794
 20
498.711126
 30
0.0
 11
81.389802
 21
498.711126
 31
0.0
  0
LINE
  8
0
  6
CONTINUOUS
 62
     7
  5
855
 10
84.746386
 20
493.111126
 30
0.0
 11
93.650378
 21
493.111126
 31
0.0
  0
LINE
  8
0
  6
CONTINUOUS
 62
     7
  5
856
 10
93.650378
 20
496.111126
 30
0.0
 11
90.293794
 21
496.111126
 31
0.0
  0
LINE
  8
0
  6
CONTINUOUS
 62
     7
  5
857
 10
81.389802
 20
449.511126
 30
0.0
 11
81.389802
 21
452.111126
 31
0.0
  0
LINE
  8
0
  6
CONTINUOUS
 62
     7
  5
858
 10
84.746386
 20
452.111126
 30
0.0
 11
81.389802
 21
452.111126
 31
0.0
  0
LINE
  8
0
  6
CONTINUOUS
 62
     7
  5
859
 10
84.746386
 20
455.111126
 30
0.0
 11
84.746386
 21
452.111126
 31
0.0
  0
LINE
  8
0
  6
CONTINUOUS
 62
     7
  5
85A
 10
93.650378
 20
452.111126
 30
0.0
 11
93.650378
 21
455.111126
 31
0.0
  0
LINE
  8
0
  6
CONTINUOUS
 62
     7
  5
85B
 10
90.293794
 20
449.511126
 30
0.0
 11
90.293794
 21
452.111126
 31
0.0
  0
LINE
  8
0
  6
CONTINUOUS
 62
     7
  5
85C
 10
81.389802
 20
449.511126
 30
0.0
 11
90.293794
 21
449.511126
 31
0.0
  0
LINE
  8
0
  6
CONTINUOUS
 62
     7
  5
85D
 10
93.650378
 20
455.111126
 30
0.0
 11
84.746386
 21
455.111126
 31
0.0
  0
LINE
  8
0
  6
CONTINUOUS
 62
     7
  5
85E
 10
90.293794
 20
452.111126
 30
0.0
 11
93.650378
 21
452.111126
 31
0.0
  0
LINE
  8
0
  6
CONTINUOUS
 62
     7
  5
85F
 10
93.925072
 20
455.111126
 30
0.0
 11
93.650378
 21
455.111126
 31
0.0
  0
LINE
  8
0
  6
CONTINUOUS
 62
     7
  5
860
 10
93.650378
 20
452.111126
 30
0.0
 11
93.925072
 21
452.111126
 31
0.0
  0
LINE
  8
0
  6
CONTINUOUS
 62
     7
  5
861
 10
100.370644
 20
499.111126
 30
0.0
 11
107.380575
 21
499.111126
 31
0.0
  0
LINE
  8
0
  6
CONTINUOUS
 62
     9
  5
862
 10
107.380575
 20
498.711126
 30
0.0
 11
107.380575
 21
499.111126
 31
0.0
  0
LINE
  8
0
  6
CONTINUOUS
 62
     7
  5
863
 10
107.380575
 20
449.111126
 30
0.0
 11
100.370644
 21
449.111126
 31
0.0
  0
LINE
  8
0
  6
CONTINUOUS
 62
     9
  5
864
 10
107.380575
 20
449.111126
 30
0.0
 11
107.380575
 21
449.511126
 31
0.0
  0
LINE
  8
0
  6
CONTINUOUS
 62
     7
  5
865
 10
107.380575
 20
499.111126
 30
0.0
 11
110.370644
 21
499.111126
 31
0.0
  0
LINE
  8
0
  6
CONTINUOUS
 62
     7
  5
866
 10
110.370644
 20
449.111126
 30
0.0
 11
107.380575
 21
449.111126
 31
0.0
  0
LINE
  8
0
  6
CONTINUOUS
 62
     7
  5
867
 10
90.293794
 20
449.511126
 30
0.0
 11
92.870644
 21
449.511126
 31
0.0
  0
LINE
  8
0
  6
CONTINUOUS
 62
     7
  5
868
 10
92.870644
 20
498.711126
 30
0.0
 11
90.293794
 21
498.711126
 31
0.0
  0
LINE
  8
0
  6
CONTINUOUS
 62
     7
  5
869
 10
93.520889
 20
493.111126
 30
0.0
 11
93.520889
 21
455.111126
 31
0.0
  0
LINE
  8
0
  6
CONTINUOUS
 62
     7
  5
86A
 10
90.407693
 20
493.111126
 30
0.0
 11
90.407693
 21
455.111126
 31
0.0
  0
LINE
  8
0
  6
CONTINUOUS
 62
     7
  5
86B
 10
85.181874
 20
493.111126
 30
0.0
 11
85.181874
 21
455.111126
 31
0.0
  0
LINE
  8
0
  6
CONTINUOUS
 62
     7
  5
86C
 10
80.610067
 20
496.106126
 30
0.0
 11
80.708724
 21
496.106126
 31
0.0
  0
LINE
  8
0
  6
CONTINUOUS
 62
     7
  5
86D
 10
80.657311
 20
498.711126
 30
0.0
 11
80.657311
 21
499.111126
 31
0.0
  0
LINE
  8
0
  6
CONTINUOUS
 62
     7
  5
86E
 10
80.708724
 20
496.106126
 30
0.0
 11
80.708724
 21
496.111126
 31
0.0
  0
LINE
  8
0
  6
CONTINUOUS
 62
     7
  5
86F
 10
80.708724
 20
496.111126
 30
0.0
 11
81.389802
 21
496.111126
 31
0.0
  0
LINE
  8
0
  6
CONTINUOUS
 62
     7
  5
870
 10
81.389802
 20
498.711126
 30
0.0
 11
80.610067
 21
498.711126
 31
0.0
  0
LINE
  8
0
  6
CONTINUOUS
 62
     7
  5
871
 10
80.610067
 20
449.511126
 30
0.0
 11
81.389802
 21
449.511126
 31
0.0
  0
LINE
  8
0
  6
CONTINUOUS
 62
     7
  5
872
 10
80.708724
 20
452.116126
 30
0.0
 11
80.610067
 21
452.116126
 31
0.0
  0
LINE
  8
0
  6
CONTINUOUS
 62
     7
  5
873
 10
80.708724
 20
452.111126
 30
0.0
 11
80.708724
 21
452.116126
 31
0.0
  0
LINE
  8
0
  6
CONTINUOUS
 62
     7
  5
874
 10
80.657311
 20
449.111126
 30
0.0
 11
80.657311
 21
449.511126
 31
0.0
  0
LINE
  8
0
  6
CONTINUOUS
 62
     7
  5
875
 10
81.389802
 20
452.111126
 30
0.0
 11
80.708724
 21
452.111126
 31
0.0
  0
LINE
  8
0
  6
CONTINUOUS
 62
     7
  5
876
 10
80.657311
 20
499.111126
 30
0.0
 11
88.110067
 21
499.111126
 31
0.0
  0
LINE
  8
0
  6
CONTINUOUS
 62
     7
  5
877
 10
88.110067
 20
449.111126
 30
0.0
 11
80.657311
 21
449.111126
 31
0.0
  0
LINE
  8
0
  6
CONTINUOUS
 62
     7
  5
878
 10
81.389802
 20
496.111126
 30
0.0
 11
80.708724
 21
496.111126
 31
0.0
  0
LINE
  8
0
  6
CONTINUOUS
 62
     7
  5
879
 10
80.708724
 20
496.111126
 30
0.0
 11
80.610176
 21
496.111126
 31
0.0
  0
LINE
  8
0
  6
CONTINUOUS
 62
     7
  5
87A
 10
80.610176
 20
493.111126
 30
0.0
 11
80.610176
 21
496.106126
 31
0.0
  0
LINE
  8
0
  6
CONTINUOUS
 62
     7
  5
87B
 10
80.610176
 20
496.106126
 30
0.0
 11
80.610176
 21
496.111126
 31
0.0
  0
LINE
  8
0
  6
CONTINUOUS
 62
     7
  5
87C
 10
80.610176
 20
493.111126
 30
0.0
 11
84.746386
 21
493.111126
 31
0.0
  0
LINE
  8
0
  6
CONTINUOUS
 62
     7
  5
87D
 10
84.746386
 20
455.111126
 30
0.0
 11
80.610176
 21
455.111126
 31
0.0
  0
LINE
  8
0
  6
CONTINUOUS
 62
     7
  5
87E
 10
80.610176
 20
452.111126
 30
0.0
 11
80.610176
 21
452.116126
 31
0.0
  0
LINE
  8
0
  6
CONTINUOUS
 62
     7
  5
87F
 10
80.610176
 20
452.116126
 30
0.0
 11
80.610176
 21
455.111126
 31
0.0
  0
LINE
  8
0
  6
CONTINUOUS
 62
     7
  5
880
 10
80.610176
 20
452.111126
 30
0.0
 11
80.708724
 21
452.111126
 31
0.0
  0
LINE
  8
0
  6
CONTINUOUS
 62
     7
  5
881
 10
80.708724
 20
452.111126
 30
0.0
 11
81.389802
 21
452.111126
 31
0.0
  0
LINE
  8
0
  6
CONTINUOUS
 62
     7
  5
882
 10
88.110067
 20
499.111126
 30
0.0
 11
92.870644
 21
499.111126
 31
0.0
  0
LINE
  8
0
  6
CONTINUOUS
 62
     7
  5
883
 10
92.870644
 20
449.111126
 30
0.0
 11
88.110067
 21
449.111126
 31
0.0
  0
LINE
  8
0
  6
CONTINUOUS
 62
     7
  5
884
 10
80.310178
 20
493.111126
 30
0.0
 11
80.310178
 21
496.111126
 31
0.0
  0
LINE
  8
0
  6
CONTINUOUS
 62
     7
  5
885
 10
80.610176
 20
496.111126
 30
0.0
 11
80.310178
 21
496.111126
 31
0.0
  0
LINE
  8
0
  6
CONTINUOUS
 62
     7
  5
886
 10
80.310178
 20
493.111126
 30
0.0
 11
80.610176
 21
493.111126
 31
0.0
  0
LINE
  8
0
  6
CONTINUOUS
 62
     7
  5
887
 10
80.310178
 20
452.111126
 30
0.0
 11
80.310178
 21
455.111126
 31
0.0
  0
LINE
  8
0
  6
CONTINUOUS
 62
     7
  5
888
 10
80.610176
 20
455.111126
 30
0.0
 11
80.310178
 21
455.111126
 31
0.0
  0
LINE
  8
0
  6
CONTINUOUS
 62
     7
  5
889
 10
80.310178
 20
452.111126
 30
0.0
 11
80.610176
 21
452.111126
 31
0.0
  0
LINE
  8
0
  6
CONTINUOUS
 62
     7
  5
88A
 10
80.183221
 20
449.511126
 30
0.0
 11
80.183221
 21
452.111126
 31
0.0
  0
LINE
  8
0
  6
CONTINUOUS
 62
     7
  5
88B
 10
80.217978
 20
452.111126
 30
0.0
 11
80.183221
 21
452.111126
 31
0.0
  0
LINE
  8
0
  6
CONTINUOUS
 62
     7
  5
88C
 10
80.217978
 20
455.111126
 30
0.0
 11
80.217978
 21
452.111126
 31
0.0
  0
LINE
  8
0
  6
CONTINUOUS
 62
     7
  5
88D
 10
80.275421
 20
449.511126
 30
0.0
 11
80.275421
 21
452.111126
 31
0.0
  0
LINE
  8
0
  6
CONTINUOUS
 62
     7
  5
88E
 10
80.183221
 20
449.511126
 30
0.0
 11
80.275421
 21
449.511126
 31
0.0
  0
LINE
  8
0
  6
CONTINUOUS
 62
     7
  5
88F
 10
80.310178
 20
455.111126
 30
0.0
 11
80.217978
 21
455.111126
 31
0.0
  0
LINE
  8
0
  6
CONTINUOUS
 62
     7
  5
890
 10
80.275421
 20
452.111126
 30
0.0
 11
80.310178
 21
452.111126
 31
0.0
  0
LINE
  8
0
  6
CONTINUOUS
 62
     7
  5
891
 10
80.275421
 20
496.111126
 30
0.0
 11
80.275421
 21
498.711126
 31
0.0
  0
LINE
  8
0
  6
CONTINUOUS
 62
     7
  5
892
 10
80.217978
 20
496.111126
 30
0.0
 11
80.217978
 21
493.111126
 31
0.0
  0
LINE
  8
0
  6
CONTINUOUS
 62
     7
  5
893
 10
80.183221
 20
496.111126
 30
0.0
 11
80.217978
 21
496.111126
 31
0.0
  0
LINE
  8
0
  6
CONTINUOUS
 62
     7
  5
894
 10
80.183221
 20
496.111126
 30
0.0
 11
80.183221
 21
498.711126
 31
0.0
  0
LINE
  8
0
  6
CONTINUOUS
 62
     7
  5
895
 10
80.275421
 20
498.711126
 30
0.0
 11
80.183221
 21
498.711126
 31
0.0
  0
LINE
  8
0
  6
CONTINUOUS
 62
     7
  5
896
 10
80.310178
 20
496.111126
 30
0.0
 11
80.275421
 21
496.111126
 31
0.0
  0
LINE
  8
0
  6
CONTINUOUS
 62
     7
  5
897
 10
80.217978
 20
493.111126
 30
0.0
 11
80.310178
 21
493.111126
 31
0.0
  0
LINE
  8
0
  6
CONTINUOUS
 62
     7
  5
898
 10
80.275421
 20
449.511126
 30
0.0
 11
80.610067
 21
449.511126
 31
0.0
  0
LINE
  8
0
  6
CONTINUOUS
 62
     7
  5
899
 10
80.610067
 20
498.711126
 30
0.0
 11
80.275421
 21
498.711126
 31
0.0
  0
LINE
  8
0
  6
CONTINUOUS
 62
     7
  5
89A
 10
80.573753
 20
493.111126
 30
0.0
 11
80.573753
 21
455.111126
 31
0.0
  0
LINE
  8
0
  6
CONTINUOUS
 62
     7
  5
89B
 10
80.51964
 20
493.111126
 30
0.0
 11
80.51964
 21
455.111126
 31
0.0
  0
LINE
  8
0
  6
CONTINUOUS
 62
     7
  5
89C
 10
83.973724
 20
493.111126
 30
0.0
 11
83.973724
 21
455.111126
 31
0.0
  0
LINE
  8
0
  6
CONTINUOUS
 62
     7
  5
89D
 10
102.449594
 20
474.325486
 30
0.0
 11
103.288874
 21
475.779174
 31
0.0
  0
LINE
  8
0
  6
CONTINUOUS
 62
     7
  5
89E
 10
102.449594
 20
474.325486
 30
0.0
 11
102.424618
 21
474.325486
 31
0.0
  0
LINE
  8
0
  6
CONTINUOUS
 62
     7
  5
89F
 10
103.288874
 20
475.822433
 30
0.0
 11
102.424618
 21
474.325486
 31
0.0
  0
LINE
  8
0
  6
CONTINUOUS
 62
     7
  5
8A0
 10
103.288874
 20
474.179174
 30
0.0
 11
103.249587
 21
474.111126
 31
0.0
  0
LINE
  8
0
  6
CONTINUOUS
 62
     7
  5
8A1
 10
103.249587
 20
474.111126
 30
0.0
 11
103.249587
 21
471.111126
 31
0.0
  0
LINE
  8
0
  6
CONTINUOUS
 62
     7
  5
8A2
 10
103.249587
 20
471.111126
 30
0.0
 11
102.449594
 21
471.111126
 31
0.0
  0
LINE
  8
0
  6
CONTINUOUS
 62
     7
  5
8A3
 10
102.449594
 20
471.111126
 30
0.0
 11
102.449594
 21
474.325486
 31
0.0
  0
LINE
  8
0
  6
CONTINUOUS
 62
     7
  5
8A4
 10
102.424618
 20
474.325486
 30
0.0
 11
102.424618
 21
471.111126
 31
0.0
  0
LINE
  8
0
  6
CONTINUOUS
 62
     7
  5
8A5
 10
102.449594
 20
471.111126
 30
0.0
 11
102.424618
 21
471.111126
 31
0.0
  0
LINE
  8
0
  6
CONTINUOUS
 62
     7
  5
8A6
 10
84.94666
 20
493.111126
 30
0.0
 11
84.94666
 21
455.111126
 31
0.0
  0
LINE
  8
0
  6
CONTINUOUS
 62
     7
  5
8A7
 10
110.370644
 20
499.111126
 30
0.0
 11
115.237213
 21
499.111126
 31
0.0
  0
LINE
  8
0
  6
CONTINUOUS
 62
     7
  5
8A8
 10
115.237213
 20
449.111126
 30
0.0
 11
110.370644
 21
449.111126
 31
0.0
  0
LINE
  8
0
  6
CONTINUOUS
 62
     7
  5
8A9
 10
120.73835
 20
471.111126
 30
0.0
 11
120.365936
 21
471.111126
 31
0.0
  0
LINE
  8
0
  6
CONTINUOUS
 62
     7
  5
8AA
 10
120.365936
 20
471.111126
 30
0.0
 11
120.365936
 21
474.325486
 31
0.0
  0
LINE
  8
0
  6
CONTINUOUS
 62
     7
  5
8AB
 10
120.365936
 20
474.325486
 30
0.0
 11
121.950079
 21
478.325486
 31
0.0
  0
LINE
  8
0
  6
CONTINUOUS
 62
     7
  5
8AC
 10
121.950079
 20
478.325486
 30
0.0
 11
121.950079
 21
493.111126
 31
0.0
  0
LINE
  8
0
  6
CONTINUOUS
 62
     7
  5
8AD
 10
121.950079
 20
471.111126
 30
0.0
 11
121.950079
 21
455.111126
 31
0.0
  0
LINE
  8
0
  6
CONTINUOUS
 62
     7
  5
8AE
 10
139.703933
 20
499.111126
 30
0.0
 11
139.091876
 21
499.111126
 31
0.0
  0
LINE
  8
0
  6
CONTINUOUS
 62
     7
  5
8AF
 10
139.091876
 20
499.111126
 30
0.0
 11
139.091876
 21
498.711126
 31
0.0
  0
LINE
  8
0
  6
CONTINUOUS
 62
     7
  5
8B0
 10
139.703933
 20
449.111126
 30
0.0
 11
139.091876
 21
449.111126
 31
0.0
  0
LINE
  8
0
  6
CONTINUOUS
 62
     7
  5
8B1
 10
139.091876
 20
449.511126
 30
0.0
 11
139.091876
 21
449.111126
 31
0.0
  0
LINE
  8
0
  6
CONTINUOUS
 62
     7
  5
8B2
 10
102.803232
 20
493.111126
 30
0.0
 11
102.803232
 21
474.98127
 31
0.0
  0
LINE
  8
0
  6
CONTINUOUS
 62
     7
  5
8B3
 10
102.803232
 20
471.111126
 30
0.0
 11
102.803232
 21
455.111126
 31
0.0
  0
LINE
  8
0
  6
CONTINUOUS
 62
     7
  5
8B4
 10
139.091876
 20
449.111126
 30
0.0
 11
132.737213
 21
449.111126
 31
0.0
  0
LINE
  8
0
  6
CONTINUOUS
 62
     7
  5
8B5
 10
132.737213
 20
499.111126
 30
0.0
 11
139.091876
 21
499.111126
 31
0.0
  0
LINE
  8
0
  6
CONTINUOUS
 62
     7
  5
8B6
 10
168.39235
 20
499.111126
 30
0.0
 11
165.258948
 21
499.111126
 31
0.0
  0
LINE
  8
0
  6
CONTINUOUS
 62
     7
  5
8B7
 10
165.258948
 20
499.111126
 30
0.0
 11
165.258948
 21
498.711126
 31
0.0
  0
LINE
  8
0
  6
CONTINUOUS
 62
     7
  5
8B8
 10
168.39235
 20
449.111126
 30
0.0
 11
165.258948
 21
449.111126
 31
0.0
  0
LINE
  8
0
  6
CONTINUOUS
 62
     7
  5
8B9
 10
165.258948
 20
449.511126
 30
0.0
 11
165.258948
 21
449.111126
 31
0.0
  0
LINE
  8
0
  6
CONTINUOUS
 62
     7
  5
8BA
 10
165.258948
 20
449.111126
 30
0.0
 11
160.89235
 21
449.111126
 31
0.0
  0
LINE
  8
0
  6
CONTINUOUS
 62
     7
  5
8BB
 10
160.89235
 20
499.111126
 30
0.0
 11
165.258948
 21
499.111126
 31
0.0
  0
LINE
  8
0
  6
CONTINUOUS
 62
     7
  5
8BC
 10
155.891713
 20
496.111126
 30
0.0
 11
152.341713
 21
496.111126
 31
0.0
  0
LINE
  8
0
  6
CONTINUOUS
 62
     7
  5
8BD
 10
152.341713
 20
496.111126
 30
0.0
 11
151.084664
 21
496.111126
 31
0.0
  0
LINE
  8
0
  6
CONTINUOUS
 62
     7
  5
8BE
 10
151.084664
 20
493.111126
 30
0.0
 11
151.084664
 21
496.106126
 31
0.0
  0
LINE
  8
0
  6
CONTINUOUS
 62
     7
  5
8BF
 10
151.084664
 20
496.106126
 30
0.0
 11
151.084664
 21
496.111126
 31
0.0
  0
LINE
  8
0
  6
CONTINUOUS
 62
     7
  5
8C0
 10
151.084664
 20
493.111126
 30
0.0
 11
164.241713
 21
493.111126
 31
0.0
  0
LINE
  8
0
  6
CONTINUOUS
 62
     7
  5
8C1
 10
164.241713
 20
455.111126
 30
0.0
 11
151.084664
 21
455.111126
 31
0.0
  0
LINE
  8
0
  6
CONTINUOUS
 62
     7
  5
8C2
 10
151.084664
 20
452.111126
 30
0.0
 11
151.084664
 21
452.116126
 31
0.0
  0
LINE
  8
0
  6
CONTINUOUS
 62
     7
  5
8C3
 10
151.084664
 20
452.116126
 30
0.0
 11
151.084664
 21
455.111126
 31
0.0
  0
LINE
  8
0
  6
CONTINUOUS
 62
     7
  5
8C4
 10
151.084664
 20
452.111126
 30
0.0
 11
152.341713
 21
452.111126
 31
0.0
  0
LINE
  8
0
  6
CONTINUOUS
 62
     7
  5
8C5
 10
152.341713
 20
452.111126
 30
0.0
 11
155.891713
 21
452.111126
 31
0.0
  0
LINE
  8
0
  6
CONTINUOUS
 62
     7
  5
8C6
 10
143.261423
 20
496.111126
 30
0.0
 11
143.261423
 21
498.711126
 31
0.0
  0
LINE
  8
0
  6
CONTINUOUS
 62
     7
  5
8C7
 10
150.969295
 20
493.111126
 30
0.0
 11
150.969295
 21
496.111126
 31
0.0
  0
LINE
  8
0
  6
CONTINUOUS
 62
     7
  5
8C8
 10
130.522666
 20
496.111126
 30
0.0
 11
130.522666
 21
493.111126
 31
0.0
  0
LINE
  8
0
  6
CONTINUOUS
 62
     7
  5
8C9
 10
122.814795
 20
496.111126
 30
0.0
 11
130.522666
 21
496.111126
 31
0.0
  0
LINE
  8
0
  6
CONTINUOUS
 62
     7
  5
8CA
 10
122.814795
 20
496.111126
 30
0.0
 11
122.814795
 21
498.711126
 31
0.0
  0
LINE
  8
0
  6
CONTINUOUS
 62
     7
  5
8CB
 10
143.261423
 20
498.711126
 30
0.0
 11
122.814795
 21
498.711126
 31
0.0
  0
LINE
  8
0
  6
CONTINUOUS
 62
     7
  5
8CC
 10
150.969295
 20
496.111126
 30
0.0
 11
143.261423
 21
496.111126
 31
0.0
  0
LINE
  8
0
  6
CONTINUOUS
 62
     7
  5
8CD
 10
130.522666
 20
493.111126
 30
0.0
 11
150.969295
 21
493.111126
 31
0.0
  0
LINE
  8
0
  6
CONTINUOUS
 62
     7
  5
8CE
 10
151.084664
 20
496.111126
 30
0.0
 11
150.969295
 21
496.111126
 31
0.0
  0
LINE
  8
0
  6
CONTINUOUS
 62
     7
  5
8CF
 10
150.969295
 20
493.111126
 30
0.0
 11
151.084664
 21
493.111126
 31
0.0
  0
LINE
  8
0
  6
CONTINUOUS
 62
     7
  5
8D0
 10
150.969295
 20
452.111126
 30
0.0
 11
150.969295
 21
455.111126
 31
0.0
  0
LINE
  8
0
  6
CONTINUOUS
 62
     7
  5
8D1
 10
151.084664
 20
455.111126
 30
0.0
 11
150.969295
 21
455.111126
 31
0.0
  0
LINE
  8
0
  6
CONTINUOUS
 62
     7
  5
8D2
 10
150.969295
 20
452.111126
 30
0.0
 11
151.084664
 21
452.111126
 31
0.0
  0
LINE
  8
0
  6
CONTINUOUS
 62
     7
  5
8D3
 10
122.814795
 20
449.511126
 30
0.0
 11
122.814795
 21
452.111126
 31
0.0
  0
LINE
  8
0
  6
CONTINUOUS
 62
     7
  5
8D4
 10
130.522666
 20
452.111126
 30
0.0
 11
122.814795
 21
452.111126
 31
0.0
  0
LINE
  8
0
  6
CONTINUOUS
 62
     7
  5
8D5
 10
130.522666
 20
455.111126
 30
0.0
 11
130.522666
 21
452.111126
 31
0.0
  0
LINE
  8
0
  6
CONTINUOUS
 62
     7
  5
8D6
 10
143.261423
 20
449.511126
 30
0.0
 11
143.261423
 21
452.111126
 31
0.0
  0
LINE
  8
0
  6
CONTINUOUS
 62
     7
  5
8D7
 10
122.814795
 20
449.511126
 30
0.0
 11
143.261423
 21
449.511126
 31
0.0
  0
LINE
  8
0
  6
CONTINUOUS
 62
     7
  5
8D8
 10
150.969295
 20
455.111126
 30
0.0
 11
130.522666
 21
455.111126
 31
0.0
  0
LINE
  8
0
  6
CONTINUOUS
 62
     7
  5
8D9
 10
143.261423
 20
452.111126
 30
0.0
 11
150.969295
 21
452.111126
 31
0.0
  0
LINE
  8
0
  6
CONTINUOUS
 62
     7
  5
8DA
 10
144.453026
 20
498.711126
 30
0.0
 11
144.453026
 21
496.111126
 31
0.0
  0
LINE
  8
0
  6
CONTINUOUS
 62
     7
  5
8DB
 10
144.453026
 20
498.711126
 30
0.0
 11
143.261423
 21
498.711126
 31
0.0
  0
LINE
  8
0
  6
CONTINUOUS
 62
     7
  5
8DC
 10
144.453026
 20
449.511126
 30
0.0
 11
144.453026
 21
452.111126
 31
0.0
  0
LINE
  8
0
  6
CONTINUOUS
 62
     7
  5
8DD
 10
143.261423
 20
449.511126
 30
0.0
 11
144.453026
 21
449.511126
 31
0.0
  0
LINE
  8
0
  6
CONTINUOUS
 62
     7
  5
8DE
 10
144.315071
 20
493.111126
 30
0.0
 11
144.315071
 21
455.111126
 31
0.0
  0
LINE
  8
0
  6
CONTINUOUS
 62
     7
  5
8DF
 10
143.007553
 20
493.111126
 30
0.0
 11
143.007553
 21
455.111126
 31
0.0
  0
LINE
  8
0
  6
CONTINUOUS
 62
     7
  5
8E0
 10
131.007275
 20
493.111126
 30
0.0
 11
131.007275
 21
455.111126
 31
0.0
  0
LINE
  8
0
  6
CONTINUOUS
 62
     7
  5
8E1
 10
150.891713
 20
499.111126
 30
0.0
 11
160.507205
 21
499.111126
 31
0.0
  0
LINE
  8
0
  6
CONTINUOUS
 62
     9
  5
8E2
 10
160.507205
 20
498.711126
 30
0.0
 11
160.507205
 21
499.111126
 31
0.0
  0
LINE
  8
0
  6
CONTINUOUS
 62
     7
  5
8E3
 10
160.507205
 20
449.111126
 30
0.0
 11
150.891713
 21
449.111126
 31
0.0
  0
LINE
  8
0
  6
CONTINUOUS
 62
     9
  5
8E4
 10
160.507205
 20
449.111126
 30
0.0
 11
160.507205
 21
449.511126
 31
0.0
  0
LINE
  8
0
  6
CONTINUOUS
 62
     7
  5
8E5
 10
160.507205
 20
499.111126
 30
0.0
 11
160.891713
 21
499.111126
 31
0.0
  0
LINE
  8
0
  6
CONTINUOUS
 62
     7
  5
8E6
 10
160.891713
 20
449.111126
 30
0.0
 11
160.507205
 21
449.111126
 31
0.0
  0
LINE
  8
0
  6
CONTINUOUS
 62
     7
  5
8E7
 10
117.98155
 20
499.111126
 30
0.0
 11
115.237213
 21
499.111126
 31
0.0
  0
LINE
  8
0
  6
CONTINUOUS
 62
     7
  5
8E8
 10
117.98155
 20
498.711126
 30
0.0
 11
117.98155
 21
499.111126
 31
0.0
  0
LINE
  8
0
  6
CONTINUOUS
 62
     7
  5
8E9
 10
119.851098
 20
496.106126
 30
0.0
 11
119.851098
 21
496.111126
 31
0.0
  0
LINE
  8
0
  6
CONTINUOUS
 62
     7
  5
8EA
 10
119.851098
 20
496.111126
 30
0.0
 11
122.814795
 21
496.111126
 31
0.0
  0
LINE
  8
0
  6
CONTINUOUS
 62
     7
  5
8EB
 10
122.814795
 20
498.711126
 30
0.0
 11
117.98155
 21
498.711126
 31
0.0
  0
LINE
  8
0
  6
CONTINUOUS
 62
     7
  5
8EC
 10
117.98155
 20
449.111126
 30
0.0
 11
115.237213
 21
449.111126
 31
0.0
  0
LINE
  8
0
  6
CONTINUOUS
 62
     7
  5
8ED
 10
119.851098
 20
452.111126
 30
0.0
 11
119.851098
 21
452.116126
 31
0.0
  0
LINE
  8
0
  6
CONTINUOUS
 62
     7
  5
8EE
 10
117.98155
 20
449.111126
 30
0.0
 11
117.98155
 21
449.511126
 31
0.0
  0
LINE
  8
0
  6
CONTINUOUS
 62
     7
  5
8EF
 10
122.814795
 20
452.111126
 30
0.0
 11
119.851098
 21
452.111126
 31
0.0
  0
LINE
  8
0
  6
CONTINUOUS
 62
     7
  5
8F0
 10
117.98155
 20
449.511126
 30
0.0
 11
122.814795
 21
449.511126
 31
0.0
  0
LINE
  8
0
  6
CONTINUOUS
 62
     7
  5
8F1
 10
117.98155
 20
499.111126
 30
0.0
 11
122.737213
 21
499.111126
 31
0.0
  0
LINE
  8
0
  6
CONTINUOUS
 62
     7
  5
8F2
 10
122.737213
 20
449.111126
 30
0.0
 11
117.98155
 21
449.111126
 31
0.0
  0
LINE
  8
0
  6
CONTINUOUS
 62
     7
  5
8F3
 10
149.390807
 20
478.111126
 30
0.0
 11
148.502695
 21
474.111126
 31
0.0
  0
LINE
  8
0
  6
CONTINUOUS
 62
     7
  5
8F4
 10
148.502695
 20
474.111126
 30
0.0
 11
148.502695
 21
471.111126
 31
0.0
  0
LINE
  8
0
  6
CONTINUOUS
 62
     7
  5
8F5
 10
148.502695
 20
471.111126
 30
0.0
 11
148.195044
 21
471.111126
 31
0.0
  0
LINE
  8
0
  6
CONTINUOUS
 62
     7
  5
8F6
 10
148.195044
 20
471.111126
 30
0.0
 11
148.195044
 21
474.325486
 31
0.0
  0
LINE
  8
0
  6
CONTINUOUS
 62
     7
  5
8F7
 10
148.195044
 20
474.325486
 30
0.0
 11
149.083156
 21
478.325486
 31
0.0
  0
LINE
  8
0
  6
CONTINUOUS
 62
     7
  5
8F8
 10
149.083156
 20
478.325486
 30
0.0
 11
149.083156
 21
493.111126
 31
0.0
  0
LINE
  8
0
  6
CONTINUOUS
 62
     7
  5
8F9
 10
149.390807
 20
493.111126
 30
0.0
 11
149.390807
 21
478.111126
 31
0.0
  0
LINE
  8
0
  6
CONTINUOUS
 62
     7
  5
8FA
 10
148.195044
 20
474.325486
 30
0.0
 11
144.315071
 21
474.325486
 31
0.0
  0
LINE
  8
0
  6
CONTINUOUS
 62
     7
  5
8FB
 10
148.195044
 20
471.111126
 30
0.0
 11
144.315071
 21
471.111126
 31
0.0
  0
LINE
  8
0
  6
CONTINUOUS
 62
     7
  5
8FC
 10
149.083156
 20
478.325486
 30
0.0
 11
144.315071
 21
478.325486
 31
0.0
  0
LINE
  8
0
  6
CONTINUOUS
 62
     7
  5
8FD
 10
149.083156
 20
473.111126
 30
0.0
 11
149.083156
 21
455.111126
 31
0.0
  0
LINE
  8
0
  6
CONTINUOUS
 62
     7
  5
8FE
 10
148.502695
 20
473.111126
 30
0.0
 11
149.083156
 21
473.111126
 31
0.0
  0
LINE
  8
0
  6
CONTINUOUS
 62
     7
  5
8FF
 10
149.390807
 20
455.111126
 30
0.0
 11
149.390807
 21
473.111126
 31
0.0
  0
LINE
  8
0
  6
CONTINUOUS
 62
     7
  5
900
 10
149.390807
 20
473.111126
 30
0.0
 11
149.083156
 21
473.111126
 31
0.0
  0
LINE
  8
0
  6
CONTINUOUS
 62
     7
  5
901
 10
178.041713
 20
496.111126
 30
0.0
 11
178.041713
 21
498.711126
 31
0.0
  0
LINE
  8
0
  6
CONTINUOUS
 62
     7
  5
902
 10
186.391713
 20
496.111126
 30
0.0
 11
178.041713
 21
496.111126
 31
0.0
  0
LINE
  8
0
  6
CONTINUOUS
 62
     7
  5
903
 10
186.391713
 20
493.111126
 30
0.0
 11
186.391713
 21
496.111126
 31
0.0
  0
LINE
  8
0
  6
CONTINUOUS
 62
     7
  5
904
 10
155.891713
 20
496.111126
 30
0.0
 11
155.891713
 21
498.711126
 31
0.0
  0
LINE
  8
0
  6
CONTINUOUS
 62
     7
  5
905
 10
178.041713
 20
498.711126
 30
0.0
 11
155.891713
 21
498.711126
 31
0.0
  0
LINE
  8
0
  6
CONTINUOUS
 62
     7
  5
906
 10
164.241713
 20
496.111126
 30
0.0
 11
164.241713
 21
493.111126
 31
0.0
  0
LINE
  8
0
  6
CONTINUOUS
 62
     7
  5
907
 10
155.891713
 20
496.111126
 30
0.0
 11
164.241713
 21
496.111126
 31
0.0
  0
LINE
  8
0
  6
CONTINUOUS
 62
     7
  5
908
 10
164.241713
 20
493.111126
 30
0.0
 11
186.391713
 21
493.111126
 31
0.0
  0
LINE
  8
0
  6
CONTINUOUS
 62
     7
  5
909
 10
155.891713
 20
449.511126
 30
0.0
 11
178.041713
 21
449.511126
 31
0.0
  0
LINE
  8
0
  6
CONTINUOUS
 62
     7
  5
90A
 10
186.391713
 20
452.111126
 30
0.0
 11
186.391713
 21
455.111126
 31
0.0
  0
LINE
  8
0
  6
CONTINUOUS
 62
     7
  5
90B
 10
186.391713
 20
455.111126
 30
0.0
 11
164.241713
 21
455.111126
 31
0.0
  0
LINE
  8
0
  6
CONTINUOUS
 62
     7
  5
90C
 10
164.241713
 20
455.111126
 30
0.0
 11
164.241713
 21
452.111126
 31
0.0
  0
LINE
  8
0
  6
CONTINUOUS
 62
     7
  5
90D
 10
178.041713
 20
449.511126
 30
0.0
 11
178.041713
 21
452.111126
 31
0.0
  0
LINE
  8
0
  6
CONTINUOUS
 62
     7
  5
90E
 10
178.041713
 20
452.111126
 30
0.0
 11
186.391713
 21
452.111126
 31
0.0
  0
LINE
  8
0
  6
CONTINUOUS
 62
     7
  5
90F
 10
155.891713
 20
449.511126
 30
0.0
 11
155.891713
 21
452.111126
 31
0.0
  0
LINE
  8
0
  6
CONTINUOUS
 62
     7
  5
910
 10
164.241713
 20
452.111126
 30
0.0
 11
155.891713
 21
452.111126
 31
0.0
  0
LINE
  8
0
  6
CONTINUOUS
 62
     7
  5
911
 10
186.391713
 20
493.111126
 30
0.0
 11
194.741713
 21
493.111126
 31
0.0
  0
LINE
  8
0
  6
CONTINUOUS
 62
     7
  5
912
 10
194.741713
 20
455.111126
 30
0.0
 11
186.391713
 21
455.111126
 31
0.0
  0
LINE
  8
0
  6
CONTINUOUS
 62
     7
  5
913
 10
149.891713
 20
499.111126
 30
0.0
 11
143.391713
 21
499.111126
 31
0.0
  0
LINE
  8
0
  6
CONTINUOUS
 62
     7
  5
914
 10
149.891713
 20
498.711126
 30
0.0
 11
149.891713
 21
499.111126
 31
0.0
  0
LINE
  8
0
  6
CONTINUOUS
 62
     7
  5
915
 10
152.341713
 20
496.106126
 30
0.0
 11
152.341713
 21
496.111126
 31
0.0
  0
LINE
  8
0
  6
CONTINUOUS
 62
     7
  5
916
 10
155.891713
 20
498.711126
 30
0.0
 11
149.891713
 21
498.711126
 31
0.0
  0
LINE
  8
0
  6
CONTINUOUS
 62
     7
  5
917
 10
152.341713
 20
496.111126
 30
0.0
 11
155.891713
 21
496.111126
 31
0.0
  0
LINE
  8
0
  6
CONTINUOUS
 62
     7
  5
918
 10
164.641713
 20
493.111126
 30
0.0
 11
164.641713
 21
455.111126
 31
0.0
  0
LINE
  8
0
  6
CONTINUOUS
 62
     7
  5
919
 10
177.641713
 20
493.111126
 30
0.0
 11
177.641713
 21
455.111126
 31
0.0
  0
LINE
  8
0
  6
CONTINUOUS
 62
     7
  5
91A
 10
149.891713
 20
449.111126
 30
0.0
 11
143.391713
 21
449.111126
 31
0.0
  0
LINE
  8
0
  6
CONTINUOUS
 62
     7
  5
91B
 10
152.341713
 20
452.111126
 30
0.0
 11
152.341713
 21
452.116126
 31
0.0
  0
LINE
  8
0
  6
CONTINUOUS
 62
     7
  5
91C
 10
149.891713
 20
449.111126
 30
0.0
 11
149.891713
 21
449.511126
 31
0.0
  0
LINE
  8
0
  6
CONTINUOUS
 62
     7
  5
91D
 10
149.891713
 20
449.511126
 30
0.0
 11
155.891713
 21
449.511126
 31
0.0
  0
LINE
  8
0
  6
CONTINUOUS
 62
     7
  5
91E
 10
155.891713
 20
452.111126
 30
0.0
 11
152.341713
 21
452.111126
 31
0.0
  0
LINE
  8
0
  6
CONTINUOUS
 62
     7
  5
91F
 10
181.391713
 20
499.111126
 30
0.0
 11
181.391713
 21
498.711126
 31
0.0
  0
LINE
  8
0
  6
CONTINUOUS
 62
     7
  5
920
 10
191.391713
 20
498.711126
 30
0.0
 11
191.391713
 21
499.111126
 31
0.0
  0
LINE
  8
0
  6
CONTINUOUS
 62
     7
  5
921
 10
181.391713
 20
499.111126
 30
0.0
 11
191.391713
 21
499.111126
 31
0.0
  0
LINE
  8
0
  6
CONTINUOUS
 62
     7
  5
922
 10
181.391713
 20
449.511126
 30
0.0
 11
181.391713
 21
449.111126
 31
0.0
  0
LINE
  8
0
  6
CONTINUOUS
 62
     7
  5
923
 10
191.391713
 20
449.111126
 30
0.0
 11
191.391713
 21
449.511126
 31
0.0
  0
LINE
  8
0
  6
CONTINUOUS
 62
     7
  5
924
 10
191.391713
 20
449.111126
 30
0.0
 11
181.391713
 21
449.111126
 31
0.0
  0
LINE
  8
0
  6
CONTINUOUS
 62
     7
  5
925
 10
208.541713
 20
496.111126
 30
0.0
 11
208.541713
 21
498.711126
 31
0.0
  0
LINE
  8
0
  6
CONTINUOUS
 62
     7
  5
926
 10
194.741713
 20
496.111126
 30
0.0
 11
194.741713
 21
493.111126
 31
0.0
  0
LINE
  8
0
  6
CONTINUOUS
 62
     7
  5
927
 10
208.541713
 20
498.711126
 30
0.0
 11
186.391713
 21
498.711126
 31
0.0
  0
LINE
  8
0
  6
CONTINUOUS
 62
     7
  5
928
 10
216.891713
 20
496.111126
 30
0.0
 11
208.541713
 21
496.111126
 31
0.0
  0
LINE
  8
0
  6
CONTINUOUS
 62
     7
  5
929
 10
194.741713
 20
493.111126
 30
0.0
 11
216.891713
 21
493.111126
 31
0.0
  0
LINE
  8
0
  6
CONTINUOUS
 62
     7
  5
92A
 10
186.391713
 20
496.111126
 30
0.0
 11
194.741713
 21
496.111126
 31
0.0
  0
LINE
  8
0
  6
CONTINUOUS
 62
     7
  5
92B
 10
186.391713
 20
496.111126
 30
0.0
 11
186.391713
 21
498.711126
 31
0.0
  0
LINE
  8
0
  6
CONTINUOUS
 62
     7
  5
92C
 10
216.891713
 20
493.111126
 30
0.0
 11
216.891713
 21
496.111126
 31
0.0
  0
LINE
  8
0
  6
CONTINUOUS
 62
     7
  5
92D
 10
186.391713
 20
449.511126
 30
0.0
 11
186.391713
 21
452.111126
 31
0.0
  0
LINE
  8
0
  6
CONTINUOUS
 62
     7
  5
92E
 10
194.741713
 20
452.111126
 30
0.0
 11
186.391713
 21
452.111126
 31
0.0
  0
LINE
  8
0
  6
CONTINUOUS
 62
     7
  5
92F
 10
194.741713
 20
455.111126
 30
0.0
 11
194.741713
 21
452.111126
 31
0.0
  0
LINE
  8
0
  6
CONTINUOUS
 62
     7
  5
930
 10
216.891713
 20
455.111126
 30
0.0
 11
194.741713
 21
455.111126
 31
0.0
  0
LINE
  8
0
  6
CONTINUOUS
 62
     7
  5
931
 10
216.891713
 20
452.111126
 30
0.0
 11
216.891713
 21
455.111126
 31
0.0
  0
LINE
  8
0
  6
CONTINUOUS
 62
     7
  5
932
 10
208.541713
 20
449.511126
 30
0.0
 11
208.541713
 21
452.111126
 31
0.0
  0
LINE
  8
0
  6
CONTINUOUS
 62
     7
  5
933
 10
186.391713
 20
449.511126
 30
0.0
 11
208.541713
 21
449.511126
 31
0.0
  0
LINE
  8
0
  6
CONTINUOUS
 62
     7
  5
934
 10
208.541713
 20
452.111126
 30
0.0
 11
216.891713
 21
452.111126
 31
0.0
  0
LINE
  8
0
  6
CONTINUOUS
 62
     7
  5
935
 10
216.891713
 20
493.111126
 30
0.0
 11
225.241713
 21
493.111126
 31
0.0
  0
LINE
  8
0
  6
CONTINUOUS
 62
     7
  5
936
 10
225.241713
 20
455.111126
 30
0.0
 11
216.891713
 21
455.111126
 31
0.0
  0
LINE
  8
0
  6
CONTINUOUS
 62
     7
  5
937
 10
208.141713
 20
493.111126
 30
0.0
 11
208.141713
 21
455.111126
 31
0.0
  0
LINE
  8
0
  6
CONTINUOUS
 62
     7
  5
938
 10
195.141713
 20
493.111126
 30
0.0
 11
195.141713
 21
455.111126
 31
0.0
  0
LINE
  8
0
  6
CONTINUOUS
 62
     7
  5
939
 10
180.391713
 20
499.111126
 30
0.0
 11
173.891713
 21
499.111126
 31
0.0
  0
LINE
  8
0
  6
CONTINUOUS
 62
     7
  5
93A
 10
180.391713
 20
498.711126
 30
0.0
 11
180.391713
 21
499.111126
 31
0.0
  0
LINE
  8
0
  6
CONTINUOUS
 62
     7
  5
93B
 10
186.391713
 20
498.711126
 30
0.0
 11
180.391713
 21
498.711126
 31
0.0
  0
LINE
  8
0
  6
CONTINUOUS
 62
     7
  5
93C
 10
180.391713
 20
449.111126
 30
0.0
 11
173.891713
 21
449.111126
 31
0.0
  0
LINE
  8
0
  6
CONTINUOUS
 62
     7
  5
93D
 10
180.391713
 20
449.111126
 30
0.0
 11
180.391713
 21
449.511126
 31
0.0
  0
LINE
  8
0
  6
CONTINUOUS
 62
     7
  5
93E
 10
180.391713
 20
449.511126
 30
0.0
 11
186.391713
 21
449.511126
 31
0.0
  0
LINE
  8
0
  6
CONTINUOUS
 62
     7
  5
93F
 10
211.891713
 20
499.111126
 30
0.0
 11
211.891713
 21
498.711126
 31
0.0
  0
LINE
  8
0
  6
CONTINUOUS
 62
     7
  5
940
 10
211.891713
 20
499.111126
 30
0.0
 11
221.891713
 21
499.111126
 31
0.0
  0
LINE
  8
0
  6
CONTINUOUS
 62
     7
  5
941
 10
221.891713
 20
498.711126
 30
0.0
 11
221.891713
 21
499.111126
 31
0.0
  0
LINE
  8
0
  6
CONTINUOUS
 62
     7
  5
942
 10
211.891713
 20
449.511126
 30
0.0
 11
211.891713
 21
449.111126
 31
0.0
  0
LINE
  8
0
  6
CONTINUOUS
 62
     7
  5
943
 10
221.891713
 20
449.111126
 30
0.0
 11
221.891713
 21
449.511126
 31
0.0
  0
LINE
  8
0
  6
CONTINUOUS
 62
     7
  5
944
 10
221.891713
 20
449.111126
 30
0.0
 11
211.891713
 21
449.111126
 31
0.0
  0
LINE
  8
0
  6
CONTINUOUS
 62
     7
  5
945
 10
247.391713
 20
496.111126
 30
0.0
 11
239.041713
 21
496.111126
 31
0.0
  0
LINE
  8
0
  6
CONTINUOUS
 62
     7
  5
946
 10
247.391713
 20
493.111126
 30
0.0
 11
247.391713
 21
496.111126
 31
0.0
  0
LINE
  8
0
  6
CONTINUOUS
 62
     7
  5
947
 10
225.241713
 20
493.111126
 30
0.0
 11
247.391713
 21
493.111126
 31
0.0
  0
LINE
  8
0
  6
CONTINUOUS
 62
     7
  5
948
 10
216.891713
 20
496.111126
 30
0.0
 11
225.241713
 21
496.111126
 31
0.0
  0
LINE
  8
0
  6
CONTINUOUS
 62
     7
  5
949
 10
216.891713
 20
496.111126
 30
0.0
 11
216.891713
 21
498.711126
 31
0.0
  0
LINE
  8
0
  6
CONTINUOUS
 62
     7
  5
94A
 10
239.041713
 20
498.711126
 30
0.0
 11
216.891713
 21
498.711126
 31
0.0
  0
LINE
  8
0
  6
CONTINUOUS
 62
     7
  5
94B
 10
239.041713
 20
496.111126
 30
0.0
 11
239.041713
 21
498.711126
 31
0.0
  0
LINE
  8
0
  6
CONTINUOUS
 62
     7
  5
94C
 10
225.241713
 20
496.111126
 30
0.0
 11
225.241713
 21
493.111126
 31
0.0
  0
LINE
  8
0
  6
CONTINUOUS
 62
     7
  5
94D
 10
225.241713
 20
452.111126
 30
0.0
 11
216.891713
 21
452.111126
 31
0.0
  0
LINE
  8
0
  6
CONTINUOUS
 62
     7
  5
94E
 10
247.391713
 20
452.111126
 30
0.0
 11
247.391713
 21
455.111126
 31
0.0
  0
LINE
  8
0
  6
CONTINUOUS
 62
     7
  5
94F
 10
239.041713
 20
452.111126
 30
0.0
 11
247.391713
 21
452.111126
 31
0.0
  0
LINE
  8
0
  6
CONTINUOUS
 62
     7
  5
950
 10
247.391713
 20
455.111126
 30
0.0
 11
225.241713
 21
455.111126
 31
0.0
  0
LINE
  8
0
  6
CONTINUOUS
 62
     7
  5
951
 10
216.891713
 20
449.511126
 30
0.0
 11
239.041713
 21
449.511126
 31
0.0
  0
LINE
  8
0
  6
CONTINUOUS
 62
     7
  5
952
 10
216.891713
 20
449.511126
 30
0.0
 11
216.891713
 21
452.111126
 31
0.0
  0
LINE
  8
0
  6
CONTINUOUS
 62
     7
  5
953
 10
225.241713
 20
455.111126
 30
0.0
 11
225.241713
 21
452.111126
 31
0.0
  0
LINE
  8
0
  6
CONTINUOUS
 62
     7
  5
954
 10
239.041713
 20
449.511126
 30
0.0
 11
239.041713
 21
452.111126
 31
0.0
  0
LINE
  8
0
  6
CONTINUOUS
 62
     7
  5
955
 10
247.391713
 20
493.111126
 30
0.0
 11
255.741713
 21
493.111126
 31
0.0
  0
LINE
  8
0
  6
CONTINUOUS
 62
     7
  5
956
 10
255.741713
 20
455.111126
 30
0.0
 11
247.391713
 21
455.111126
 31
0.0
  0
LINE
  8
0
  6
CONTINUOUS
 62
     7
  5
957
 10
238.641713
 20
493.111126
 30
0.0
 11
238.641713
 21
455.111126
 31
0.0
  0
LINE
  8
0
  6
CONTINUOUS
 62
     7
  5
958
 10
225.641713
 20
493.111126
 30
0.0
 11
225.641713
 21
455.111126
 31
0.0
  0
LINE
  8
0
  6
CONTINUOUS
 62
     7
  5
959
 10
210.891713
 20
499.111126
 30
0.0
 11
204.391713
 21
499.111126
 31
0.0
  0
LINE
  8
0
  6
CONTINUOUS
 62
     7
  5
95A
 10
210.891713
 20
498.711126
 30
0.0
 11
210.891713
 21
499.111126
 31
0.0
  0
LINE
  8
0
  6
CONTINUOUS
 62
     7
  5
95B
 10
216.891713
 20
498.711126
 30
0.0
 11
210.891713
 21
498.711126
 31
0.0
  0
LINE
  8
0
  6
CONTINUOUS
 62
     7
  5
95C
 10
210.891713
 20
449.111126
 30
0.0
 11
204.391713
 21
449.111126
 31
0.0
  0
LINE
  8
0
  6
CONTINUOUS
 62
     7
  5
95D
 10
210.891713
 20
449.111126
 30
0.0
 11
210.891713
 21
449.511126
 31
0.0
  0
LINE
  8
0
  6
CONTINUOUS
 62
     7
  5
95E
 10
210.891713
 20
449.511126
 30
0.0
 11
216.891713
 21
449.511126
 31
0.0
  0
LINE
  8
0
  6
CONTINUOUS
 62
     7
  5
95F
 10
242.391713
 20
499.111126
 30
0.0
 11
242.391713
 21
498.711126
 31
0.0
  0
LINE
  8
0
  6
CONTINUOUS
 62
     7
  5
960
 10
242.391713
 20
499.111126
 30
0.0
 11
252.391713
 21
499.111126
 31
0.0
  0
LINE
  8
0
  6
CONTINUOUS
 62
     7
  5
961
 10
252.391713
 20
498.711126
 30
0.0
 11
252.391713
 21
499.111126
 31
0.0
  0
LINE
  8
0
  6
CONTINUOUS
 62
     7
  5
962
 10
252.391713
 20
449.111126
 30
0.0
 11
242.391713
 21
449.111126
 31
0.0
  0
LINE
  8
0
  6
CONTINUOUS
 62
     7
  5
963
 10
242.391713
 20
449.511126
 30
0.0
 11
242.391713
 21
449.111126
 31
0.0
  0
LINE
  8
0
  6
CONTINUOUS
 62
     7
  5
964
 10
252.391713
 20
449.111126
 30
0.0
 11
252.391713
 21
449.511126
 31
0.0
  0
LINE
  8
0
  6
CONTINUOUS
 62
     7
  5
965
 10
277.891713
 20
496.111126
 30
0.0
 11
269.541713
 21
496.111126
 31
0.0
  0
LINE
  8
0
  6
CONTINUOUS
 62
     7
  5
966
 10
247.391713
 20
496.111126
 30
0.0
 11
255.741713
 21
496.111126
 31
0.0
  0
LINE
  8
0
  6
CONTINUOUS
 62
     7
  5
967
 10
269.541713
 20
496.111126
 30
0.0
 11
269.541713
 21
498.711126
 31
0.0
  0
LINE
  8
0
  6
CONTINUOUS
 62
     7
  5
968
 10
277.891713
 20
493.111126
 30
0.0
 11
277.891713
 21
496.111126
 31
0.0
  0
LINE
  8
0
  6
CONTINUOUS
 62
     7
  5
969
 10
269.541713
 20
498.711126
 30
0.0
 11
247.391713
 21
498.711126
 31
0.0
  0
LINE
  8
0
  6
CONTINUOUS
 62
     7
  5
96A
 10
247.391713
 20
496.111126
 30
0.0
 11
247.391713
 21
498.711126
 31
0.0
  0
LINE
  8
0
  6
CONTINUOUS
 62
     7
  5
96B
 10
255.741713
 20
493.111126
 30
0.0
 11
277.891713
 21
493.111126
 31
0.0
  0
LINE
  8
0
  6
CONTINUOUS
 62
     7
  5
96C
 10
255.741713
 20
496.111126
 30
0.0
 11
255.741713
 21
493.111126
 31
0.0
  0
LINE
  8
0
  6
CONTINUOUS
 62
     7
  5
96D
 10
277.891713
 20
455.111126
 30
0.0
 11
255.741713
 21
455.111126
 31
0.0
  0
LINE
  8
0
  6
CONTINUOUS
 62
     7
  5
96E
 10
247.391713
 20
449.511126
 30
0.0
 11
269.541713
 21
449.511126
 31
0.0
  0
LINE
  8
0
  6
CONTINUOUS
 62
     7
  5
96F
 10
247.391713
 20
449.511126
 30
0.0
 11
247.391713
 21
452.111126
 31
0.0
  0
LINE
  8
0
  6
CONTINUOUS
 62
     7
  5
970
 10
255.741713
 20
455.111126
 30
0.0
 11
255.741713
 21
452.111126
 31
0.0
  0
LINE
  8
0
  6
CONTINUOUS
 62
     7
  5
971
 10
269.541713
 20
452.111126
 30
0.0
 11
277.891713
 21
452.111126
 31
0.0
  0
LINE
  8
0
  6
CONTINUOUS
 62
     7
  5
972
 10
255.741713
 20
452.111126
 30
0.0
 11
247.391713
 21
452.111126
 31
0.0
  0
LINE
  8
0
  6
CONTINUOUS
 62
     7
  5
973
 10
269.541713
 20
449.511126
 30
0.0
 11
269.541713
 21
452.111126
 31
0.0
  0
LINE
  8
0
  6
CONTINUOUS
 62
     7
  5
974
 10
277.891713
 20
452.111126
 30
0.0
 11
277.891713
 21
455.111126
 31
0.0
  0
LINE
  8
0
  6
CONTINUOUS
 62
     7
  5
975
 10
280.136707
 20
496.111126
 30
0.0
 11
277.891713
 21
496.111126
 31
0.0
  0
LINE
  8
0
  6
CONTINUOUS
 62
     7
  5
976
 10
277.891713
 20
493.111126
 30
0.0
 11
280.136707
 21
493.111126
 31
0.0
  0
LINE
  8
0
  6
CONTINUOUS
 62
     7
  5
977
 10
280.136707
 20
455.111126
 30
0.0
 11
277.891713
 21
455.111126
 31
0.0
  0
LINE
  8
0
  6
CONTINUOUS
 62
     7
  5
978
 10
277.891713
 20
452.111126
 30
0.0
 11
280.136707
 21
452.111126
 31
0.0
  0
LINE
  8
0
  6
CONTINUOUS
 62
     7
  5
979
 10
269.141713
 20
493.111126
 30
0.0
 11
269.141713
 21
455.111126
 31
0.0
  0
LINE
  8
0
  6
CONTINUOUS
 62
     7
  5
97A
 10
256.141713
 20
493.111126
 30
0.0
 11
256.141713
 21
455.111126
 31
0.0
  0
LINE
  8
0
  6
CONTINUOUS
 62
     7
  5
97B
 10
241.391713
 20
499.111126
 30
0.0
 11
234.891713
 21
499.111126
 31
0.0
  0
LINE
  8
0
  6
CONTINUOUS
 62
     7
  5
97C
 10
241.391713
 20
498.711126
 30
0.0
 11
241.391713
 21
499.111126
 31
0.0
  0
LINE
  8
0
  6
CONTINUOUS
 62
     7
  5
97D
 10
247.391713
 20
498.711126
 30
0.0
 11
241.391713
 21
498.711126
 31
0.0
  0
LINE
  8
0
  6
CONTINUOUS
 62
     7
  5
97E
 10
241.391713
 20
449.111126
 30
0.0
 11
234.891713
 21
449.111126
 31
0.0
  0
LINE
  8
0
  6
CONTINUOUS
 62
     7
  5
97F
 10
241.391713
 20
449.111126
 30
0.0
 11
241.391713
 21
449.511126
 31
0.0
  0
LINE
  8
0
  6
CONTINUOUS
 62
     7
  5
980
 10
241.391713
 20
449.511126
 30
0.0
 11
247.391713
 21
449.511126
 31
0.0
  0
LINE
  8
0
  6
CONTINUOUS
 62
     7
  5
981
 10
313.891713
 20
471.011126
 30
0.0
 11
313.891713
 21
457.011126
 31
0.0
  0
LINE
  8
0
  6
CONTINUOUS
 62
     7
  5
982
 10
313.891713
 20
457.011126
 30
0.0
 11
289.891713
 21
457.011126
 31
0.0
  0
LINE
  8
0
  6
CONTINUOUS
 62
     7
  5
983
 10
289.891713
 20
471.011126
 30
0.0
 11
313.891713
 21
471.011126
 31
0.0
  0
LINE
  8
0
  6
CONTINUOUS
 62
     7
  5
984
 10
289.891713
 20
457.011126
 30
0.0
 11
289.891713
 21
471.011126
 31
0.0
  0
LINE
  8
0
  6
CONTINUOUS
 62
     7
  5
985
 10
280.136707
 20
496.111126
 30
0.0
 11
280.136707
 21
493.111126
 31
0.0
  0
LINE
  8
0
  6
CONTINUOUS
 62
     7
  5
986
 10
280.136707
 20
455.111126
 30
0.0
 11
280.136707
 21
452.111126
 31
0.0
  0
LINE
  8
0
  6
CONTINUOUS
 62
     7
  5
987
 10
285.891713
 20
455.111126
 30
0.0
 11
280.136707
 21
455.111126
 31
0.0
  0
LINE
  8
0
  6
CONTINUOUS
 62
     9
  5
988
 10
277.891713
 20
499.111126
 30
0.0
 11
277.891713
 21
496.111126
 31
0.0
  0
LINE
  8
0
  6
CONTINUOUS
 62
     7
  5
989
 10
277.891713
 20
499.111126
 30
0.0
 11
315.891713
 21
499.111126
 31
0.0
  0
LINE
  8
0
  6
CONTINUOUS
 62
     7
  5
98A
 10
315.891713
 20
499.111126
 30
0.0
 11
315.891713
 21
489.111126
 31
0.0
  0
LINE
  8
0
  6
CONTINUOUS
 62
     7
  5
98B
 10
315.891713
 20
459.111126
 30
0.0
 11
317.891713
 21
459.111126
 31
0.0
  0
LINE
  8
0
  6
CONTINUOUS
 62
     7
  5
98C
 10
315.891713
 20
459.111126
 30
0.0
 11
315.891713
 21
449.111126
 31
0.0
  0
LINE
  8
0
  6
CONTINUOUS
 62
     7
  5
98D
 10
277.891713
 20
449.111126
 30
0.0
 11
315.891713
 21
449.111126
 31
0.0
  0
LINE
  8
0
  6
CONTINUOUS
 62
     9
  5
98E
 10
277.891713
 20
452.111126
 30
0.0
 11
277.891713
 21
449.111126
 31
0.0
  0
LINE
  8
0
  6
CONTINUOUS
 62
     7
  5
98F
 10
280.136707
 20
452.111126
 30
0.0
 11
277.891713
 21
452.111126
 31
0.0
  0
LINE
  8
0
  6
CONTINUOUS
 62
     7
  5
990
 10
317.891713
 20
489.111126
 30
0.0
 11
317.891713
 21
459.111126
 31
0.0
  0
LINE
  8
0
  6
CONTINUOUS
 62
     7
  5
991
 10
280.136707
 20
493.111126
 30
0.0
 11
285.891713
 21
493.111126
 31
0.0
  0
LINE
  8
0
  6
CONTINUOUS
 62
     7
  5
992
 10
317.891713
 20
489.111126
 30
0.0
 11
315.891713
 21
489.111126
 31
0.0
  0
LINE
  8
0
  6
CONTINUOUS
 62
     7
  5
993
 10
277.891713
 20
496.111126
 30
0.0
 11
280.136707
 21
496.111126
 31
0.0
  0
LINE
  8
0
  6
CONTINUOUS
 62
     7
  5
994
 10
285.891713
 20
493.111126
 30
0.0
 11
285.891713
 21
455.111126
 31
0.0
  0
LINE
  8
0
  6
CONTINUOUS
 62
     7
  5
995
 10
265.391713
 20
499.111126
 30
0.0
 11
277.891713
 21
499.111126
 31
0.0
  0
LINE
  8
0
  6
CONTINUOUS
 62
     7
  5
996
 10
265.391713
 20
498.711126
 30
0.0
 11
265.391713
 21
499.111126
 31
0.0
  0
LINE
  8
0
  6
CONTINUOUS
 62
     7
  5
997
 10
265.391713
 20
449.111126
 30
0.0
 11
265.391713
 21
449.511126
 31
0.0
  0
LINE
  8
0
  6
CONTINUOUS
 62
     7
  5
998
 10
277.891713
 20
449.111126
 30
0.0
 11
265.391713
 21
449.111126
 31
0.0
  0
LINE
  8
0
  6
CONTINUOUS
 62
     7
  5
999
 10
319.391713
 20
481.111126
 30
0.0
 11
319.391713
 21
483.111126
 31
0.0
  0
LINE
  8
0
  6
CONTINUOUS
 62
     7
  5
99A
 10
332.891713
 20
481.111126
 30
0.0
 11
319.391713
 21
481.111126
 31
0.0
  0
LINE
  8
0
  6
CONTINUOUS
 62
     7
  5
99B
 10
332.891713
 20
481.111126
 30
0.0
 11
332.891713
 21
475.111126
 31
0.0
  0
LINE
  8
0
  6
CONTINUOUS
 62
     7
  5
99C
 10
319.391713
 20
475.111126
 30
0.0
 11
332.891713
 21
475.111126
 31
0.0
  0
LINE
  8
0
  6
CONTINUOUS
 62
     7
  5
99D
 10
319.391713
 20
473.111126
 30
0.0
 11
319.391713
 21
475.111126
 31
0.0
  0
LINE
  8
0
  6
CONTINUOUS
 62
     7
  5
99E
 10
332.891713
 20
473.111126
 30
0.0
 11
319.391713
 21
473.111126
 31
0.0
  0
LINE
  8
0
  6
CONTINUOUS
 62
     7
  5
99F
 10
332.891713
 20
473.111126
 30
0.0
 11
332.891713
 21
467.111126
 31
0.0
  0
LINE
  8
0
  6
CONTINUOUS
 62
     7
  5
9A0
 10
319.391713
 20
467.111126
 30
0.0
 11
332.891713
 21
467.111126
 31
0.0
  0
LINE
  8
0
  6
CONTINUOUS
 62
     7
  5
9A1
 10
319.391713
 20
465.111126
 30
0.0
 11
319.391713
 21
467.111126
 31
0.0
  0
LINE
  8
0
  6
CONTINUOUS
 62
     7
  5
9A2
 10
332.891713
 20
465.111126
 30
0.0
 11
319.391713
 21
465.111126
 31
0.0
  0
LINE
  8
0
  6
CONTINUOUS
 62
     7
  5
9A3
 10
332.891713
 20
465.111126
 30
0.0
 11
332.891713
 21
459.111126
 31
0.0
  0
LINE
  8
0
  6
CONTINUOUS
 62
     7
  5
9A4
 10
319.391713
 20
483.111126
 30
0.0
 11
332.891713
 21
483.111126
 31
0.0
  0
LINE
  8
0
  6
CONTINUOUS
 62
     7
  5
9A5
 10
332.891713
 20
489.111126
 30
0.0
 11
332.891713
 21
483.111126
 31
0.0
  0
LINE
  8
0
  6
CONTINUOUS
 62
     7
  5
9A6
 10
317.891713
 20
459.111126
 30
0.0
 11
332.891713
 21
459.111126
 31
0.0
  0
LINE
  8
0
  6
CONTINUOUS
 62
     7
  5
9A7
 10
332.891713
 20
489.111126
 30
0.0
 11
317.891713
 21
489.111126
 31
0.0
  0
LINE
  8
0
  6
CONTINUOUS
 62
     7
  5
9A8
 10
308.891713
 20
385.111126
 30
0.0
 11
293.891713
 21
385.111126
 31
0.0
  0
LINE
  8
0
  6
CONTINUOUS
 62
     7
  5
9A9
 10
293.891713
 20
390.111126
 30
0.0
 11
308.891713
 21
390.111126
 31
0.0
  0
LINE
  8
0
  6
CONTINUOUS
 62
     7
  5
9AA
 10
293.891713
 20
385.111126
 30
0.0
 11
293.891713
 21
390.111126
 31
0.0
  0
LINE
  8
0
  6
CONTINUOUS
 62
     7
  5
9AB
 10
308.891713
 20
390.111126
 30
0.0
 11
308.891713
 21
385.111126
 31
0.0
  0
LINE
  8
0
  6
CONTINUOUS
 62
     7
  5
9AC
 10
296.391713
 20
379.111126
 30
0.0
 11
306.391713
 21
379.111126
 31
0.0
  0
LINE
  8
0
  6
CONTINUOUS
 62
     7
  5
9AD
 10
304.391713
 20
396.611126
 30
0.0
 11
298.391713
 21
396.611126
 31
0.0
  0
LINE
  8
0
  6
CONTINUOUS
 62
     7
  5
9AE
 10
298.891713
 20
397.111126
 30
0.0
 11
303.891713
 21
397.111126
 31
0.0
  0
LINE
  8
0
  6
CONTINUOUS
 62
     9
  5
9AF
 10
293.891713
 20
392.111126
 30
0.0
 11
298.391713
 21
392.111126
 31
0.0
  0
LINE
  8
0
  6
CONTINUOUS
 62
     9
  5
9B0
 10
304.391713
 20
392.111126
 30
0.0
 11
308.891713
 21
392.111126
 31
0.0
  0
LINE
  8
0
  6
CONTINUOUS
 62
     7
  5
9B1
 10
293.891713
 20
392.111126
 30
0.0
 11
293.891713
 21
390.111126
 31
0.0
  0
LINE
  8
0
  6
CONTINUOUS
 62
     7
  5
9B2
 10
308.891713
 20
390.111126
 30
0.0
 11
308.891713
 21
392.111126
 31
0.0
  0
LINE
  8
0
  6
CONTINUOUS
 62
     7
  5
9B3
 10
293.891713
 20
392.111126
 30
0.0
 11
293.891713
 21
449.111126
 31
0.0
  0
LINE
  8
0
  6
CONTINUOUS
 62
     7
  5
9B4
 10
308.891713
 20
392.111126
 30
0.0
 11
308.891713
 21
449.111126
 31
0.0
  0
LINE
  8
0
  6
CONTINUOUS
 62
     7
  5
9B5
 10
259.891713
 20
498.711126
 30
0.0
 11
259.891713
 21
499.111126
 31
0.0
  0
LINE
  8
0
  6
CONTINUOUS
 62
     7
  5
9B6
 10
259.891713
 20
449.111126
 30
0.0
 11
259.891713
 21
449.511126
 31
0.0
  0
LINE
  8
0
  6
CONTINUOUS
 62
     7
  5
9B7
 10
229.391713
 20
449.111126
 30
0.0
 11
229.391713
 21
449.511126
 31
0.0
  0
LINE
  8
0
  6
CONTINUOUS
 62
     7
  5
9B8
 10
229.391713
 20
498.711126
 30
0.0
 11
229.391713
 21
499.111126
 31
0.0
  0
LINE
  8
0
  6
CONTINUOUS
 62
     7
  5
9B9
 10
198.891713
 20
449.111126
 30
0.0
 11
198.891713
 21
449.511126
 31
0.0
  0
LINE
  8
0
  6
CONTINUOUS
 62
     7
  5
9BA
 10
198.891713
 20
498.711126
 30
0.0
 11
198.891713
 21
499.111126
 31
0.0
  0
LINE
  8
0
  6
CONTINUOUS
 62
     7
  5
9BB
 10
160.89235
 20
449.111126
 30
0.0
 11
160.89235
 21
449.511126
 31
0.0
  0
LINE
  8
0
  6
CONTINUOUS
 62
     7
  5
9BC
 10
160.89235
 20
498.711126
 30
0.0
 11
160.89235
 21
499.111126
 31
0.0
  0
LINE
  8
0
  6
CONTINUOUS
 62
     7
  5
9BD
 10
122.737213
 20
499.111126
 30
0.0
 11
122.737213
 21
498.711126
 31
0.0
  0
LINE
  8
0
  6
CONTINUOUS
 62
     7
  5
9BE
 10
122.737213
 20
449.511126
 30
0.0
 11
122.737213
 21
449.111126
 31
0.0
  0
LINE
  8
0
  6
CONTINUOUS
 62
     7
  5
9BF
 10
132.737213
 20
498.711126
 30
0.0
 11
132.737213
 21
499.111126
 31
0.0
  0
LINE
  8
0
  6
CONTINUOUS
 62
     7
  5
9C0
 10
132.737213
 20
449.111126
 30
0.0
 11
132.737213
 21
449.511126
 31
0.0
  0
LINE
  8
0
  6
CONTINUOUS
 62
     7
  5
9C1
 10
92.870644
 20
499.111126
 30
0.0
 11
92.870644
 21
496.111126
 31
0.0
  0
LINE
  8
0
  6
CONTINUOUS
 62
     7
  5
9C2
 10
92.870644
 20
452.111126
 30
0.0
 11
92.870644
 21
449.111126
 31
0.0
  0
LINE
  8
0
  6
CONTINUOUS
 62
     7
  5
9C3
 10
100.370644
 20
499.111126
 30
0.0
 11
100.370644
 21
498.711126
 31
0.0
  0
LINE
  8
0
  6
CONTINUOUS
 62
     7
  5
9C4
 10
100.370644
 20
449.511126
 30
0.0
 11
100.370644
 21
449.111126
 31
0.0
  0
LINE
  8
0
  6
CONTINUOUS
 62
     7
  5
9C5
 10
110.370644
 20
498.711126
 30
0.0
 11
110.370644
 21
499.111126
 31
0.0
  0
LINE
  8
0
  6
CONTINUOUS
 62
     7
  5
9C6
 10
110.370644
 20
449.111126
 30
0.0
 11
110.370644
 21
449.511126
 31
0.0
  0
LINE
  8
0
  6
CONTINUOUS
 62
     7
  5
9C7
 10
80.610067
 20
498.711126
 30
0.0
 11
80.610067
 21
496.111126
 31
0.0
  0
LINE
  8
0
  6
CONTINUOUS
 62
     7
  5
9C8
 10
80.610067
 20
452.111126
 30
0.0
 11
80.610067
 21
449.511126
 31
0.0
  0
LINE
  8
0
  6
CONTINUOUS
 62
     7
  5
9C9
 10
88.110067
 20
499.111126
 30
0.0
 11
88.110067
 21
498.711126
 31
0.0
  0
LINE
  8
0
  6
CONTINUOUS
 62
     7
  5
9CA
 10
88.110067
 20
449.511126
 30
0.0
 11
88.110067
 21
449.111126
 31
0.0
  0
LINE
  8
0
  6
CONTINUOUS
 62
     7
  5
9CB
 10
139.703933
 20
498.711126
 30
0.0
 11
139.703933
 21
499.111126
 31
0.0
  0
LINE
  8
0
  6
CONTINUOUS
 62
     7
  5
9CC
 10
139.703933
 20
449.111126
 30
0.0
 11
139.703933
 21
449.511126
 31
0.0
  0
LINE
  8
0
  6
CONTINUOUS
 62
     7
  5
9CD
 10
168.39235
 20
498.711126
 30
0.0
 11
168.39235
 21
499.111126
 31
0.0
  0
LINE
  8
0
  6
CONTINUOUS
 62
     7
  5
9CE
 10
168.39235
 20
449.111126
 30
0.0
 11
168.39235
 21
449.511126
 31
0.0
  0
LINE
  8
0
  6
CONTINUOUS
 62
     7
  5
9CF
 10
150.891713
 20
499.111126
 30
0.0
 11
150.891713
 21
498.711126
 31
0.0
  0
LINE
  8
0
  6
CONTINUOUS
 62
     7
  5
9D0
 10
150.891713
 20
449.511126
 30
0.0
 11
150.891713
 21
449.111126
 31
0.0
  0
LINE
  8
0
  6
CONTINUOUS
 62
     7
  5
9D1
 10
160.891713
 20
498.711126
 30
0.0
 11
160.891713
 21
499.111126
 31
0.0
  0
LINE
  8
0
  6
CONTINUOUS
 62
     7
  5
9D2
 10
160.891713
 20
449.111126
 30
0.0
 11
160.891713
 21
449.511126
 31
0.0
  0
LINE
  8
0
  6
CONTINUOUS
 62
     7
  5
9D3
 10
115.237213
 20
499.111126
 30
0.0
 11
115.237213
 21
496.111126
 31
0.0
  0
LINE
  8
0
  6
CONTINUOUS
 62
     7
  5
9D4
 10
115.237213
 20
452.111126
 30
0.0
 11
115.237213
 21
449.111126
 31
0.0
  0
LINE
  8
0
  6
CONTINUOUS
 62
     7
  5
9D5
 10
143.391713
 20
499.111126
 30
0.0
 11
143.391713
 21
498.711126
 31
0.0
  0
LINE
  8
0
  6
CONTINUOUS
 62
     7
  5
9D6
 10
143.391713
 20
449.511126
 30
0.0
 11
143.391713
 21
449.111126
 31
0.0
  0
LINE
  8
0
  6
CONTINUOUS
 62
     7
  5
9D7
 10
173.891713
 20
499.111126
 30
0.0
 11
173.891713
 21
498.711126
 31
0.0
  0
LINE
  8
0
  6
CONTINUOUS
 62
     7
  5
9D8
 10
173.891713
 20
449.511126
 30
0.0
 11
173.891713
 21
449.111126
 31
0.0
  0
LINE
  8
0
  6
CONTINUOUS
 62
     7
  5
9D9
 10
204.391713
 20
499.111126
 30
0.0
 11
204.391713
 21
498.711126
 31
0.0
  0
LINE
  8
0
  6
CONTINUOUS
 62
     7
  5
9DA
 10
204.391713
 20
449.511126
 30
0.0
 11
204.391713
 21
449.111126
 31
0.0
  0
LINE
  8
0
  6
CONTINUOUS
 62
     7
  5
9DB
 10
234.891713
 20
499.111126
 30
0.0
 11
234.891713
 21
498.711126
 31
0.0
  0
LINE
  8
0
  6
CONTINUOUS
 62
     7
  5
9DC
 10
234.891713
 20
449.511126
 30
0.0
 11
234.891713
 21
449.111126
 31
0.0
  0
LINE
  8
0
  6
CONTINUOUS
 62
     7
  5
9DD
 10
296.391713
 20
385.111126
 30
0.0
 11
296.391713
 21
379.111126
 31
0.0
  0
LINE
  8
0
  6
CONTINUOUS
 62
     7
  5
9DE
 10
306.391713
 20
379.111126
 30
0.0
 11
306.391713
 21
385.111126
 31
0.0
  0
LINE
  8
0
  6
CONTINUOUS
 62
     7
  5
9DF
 10
304.391713
 20
390.111126
 30
0.0
 11
304.391713
 21
396.611126
 31
0.0
  0
LINE
  8
0
  6
CONTINUOUS
 62
     7
  5
9E0
 10
298.391713
 20
396.611126
 30
0.0
 11
298.391713
 21
390.111126
 31
0.0
  0
LINE
  8
0
  6
CONTINUOUS
 62
     7
  5
9E1
 10
304.391713
 20
396.611126
 30
0.0
 11
303.891713
 21
397.111126
 31
0.0
  0
LINE
  8
0
  6
CONTINUOUS
 62
     7
  5
9E2
 10
298.891713
 20
397.111126
 30
0.0
 11
298.391713
 21
396.611126
 31
0.0
  0
ENDBLK
  8
0
  5
9E3
  0
ENDSEC
  0
SECTION
  2
ENTITIES
  0
INSERT
  8
0
  5
150
  2
AID3
 10
0.0
 20
0.0
 30
0.0
  0
INSERT
  8
0
  5
3BA
  2
AID601
 10
0.0
 20
0.0
 30
0.0
  0
INSERT
  8
0
  5
5ED
  2
AID1833
 10
0.0
 20
0.0
 30
0.0
  0
INSERT
  8
0
  5
7E5
  2
AID2955
 10
0.0
 20
0.0
 30
0.0
  0
INSERT
  8
0
  5
9E4
  2
AID3959
 10
0.0
 20
0.0
 30
0.0
  0
ENDSEC
  0
EOF
