  0
SECTION
  2
HEADER
  9
$ACADVER
  1
AC1009
  9
$DWGCODEPAGE
  3
ansi_1252
  9
$INSBASE
 10
0.0
 20
0.0
 30
0.0
  9
$EXTMIN
 10
0.0
 20
-70.488783
 30
0.0
  9
$EXTMAX
 10
364.126844
 20
488.612201
 30
5.0
  9
$LIMMIN
 10
0.0
 20
-70.488783
  9
$LIMMAX
 10
364.126844
 20
488.612201
  9
$ORTHOMODE
 70
     0
  9
$REGENMODE
 70
     1
  9
$FILLMODE
 70
     1
  9
$QTEXTMODE
 70
     0
  9
$MIRRTEXT
 70
     1
  9
$DRAGMODE
 70
     2
  9
$LTSCALE
 40
10.0
  9
$OSMODE
 70
     0
  9
$ATTMODE
 70
     1
  9
$TEXTSIZE
 40
0.2
  9
$TRACEWID
 40
0.05
  9
$TEXTSTYLE
  7
STANDARD
  9
$CLAYER
  8
0
  9
$CELTYPE
  6
CONTINUOUS
  9
$CECOLOR
 62
   256
  9
$DIMSCALE
 40
1.0
  9
$DIMASZ
 40
1.25
  9
$DIMEXO
 40
1.0
  9
$DIMDLI
 40
0.38
  9
$DIMRND
 40
0.0
  9
$DIMDLE
 40
0.0
  9
$DIMEXE
 40
0.75
  9
$DIMTP
 40
0.0
  9
$DIMTM
 40
0.0
  9
$DIMTXT
 40
2.5
  9
$DIMCEN
 40
0.09
  9
$DIMTSZ
 40
0.0
  9
$DIMTOL
 70
     0
  9
$DIMLIM
 70
     0
  9
$DIMTIH
 70
     0
  9
$DIMTOH
 70
     0
  9
$DIMSE1
 70
     0
  9
$DIMSE2
 70
     0
  9
$DIMTAD
 70
     1
  9
$DIMZIN
 70
     0
  9
$DIMBLK
  1

  9
$DIMASO
 70
     1
  9
$DIMSHO
 70
     1
  9
$DIMPOST
  1

  9
$DIMAPOST
  1

  9
$DIMALT
 70
     0
  9
$DIMALTD
 70
     2
  9
$DIMALTF
 40
25.4
  9
$DIMLFAC
 40
1.0
  9
$DIMTOFL
 70
     0
  9
$DIMTVP
 40
0.0
  9
$DIMTIX
 70
     0
  9
$DIMSOXD
 70
     0
  9
$DIMSAH
 70
     0
  9
$DIMBLK1
  1

  9
$DIMBLK2
  1

  9
$DIMSTYLE
  2
STANDARD
  9
$DIMCLRD
 70
     7
  9
$DIMCLRE
 70
     7
  9
$DIMCLRT
 70
     7
  9
$DIMTFAC
 40
0.8
  9
$DIMGAP
 40
1.25
  9
$LUNITS
 70
     2
  9
$LUPREC
 70
     4
  9
$AXISMODE
 70
     0
  9
$AXISUNIT
 10
0.0
 20
0.0
  9
$SKETCHINC
 40
0.1
  9
$FILLETRAD
 40
0.0
  9
$AUNITS
 70
     0
  9
$AUPREC
 70
     0
  9
$MENU
  1
acad
  9
$ELEVATION
 40
0.0
  9
$PELEVATION
 40
0.0
  9
$THICKNESS
 40
0.0
  9
$LIMCHECK
 70
     0
  9
$BLIPMODE
 70
     1
  9
$CHAMFERA
 40
0.0
  9
$CHAMFERB
 40
0.0
  9
$SKPOLY
 70
     0
  9
$TDCREATE
 40
2456177.415636574
  9
$TDUPDATE
 40
2456177.331886574
  9
$TDINDWG
 40
0.0000000000
  9
$TDUSRTIMER
 40
0.0000000000
  9
$USRTIMER
 70
     1
  9
$ANGBASE
 50
0.0
  9
$ANGDIR
 70
     0
  9
$PDMODE
 70
     0
  9
$PDSIZE
 40
0.0
  9
$PLINEWID
 40
0.0
  9
$COORDS
 70
     0
  9
$SPLFRAME
 70
     0
  9
$SPLINETYPE
 70
     6
  9
$SPLINESEGS
 70
     8
  9
$ATTDIA
 70
     0
  9
$ATTREQ
 70
     1
  9
$HANDLING
 70
     1
  9
$HANDSEED
  5
145
  9
$SURFTAB1
 70
     6
  9
$SURFTAB2
 70
     6
  9
$SURFTYPE
 70
     6
  9
$SURFU
 70
     6
  9
$SURFV
 70
     6
  9
$UCSNAME
  2

  9
$UCSORG
 10
0.0
 20
0.0
 30
0.0
  9
$UCSXDIR
 10
1.0
 20
0.0
 30
0.0
  9
$UCSYDIR
 10
0.0
 20
1.0
 30
0.0
  9
$PUCSNAME
  2

  9
$PUCSORG
 10
0.0
 20
0.0
 30
0.0
  9
$PUCSXDIR
 10
1.0
 20
0.0
 30
0.0
  9
$PUCSYDIR
 10
0.0
 20
1.0
 30
0.0
  9
$USERI1
 70
     0
  9
$USERI2
 70
     0
  9
$USERI3
 70
     0
  9
$USERI4
 70
     0
  9
$USERI5
 70
     0
  9
$USERR1
 40
0.0
  9
$USERR2
 40
0.0
  9
$USERR3
 40
0.0
  9
$USERR4
 40
0.0
  9
$USERR5
 40
0.0
  9
$WORLDVIEW
 70
     1
  9
$SHADEDGE
 70
     3
  9
$SHADEDIF
 70
    70
  9
$TILEMODE
 70
     1
  9
$MAXACTVP
 70
    16
  9
$PINSBASE
 10
0.0
 20
0.0
 30
0.0
  9
$PLIMCHECK
 70
     0
  9
$PEXTMIN
 10
1.000000E+20
 20
1.000000E+20
 30
1.000000E+20
  9
$PEXTMAX
 10
-1.000000E+20
 20
-1.000000E+20
 30
-1.000000E+20
  9
$PLIMMIN
 10
0.0
 20
0.0
  9
$PLIMMAX
 10
12.0
 20
9.0
  9
$UNITMODE
 70
     0
  9
$VISRETAIN
 70
     0
  9
$PLINEGEN
 70
     1
  9
$PSLTSCALE
 70
     0
  9
$TREEDEPTH
 70
  3020
  0
ENDSEC
  0
SECTION
  2
TABLES
  0
TABLE
  2
VPORT
 70
     1
  0
VPORT
  2
*ACTIVE
 70
     0
 10
0.0
 20
0.0
 11
1.0
 21
1.0
 12
6.591288
 22
4.579184
 13
0.0
 23
0.0
 14
1.0
 24
1.0
 15
0.0
 25
0.0
 16
0.0
 26
0.0
 36
1.0
 17
0.0
 27
0.0
 37
0.0
 40
9.158369
 41
0.688564
 42
50.0
 43
0.0
 44
0.0
 50
0.0
 51
0.0
 71
     0
 72
   100
 73
     1
 74
     1
 75
     0
 76
     0
 77
     0
 78
     0
  0
ENDTAB
  0
TABLE
  2
LTYPE
 70
     2
  0
LTYPE
  2
CONTINUOUS
 70
    64
  3
Solid line
 72
    65
 73
     0
 40
0.0
  0
LTYPE
  2
CENTER
 70
    64
  3
____ _ ____ _ ____ _ ____ _ ____ _ ____ _ ____
 72
    65
 73
     4
 40
2.0
 49
1.25
 49
-0.25
 49
0.25
 49
-0.25
  0
ENDTAB
  0
TABLE
  2
LAYER
 70
     1
  0
LAYER
  2
0
 70
     0
 62
     7
  6
CONTINUOUS
  0
ENDTAB
  0
TABLE
  2
STYLE
 70
     1
  0
STYLE
  2
STANDARD
 70
     0
 40
0.0
 41
1.0
 50
0.0
 71
     0
 42
0.0
  3
IsonormD
  4

  0
ENDTAB
  0
TABLE
  2
VIEW
 70
     0
  0
ENDTAB
  0
TABLE
  2
UCS
 70
     0
  0
ENDTAB
  0
TABLE
  2
APPID
 70
     2
  0
APPID
  2
ACAD
 70
     0
  0
APPID
  2
TopSolid_Draft
 70
     0
  0
ENDTAB
  0
TABLE
  2
DIMSTYLE
 70
     1
  0
DIMSTYLE
  2
STANDARD
 70
     0
  3

  4

  5

  6

  7

 40
1.0
 41
1.25
 42
1.0
 43
0.38
 44
0.75
 45
0.0
 46
0.0
 47
0.0
 48
0.0
 71
     0
 72
     0
 73
     0
 74
     0
 75
     0
 76
     0
 77
     1
 78
     0
140
2.5
141
0.09
142
0.0
143
25.4
144
1.0
145
0.0
146
0.8
147
1.25
170
     0
171
     2
172
     0
173
     0
174
     0
175
     0
176
     7
177
     7
178
     7
  0
ENDTAB
  0
ENDSEC
  0
SECTION
  2
BLOCKS
  0
BLOCK
  8
0
  5
25
  2
AID3
 70
     0
 10
0.0
 20
0.0
 30
0.0
  3
#draft view
  0
LINE
  8
0
  6
CONTINUOUS
 62
     7
  5
26
 10
268.626844
 20
330.011217
 30
0.0
 11
295.626844
 21
330.011217
 31
0.0
  0
LINE
  8
0
  6
CONTINUOUS
 62
     7
  5
27
 10
268.626844
 20
345.011217
 30
0.0
 11
295.626844
 21
345.011217
 31
0.0
  0
LINE
  8
0
  6
CONTINUOUS
 62
     7
  5
28
 10
282.126844
 20
350.311217
 30
0.0
 11
282.126844
 21
345.011217
 31
0.0
  0
LINE
  8
0
  6
CONTINUOUS
 62
     7
  5
29
 10
288.626844
 20
350.311217
 30
0.0
 11
288.626844
 21
345.011217
 31
0.0
  0
LINE
  8
0
  6
CONTINUOUS
 62
     7
  5
2A
 10
282.126844
 20
350.311217
 30
0.0
 11
288.626844
 21
350.311217
 31
0.0
  0
LINE
  8
0
  6
CONTINUOUS
 62
     7
  5
2B
 10
275.626844
 20
350.311217
 30
0.0
 11
275.626844
 21
345.011217
 31
0.0
  0
LINE
  8
0
  6
CONTINUOUS
 62
     7
  5
2C
 10
275.626844
 20
350.311217
 30
0.0
 11
282.126844
 21
350.311217
 31
0.0
  0
LINE
  8
0
  6
CONTINUOUS
 62
     7
  5
2D
 10
278.126844
 20
329.636217
 30
0.0
 11
286.126844
 21
329.636217
 31
0.0
  0
LINE
  8
0
  6
CONTINUOUS
 62
     7
  5
2E
 10
285.501844
 20
329.011217
 30
0.0
 11
278.751844
 21
329.011217
 31
0.0
  0
LINE
  8
0
  6
CONTINUOUS
 62
     7
  5
2F
 10
340.126844
 20
-61.488783
 30
0.0
 11
224.126844
 21
-61.488783
 31
0.0
  0
LINE
  8
0
  6
CONTINUOUS
 62
     7
  5
30
 10
340.126844
 20
-70.488783
 30
0.0
 11
224.126844
 21
-70.488783
 31
0.0
  0
LINE
  8
0
  6
CONTINUOUS
 62
     7
  5
31
 10
224.126844
 20
-61.488783
 30
0.0
 11
224.126844
 21
-70.488783
 31
0.0
  0
LINE
  8
0
  6
CONTINUOUS
 62
     7
  5
32
 10
340.126844
 20
-61.488783
 30
0.0
 11
340.126844
 21
-70.488783
 31
0.0
  0
LINE
  8
0
  6
CONTINUOUS
 62
     7
  5
33
 10
268.626844
 20
-55.988783
 30
0.0
 11
295.626844
 21
-55.988783
 31
0.0
  0
LINE
  8
0
  6
CONTINUOUS
 62
     7
  5
34
 10
241.626844
 20
137.311217
 30
0.0
 11
229.626844
 21
137.311217
 31
0.0
  0
LINE
  8
0
  6
CONTINUOUS
 62
     7
  5
35
 10
322.626844
 20
137.311217
 30
0.0
 11
334.626844
 21
137.311217
 31
0.0
  0
LINE
  8
0
  6
CONTINUOUS
 62
     7
  5
36
 10
334.080889
 20
138.811217
 30
0.0
 11
323.1728
 21
138.811217
 31
0.0
  0
LINE
  8
0
  6
CONTINUOUS
 62
     7
  5
37
 10
230.1728
 20
138.811217
 30
0.0
 11
241.080889
 21
138.811217
 31
0.0
  0
LINE
  8
0
  6
CONTINUOUS
 62
     7
  5
38
 10
364.126844
 20
-30.188783
 30
0.0
 11
200.126844
 21
-30.188783
 31
0.0
  0
LINE
  8
0
  6
CONTINUOUS
 62
     7
  5
39
 10
200.126844
 20
-30.188783
 30
0.0
 11
200.126844
 21
-40.988783
 31
0.0
  0
LINE
  8
0
  6
CONTINUOUS
 62
     7
  5
3A
 10
364.126844
 20
-40.988783
 30
0.0
 11
200.126844
 21
-40.988783
 31
0.0
  0
LINE
  8
0
  6
CONTINUOUS
 62
     7
  5
3B
 10
364.126844
 20
-30.188783
 30
0.0
 11
364.126844
 21
-40.988783
 31
0.0
  0
LINE
  8
0
  6
CONTINUOUS
 62
     7
  5
3C
 10
347.126844
 20
-10.188783
 30
0.0
 11
310.126844
 21
-10.188783
 31
0.0
  0
LINE
  8
0
  6
CONTINUOUS
 62
     7
  5
3D
 10
217.126844
 20
-10.188783
 30
0.0
 11
254.126844
 21
-10.188783
 31
0.0
  0
LINE
  8
0
  6
CONTINUOUS
 62
     7
  5
3E
 10
220.626844
 20
-6.688783
 30
0.0
 11
250.626844
 21
-6.688783
 31
0.0
  0
LINE
  8
0
  6
CONTINUOUS
 62
     7
  5
3F
 10
343.626844
 20
-6.688783
 30
0.0
 11
313.626844
 21
-6.688783
 31
0.0
  0
LINE
  8
0
  6
CONTINUOUS
 62
     7
  5
40
 10
268.691815
 20
-44.488783
 30
0.0
 11
268.691815
 21
-40.988783
 31
0.0
  0
LINE
  8
0
  6
CONTINUOUS
 62
     7
  5
41
 10
268.691815
 20
-44.488783
 30
0.0
 11
264.691815
 21
-44.488783
 31
0.0
  0
LINE
  8
0
  6
CONTINUOUS
 62
     7
  5
42
 10
264.691815
 20
-44.488783
 30
0.0
 11
264.691815
 21
-40.988783
 31
0.0
  0
LINE
  8
0
  6
CONTINUOUS
 62
     7
  5
43
 10
272.691815
 20
-44.488783
 30
0.0
 11
272.691815
 21
-40.988783
 31
0.0
  0
LINE
  8
0
  6
CONTINUOUS
 62
     7
  5
44
 10
272.691815
 20
-44.488783
 30
0.0
 11
268.691815
 21
-44.488783
 31
0.0
  0
LINE
  8
0
  6
CONTINUOUS
 62
     7
  5
45
 10
299.561873
 20
-44.488783
 30
0.0
 11
299.561873
 21
-40.988783
 31
0.0
  0
LINE
  8
0
  6
CONTINUOUS
 62
     7
  5
46
 10
299.561873
 20
-44.488783
 30
0.0
 11
295.561873
 21
-44.488783
 31
0.0
  0
LINE
  8
0
  6
CONTINUOUS
 62
     7
  5
47
 10
295.561873
 20
-44.488783
 30
0.0
 11
295.561873
 21
-40.988783
 31
0.0
  0
LINE
  8
0
  6
CONTINUOUS
 62
     7
  5
48
 10
291.561873
 20
-44.488783
 30
0.0
 11
291.561873
 21
-40.988783
 31
0.0
  0
LINE
  8
0
  6
CONTINUOUS
 62
     7
  5
49
 10
295.561873
 20
-44.488783
 30
0.0
 11
291.561873
 21
-44.488783
 31
0.0
  0
LINE
  8
0
  6
CONTINUOUS
 62
     7
  5
4A
 10
298.061873
 20
-21.388783
 30
0.0
 11
293.061873
 21
-21.388783
 31
0.0
  0
LINE
  8
0
  6
CONTINUOUS
 62
     7
  5
4B
 10
271.191815
 20
-21.388783
 30
0.0
 11
266.191815
 21
-21.388783
 31
0.0
  0
LINE
  8
0
  6
CONTINUOUS
 62
     7
  5
4C
 10
266.591815
 20
-20.988783
 30
0.0
 11
270.791815
 21
-20.988783
 31
0.0
  0
LINE
  8
0
  6
CONTINUOUS
 62
     7
  5
4D
 10
293.461873
 20
-20.988783
 30
0.0
 11
297.661873
 21
-20.988783
 31
0.0
  0
LINE
  8
0
  6
CONTINUOUS
 62
     9
  5
4E
 10
313.626844
 20
42.811217
 30
0.0
 11
343.626844
 21
42.811217
 31
0.0
  0
LINE
  8
0
  6
CONTINUOUS
 62
     9
  5
4F
 10
250.626844
 20
42.811217
 30
0.0
 11
220.626844
 21
42.811217
 31
0.0
  0
LINE
  8
0
  6
CONTINUOUS
 62
     7
  5
50
 10
222.626844
 20
44.811217
 30
0.0
 11
248.626844
 21
44.811217
 31
0.0
  0
LINE
  8
0
  6
CONTINUOUS
 62
     7
  5
51
 10
341.626844
 20
44.811217
 30
0.0
 11
315.626844
 21
44.811217
 31
0.0
  0
LINE
  8
0
  6
CONTINUOUS
 62
     7
  5
52
 10
271.191815
 20
-29.488783
 30
0.0
 11
293.061873
 21
-29.488783
 31
0.0
  0
LINE
  8
0
  6
CONTINUOUS
 62
     7
  5
53
 10
225.373796
 20
-44.488783
 30
0.0
 11
225.373796
 21
-40.988783
 31
0.0
  0
LINE
  8
0
  6
CONTINUOUS
 62
     7
  5
54
 10
225.373796
 20
-44.488783
 30
0.0
 11
221.373796
 21
-44.488783
 31
0.0
  0
LINE
  8
0
  6
CONTINUOUS
 62
     7
  5
55
 10
221.373796
 20
-44.488783
 30
0.0
 11
221.373796
 21
-40.988783
 31
0.0
  0
LINE
  8
0
  6
CONTINUOUS
 62
     7
  5
56
 10
338.879893
 20
-44.488783
 30
0.0
 11
338.879893
 21
-40.988783
 31
0.0
  0
LINE
  8
0
  6
CONTINUOUS
 62
     7
  5
57
 10
338.879893
 20
-44.488783
 30
0.0
 11
334.879893
 21
-44.488783
 31
0.0
  0
LINE
  8
0
  6
CONTINUOUS
 62
     7
  5
58
 10
334.879893
 20
-44.488783
 30
0.0
 11
334.879893
 21
-40.988783
 31
0.0
  0
LINE
  8
0
  6
CONTINUOUS
 62
     7
  5
59
 10
229.373796
 20
-44.488783
 30
0.0
 11
229.373796
 21
-40.988783
 31
0.0
  0
LINE
  8
0
  6
CONTINUOUS
 62
     7
  5
5A
 10
229.373796
 20
-44.488783
 30
0.0
 11
225.373796
 21
-44.488783
 31
0.0
  0
LINE
  8
0
  6
CONTINUOUS
 62
     7
  5
5B
 10
342.879893
 20
-44.488783
 30
0.0
 11
342.879893
 21
-40.988783
 31
0.0
  0
LINE
  8
0
  6
CONTINUOUS
 62
     7
  5
5C
 10
342.879893
 20
-44.488783
 30
0.0
 11
338.879893
 21
-44.488783
 31
0.0
  0
LINE
  8
0
  6
CONTINUOUS
 62
     7
  5
5D
 10
245.879893
 20
-44.488783
 30
0.0
 11
245.879893
 21
-40.988783
 31
0.0
  0
LINE
  8
0
  6
CONTINUOUS
 62
     7
  5
5E
 10
241.879893
 20
-44.488783
 30
0.0
 11
241.879893
 21
-40.988783
 31
0.0
  0
LINE
  8
0
  6
CONTINUOUS
 62
     7
  5
5F
 10
245.879893
 20
-44.488783
 30
0.0
 11
241.879893
 21
-44.488783
 31
0.0
  0
LINE
  8
0
  6
CONTINUOUS
 62
     7
  5
60
 10
249.879893
 20
-44.488783
 30
0.0
 11
249.879893
 21
-40.988783
 31
0.0
  0
LINE
  8
0
  6
CONTINUOUS
 62
     7
  5
61
 10
249.879893
 20
-44.488783
 30
0.0
 11
245.879893
 21
-44.488783
 31
0.0
  0
LINE
  8
0
  6
CONTINUOUS
 62
     7
  5
62
 10
322.373796
 20
-44.488783
 30
0.0
 11
322.373796
 21
-40.988783
 31
0.0
  0
LINE
  8
0
  6
CONTINUOUS
 62
     7
  5
63
 10
318.373796
 20
-44.488783
 30
0.0
 11
318.373796
 21
-40.988783
 31
0.0
  0
LINE
  8
0
  6
CONTINUOUS
 62
     7
  5
64
 10
322.373796
 20
-44.488783
 30
0.0
 11
318.373796
 21
-44.488783
 31
0.0
  0
LINE
  8
0
  6
CONTINUOUS
 62
     7
  5
65
 10
314.373796
 20
-44.488783
 30
0.0
 11
314.373796
 21
-40.988783
 31
0.0
  0
LINE
  8
0
  6
CONTINUOUS
 62
     7
  5
66
 10
318.373796
 20
-44.488783
 30
0.0
 11
314.373796
 21
-44.488783
 31
0.0
  0
LINE
  8
0
  6
CONTINUOUS
 62
     7
  5
67
 10
229.373796
 20
-43.088783
 30
0.0
 11
241.879893
 21
-43.088783
 31
0.0
  0
LINE
  8
0
  6
CONTINUOUS
 62
     7
  5
68
 10
334.926844
 20
46.911217
 30
0.0
 11
322.326844
 21
46.911217
 31
0.0
  0
LINE
  8
0
  6
CONTINUOUS
 62
     7
  5
69
 10
334.879893
 20
-43.088783
 30
0.0
 11
322.373796
 21
-43.088783
 31
0.0
  0
LINE
  8
0
  6
CONTINUOUS
 62
     7
  5
6A
 10
229.326844
 20
46.911217
 30
0.0
 11
241.926844
 21
46.911217
 31
0.0
  0
LINE
  8
0
  6
CONTINUOUS
 62
     7
  5
6B
 10
295.626844
 20
330.011217
 30
0.0
 11
295.626844
 21
345.011217
 31
0.0
  0
LINE
  8
0
  6
CONTINUOUS
 62
     7
  5
6C
 10
268.626844
 20
345.011217
 30
0.0
 11
268.626844
 21
330.011217
 31
0.0
  0
LINE
  8
0
  6
CONTINUOUS
 62
     7
  5
6D
 10
278.126844
 20
330.011217
 30
0.0
 11
278.126844
 21
329.636217
 31
0.0
  0
LINE
  8
0
  6
CONTINUOUS
 62
     7
  5
6E
 10
286.126844
 20
329.636217
 30
0.0
 11
286.126844
 21
330.011217
 31
0.0
  0
LINE
  8
0
  6
CONTINUOUS
 62
     7
  5
6F
 10
278.126844
 20
329.636217
 30
0.0
 11
278.751844
 21
329.011217
 31
0.0
  0
LINE
  8
0
  6
CONTINUOUS
 62
     7
  5
70
 10
285.501844
 20
329.011217
 30
0.0
 11
286.126844
 21
329.636217
 31
0.0
  0
LINE
  8
0
  6
CONTINUOUS
 62
     7
  5
71
 10
268.626844
 20
-44.488783
 30
0.0
 11
268.626844
 21
-55.988783
 31
0.0
  0
LINE
  8
0
  6
CONTINUOUS
 62
     7
  5
72
 10
295.626844
 20
-55.988783
 30
0.0
 11
295.626844
 21
-44.488783
 31
0.0
  0
LINE
  8
0
  6
CONTINUOUS
 62
     7
  5
73
 10
290.626844
 20
-61.488783
 30
0.0
 11
290.626844
 21
-55.988783
 31
0.0
  0
LINE
  8
0
  6
CONTINUOUS
 62
     7
  5
74
 10
273.626844
 20
-55.988783
 30
0.0
 11
273.626844
 21
-61.488783
 31
0.0
  0
LINE
  8
0
  6
CONTINUOUS
 62
     7
  5
75
 10
229.626844
 20
137.311217
 30
0.0
 11
229.626844
 21
46.911217
 31
0.0
  0
LINE
  8
0
  6
CONTINUOUS
 62
     7
  5
76
 10
229.626844
 20
-43.088783
 30
0.0
 11
229.626844
 21
-61.488783
 31
0.0
  0
LINE
  8
0
  6
CONTINUOUS
 62
     7
  5
77
 10
241.626844
 20
-61.488783
 30
0.0
 11
241.626844
 21
-43.088783
 31
0.0
  0
LINE
  8
0
  6
CONTINUOUS
 62
     7
  5
78
 10
241.626844
 20
46.911217
 30
0.0
 11
241.626844
 21
137.311217
 31
0.0
  0
LINE
  8
0
  6
CONTINUOUS
 62
     7
  5
79
 10
322.626844
 20
137.311217
 30
0.0
 11
322.626844
 21
46.911217
 31
0.0
  0
LINE
  8
0
  6
CONTINUOUS
 62
     7
  5
7A
 10
322.626844
 20
-43.088783
 30
0.0
 11
322.626844
 21
-61.488783
 31
0.0
  0
LINE
  8
0
  6
CONTINUOUS
 62
     7
  5
7B
 10
334.626844
 20
-61.488783
 30
0.0
 11
334.626844
 21
-43.088783
 31
0.0
  0
LINE
  8
0
  6
CONTINUOUS
 62
     7
  5
7C
 10
334.626844
 20
46.911217
 30
0.0
 11
334.626844
 21
137.311217
 31
0.0
  0
LINE
  8
0
  6
CONTINUOUS
 62
     7
  5
7D
 10
334.626844
 20
137.311217
 30
0.0
 11
334.080889
 21
138.811217
 31
0.0
  0
LINE
  8
0
  6
CONTINUOUS
 62
     7
  5
7E
 10
323.1728
 20
138.811217
 30
0.0
 11
322.626844
 21
137.311217
 31
0.0
  0
LINE
  8
0
  6
CONTINUOUS
 62
     7
  5
7F
 10
241.626844
 20
137.311217
 30
0.0
 11
241.080889
 21
138.811217
 31
0.0
  0
LINE
  8
0
  6
CONTINUOUS
 62
     7
  5
80
 10
230.1728
 20
138.811217
 30
0.0
 11
229.626844
 21
137.311217
 31
0.0
  0
LINE
  8
0
  6
CONTINUOUS
 62
     7
  5
81
 10
347.126844
 20
-30.188783
 30
0.0
 11
347.126844
 21
-10.188783
 31
0.0
  0
LINE
  8
0
  6
CONTINUOUS
 62
     7
  5
82
 10
310.126844
 20
-10.188783
 30
0.0
 11
310.126844
 21
-30.188783
 31
0.0
  0
LINE
  8
0
  6
CONTINUOUS
 62
     7
  5
83
 10
254.126844
 20
-30.188783
 30
0.0
 11
254.126844
 21
-10.188783
 31
0.0
  0
LINE
  8
0
  6
CONTINUOUS
 62
     7
  5
84
 10
217.126844
 20
-10.188783
 30
0.0
 11
217.126844
 21
-30.188783
 31
0.0
  0
LINE
  8
0
  6
CONTINUOUS
 62
     7
  5
85
 10
254.126844
 20
-10.188783
 30
0.0
 11
250.626844
 21
-6.688783
 31
0.0
  0
LINE
  8
0
  6
CONTINUOUS
 62
     7
  5
86
 10
220.626844
 20
-6.688783
 30
0.0
 11
217.126844
 21
-10.188783
 31
0.0
  0
LINE
  8
0
  6
CONTINUOUS
 62
     7
  5
87
 10
347.126844
 20
-10.188783
 30
0.0
 11
343.626844
 21
-6.688783
 31
0.0
  0
LINE
  8
0
  6
CONTINUOUS
 62
     7
  5
88
 10
313.626844
 20
-6.688783
 30
0.0
 11
310.126844
 21
-10.188783
 31
0.0
  0
LINE
  8
0
  6
CONTINUOUS
 62
     7
  5
89
 10
298.061873
 20
-30.188783
 30
0.0
 11
298.061873
 21
-21.388783
 31
0.0
  0
LINE
  8
0
  6
CONTINUOUS
 62
     7
  5
8A
 10
293.061873
 20
-21.388783
 30
0.0
 11
293.061873
 21
-30.188783
 31
0.0
  0
LINE
  8
0
  6
CONTINUOUS
 62
     7
  5
8B
 10
271.191815
 20
-21.388783
 30
0.0
 11
270.791815
 21
-20.988783
 31
0.0
  0
LINE
  8
0
  6
CONTINUOUS
 62
     7
  5
8C
 10
266.591815
 20
-20.988783
 30
0.0
 11
266.191815
 21
-21.388783
 31
0.0
  0
LINE
  8
0
  6
CONTINUOUS
 62
     7
  5
8D
 10
271.191815
 20
-30.188783
 30
0.0
 11
271.191815
 21
-21.388783
 31
0.0
  0
LINE
  8
0
  6
CONTINUOUS
 62
     7
  5
8E
 10
266.191815
 20
-21.388783
 30
0.0
 11
266.191815
 21
-30.188783
 31
0.0
  0
LINE
  8
0
  6
CONTINUOUS
 62
     7
  5
8F
 10
298.061873
 20
-21.388783
 30
0.0
 11
297.661873
 21
-20.988783
 31
0.0
  0
LINE
  8
0
  6
CONTINUOUS
 62
     7
  5
90
 10
293.461873
 20
-20.988783
 30
0.0
 11
293.061873
 21
-21.388783
 31
0.0
  0
LINE
  8
0
  6
CONTINUOUS
 62
     7
  5
91
 10
343.626844
 20
-6.688783
 30
0.0
 11
343.626844
 21
42.811217
 31
0.0
  0
LINE
  8
0
  6
CONTINUOUS
 62
     7
  5
92
 10
313.626844
 20
42.811217
 30
0.0
 11
313.626844
 21
-6.688783
 31
0.0
  0
LINE
  8
0
  6
CONTINUOUS
 62
     7
  5
93
 10
250.626844
 20
-6.688783
 30
0.0
 11
250.626844
 21
42.811217
 31
0.0
  0
LINE
  8
0
  6
CONTINUOUS
 62
     7
  5
94
 10
220.626844
 20
42.811217
 30
0.0
 11
220.626844
 21
-6.688783
 31
0.0
  0
ARC
  8
0
  6
CONTINUOUS
 62
     7
  5
95
 10
222.626844
 20
42.811217
 30
0.0
 40
2.0
 50
90.0
 51
180.0
210
0.0
220
0.0
230
1.0
  0
ARC
  8
0
  6
CONTINUOUS
 62
     7
  5
96
 10
248.626844
 20
42.811217
 30
0.0
 40
2.0
 50
0.0
 51
90.0
210
0.0
220
0.0
230
1.0
  0
ARC
  8
0
  6
CONTINUOUS
 62
     7
  5
97
 10
315.626844
 20
42.811217
 30
0.0
 40
2.0
 50
90.0
 51
180.0
210
0.0
220
0.0
230
1.0
  0
ARC
  8
0
  6
CONTINUOUS
 62
     7
  5
98
 10
341.626844
 20
42.811217
 30
0.0
 40
2.0
 50
0.0
 51
90.0
210
0.0
220
0.0
230
1.0
  0
LINE
  8
0
  6
CONTINUOUS
 62
     7
  5
99
 10
336.626844
 20
44.811217
 30
0.0
 11
334.926844
 21
46.911217
 31
0.0
  0
LINE
  8
0
  6
CONTINUOUS
 62
     7
  5
9A
 10
322.326844
 20
46.911217
 30
0.0
 11
320.626844
 21
44.811217
 31
0.0
  0
LINE
  8
0
  6
CONTINUOUS
 62
     7
  5
9B
 10
243.626844
 20
44.811217
 30
0.0
 11
241.926844
 21
46.911217
 31
0.0
  0
LINE
  8
0
  6
CONTINUOUS
 62
     7
  5
9C
 10
229.326844
 20
46.911217
 30
0.0
 11
227.626844
 21
44.811217
 31
0.0
  0
ENDBLK
  8
0
  5
9D
  0
BLOCK
  8
0
  5
A0
  2
AID245
 70
     0
 10
0.0
 20
0.0
 30
0.0
  3
#auxiliary draft view
  0
LINE
  8
0
  6
CONTINUOUS
 62
     7
  5
A1
 10
61.900552
 20
330.011217
 30
0.0
 11
88.900552
 21
330.011217
 31
0.0
  0
LINE
  8
0
  6
CONTINUOUS
 62
     7
  5
A2
 10
61.900552
 20
345.011217
 30
0.0
 11
88.900552
 21
345.011217
 31
0.0
  0
LINE
  8
0
  6
CONTINUOUS
 62
     7
  5
A3
 10
79.153328
 20
350.311217
 30
0.0
 11
79.153328
 21
345.011217
 31
0.0
  0
LINE
  8
0
  6
CONTINUOUS
 62
     7
  5
A4
 10
82.906105
 20
350.311217
 30
0.0
 11
82.906105
 21
345.011217
 31
0.0
  0
LINE
  8
0
  6
CONTINUOUS
 62
     7
  5
A5
 10
79.153328
 20
350.311217
 30
0.0
 11
82.906105
 21
350.311217
 31
0.0
  0
LINE
  8
0
  6
CONTINUOUS
 62
     7
  5
A6
 10
71.647775
 20
350.311217
 30
0.0
 11
71.647775
 21
345.011217
 31
0.0
  0
LINE
  8
0
  6
CONTINUOUS
 62
     7
  5
A7
 10
71.647775
 20
350.311217
 30
0.0
 11
79.153328
 21
350.311217
 31
0.0
  0
LINE
  8
0
  6
CONTINUOUS
 62
     7
  5
A8
 10
67.894998
 20
350.311217
 30
0.0
 11
67.894998
 21
345.011217
 31
0.0
  0
LINE
  8
0
  6
CONTINUOUS
 62
     7
  5
A9
 10
67.894998
 20
350.311217
 30
0.0
 11
71.647775
 21
350.311217
 31
0.0
  0
LINE
  8
0
  6
CONTINUOUS
 62
     7
  5
AA
 10
78.775552
 20
329.011217
 30
0.0
 11
75.400552
 21
329.011217
 31
0.0
  0
LINE
  8
0
  6
CONTINUOUS
 62
     7
  5
AB
 10
71.400552
 20
329.636217
 30
0.0
 11
75.400552
 21
329.636217
 31
0.0
  0
LINE
  8
0
  6
CONTINUOUS
 62
     7
  5
AC
 10
75.400552
 20
329.011217
 30
0.0
 11
72.025552
 21
329.011217
 31
0.0
  0
LINE
  8
0
  6
CONTINUOUS
 62
     7
  5
AD
 10
75.400552
 20
329.636217
 30
0.0
 11
79.400552
 21
329.636217
 31
0.0
  0
LINE
  8
0
  6
CONTINUOUS
 62
     7
  5
AE
 10
56.400552
 20
-61.488783
 30
0.0
 11
56.400552
 21
-70.488783
 31
0.0
  0
LINE
  8
0
  6
CONTINUOUS
 62
     7
  5
AF
 10
94.400552
 20
-61.488783
 30
0.0
 11
56.400552
 21
-61.488783
 31
0.0
  0
LINE
  8
0
  6
CONTINUOUS
 62
     7
  5
B0
 10
94.400552
 20
-61.488783
 30
0.0
 11
94.400552
 21
-70.488783
 31
0.0
  0
LINE
  8
0
  6
CONTINUOUS
 62
     7
  5
B1
 10
94.400552
 20
-70.488783
 30
0.0
 11
56.400552
 21
-70.488783
 31
0.0
  0
LINE
  8
0
  6
CONTINUOUS
 62
     7
  5
B2
 10
69.400552
 20
137.311217
 30
0.0
 11
75.400552
 21
137.311217
 31
0.0
  0
LINE
  8
0
  6
CONTINUOUS
 62
     7
  5
B3
 10
75.400552
 20
137.311217
 30
0.0
 11
81.400552
 21
137.311217
 31
0.0
  0
LINE
  8
0
  6
CONTINUOUS
 62
     7
  5
B4
 10
80.854596
 20
138.811217
 30
0.0
 11
75.400552
 21
138.811217
 31
0.0
  0
LINE
  8
0
  6
CONTINUOUS
 62
     7
  5
B5
 10
75.400552
 20
138.811217
 30
0.0
 11
69.946507
 21
138.811217
 31
0.0
  0
LINE
  8
0
  6
CONTINUOUS
 62
     7
  5
B6
 10
61.900552
 20
-55.988783
 30
0.0
 11
69.400552
 21
-55.988783
 31
0.0
  0
LINE
  8
0
  6
CONTINUOUS
 62
     7
  5
B7
 10
81.400552
 20
-55.988783
 30
0.0
 11
88.900552
 21
-55.988783
 31
0.0
  0
LINE
  8
0
  6
CONTINUOUS
 62
     7
  5
B8
 10
51.400552
 20
-30.188783
 30
0.0
 11
51.400552
 21
-40.988783
 31
0.0
  0
LINE
  8
0
  6
CONTINUOUS
 62
     7
  5
B9
 10
99.400552
 20
-30.188783
 30
0.0
 11
51.400552
 21
-30.188783
 31
0.0
  0
LINE
  8
0
  6
CONTINUOUS
 62
     7
  5
BA
 10
99.400552
 20
-30.188783
 30
0.0
 11
99.400552
 21
-40.988783
 31
0.0
  0
LINE
  8
0
  6
CONTINUOUS
 62
     7
  5
BB
 10
99.400552
 20
-40.988783
 30
0.0
 11
51.400552
 21
-40.988783
 31
0.0
  0
LINE
  8
0
  6
CONTINUOUS
 62
     7
  5
BC
 10
93.900552
 20
-10.188783
 30
0.0
 11
56.900552
 21
-10.188783
 31
0.0
  0
LINE
  8
0
  6
CONTINUOUS
 62
     7
  5
BD
 10
90.400552
 20
-6.688783
 30
0.0
 11
60.400552
 21
-6.688783
 31
0.0
  0
LINE
  8
0
  6
CONTINUOUS
 62
     9
  5
BE
 10
60.400552
 20
42.811217
 30
0.0
 11
90.400552
 21
42.811217
 31
0.0
  0
LINE
  8
0
  6
CONTINUOUS
 62
     7
  5
BF
 10
88.400552
 20
44.811217
 30
0.0
 11
62.400552
 21
44.811217
 31
0.0
  0
LINE
  8
0
  6
CONTINUOUS
 62
     7
  5
C0
 10
90.272402
 20
-44.488783
 30
0.0
 11
90.272402
 21
-40.988783
 31
0.0
  0
LINE
  8
0
  6
CONTINUOUS
 62
     7
  5
C1
 10
90.272402
 20
-44.488783
 30
0.0
 11
87.963001
 21
-44.488783
 31
0.0
  0
LINE
  8
0
  6
CONTINUOUS
 62
     7
  5
C2
 10
87.963001
 20
-44.488783
 30
0.0
 11
87.963001
 21
-40.988783
 31
0.0
  0
LINE
  8
0
  6
CONTINUOUS
 62
     7
  5
C3
 10
87.963001
 20
-44.488783
 30
0.0
 11
83.344199
 21
-44.488783
 31
0.0
  0
LINE
  8
0
  6
CONTINUOUS
 62
     7
  5
C4
 10
83.344199
 20
-44.488783
 30
0.0
 11
83.344199
 21
-40.988783
 31
0.0
  0
LINE
  8
0
  6
CONTINUOUS
 62
     7
  5
C5
 10
83.344199
 20
-44.488783
 30
0.0
 11
81.034798
 21
-44.488783
 31
0.0
  0
LINE
  8
0
  6
CONTINUOUS
 62
     7
  5
C6
 10
81.034798
 20
-44.488783
 30
0.0
 11
81.034798
 21
-40.988783
 31
0.0
  0
LINE
  8
0
  6
CONTINUOUS
 62
     7
  5
C7
 10
69.766305
 20
-44.488783
 30
0.0
 11
69.766305
 21
-40.988783
 31
0.0
  0
LINE
  8
0
  6
CONTINUOUS
 62
     7
  5
C8
 10
67.456904
 20
-44.488783
 30
0.0
 11
67.456904
 21
-40.988783
 31
0.0
  0
LINE
  8
0
  6
CONTINUOUS
 62
     7
  5
C9
 10
69.766305
 20
-44.488783
 30
0.0
 11
67.456904
 21
-44.488783
 31
0.0
  0
LINE
  8
0
  6
CONTINUOUS
 62
     7
  5
CA
 10
62.838102
 20
-44.488783
 30
0.0
 11
62.838102
 21
-40.988783
 31
0.0
  0
LINE
  8
0
  6
CONTINUOUS
 62
     7
  5
CB
 10
67.456904
 20
-44.488783
 30
0.0
 11
62.838102
 21
-44.488783
 31
0.0
  0
LINE
  8
0
  6
CONTINUOUS
 62
     7
  5
CC
 10
60.528701
 20
-44.488783
 30
0.0
 11
60.528701
 21
-40.988783
 31
0.0
  0
LINE
  8
0
  6
CONTINUOUS
 62
     7
  5
CD
 10
62.838102
 20
-44.488783
 30
0.0
 11
60.528701
 21
-44.488783
 31
0.0
  0
LINE
  8
0
  6
CONTINUOUS
 62
     7
  5
CE
 10
81.034798
 20
-43.088783
 30
0.0
 11
75.400552
 21
-43.088783
 31
0.0
  0
LINE
  8
0
  6
CONTINUOUS
 62
     7
  5
CF
 10
75.400552
 20
-43.088783
 30
0.0
 11
69.766305
 21
-43.088783
 31
0.0
  0
LINE
  8
0
  6
CONTINUOUS
 62
     7
  5
D0
 10
81.700552
 20
46.911217
 30
0.0
 11
69.100552
 21
46.911217
 31
0.0
  0
LINE
  8
0
  6
CONTINUOUS
 62
     7
  5
D1
 10
60.528701
 20
-44.488783
 30
0.0
 11
59.656122
 21
-44.488783
 31
0.0
  0
LINE
  8
0
  6
CONTINUOUS
 62
     7
  5
D2
 10
59.656122
 20
-44.488783
 30
0.0
 11
59.656122
 21
-40.988783
 31
0.0
  0
LINE
  8
0
  6
CONTINUOUS
 62
     7
  5
D3
 10
59.656122
 20
-44.488783
 30
0.0
 11
57.346721
 21
-44.488783
 31
0.0
  0
LINE
  8
0
  6
CONTINUOUS
 62
     7
  5
D4
 10
57.346721
 20
-44.488783
 30
0.0
 11
57.346721
 21
-40.988783
 31
0.0
  0
LINE
  8
0
  6
CONTINUOUS
 62
     7
  5
D5
 10
91.144981
 20
-44.488783
 30
0.0
 11
91.144981
 21
-40.988783
 31
0.0
  0
LINE
  8
0
  6
CONTINUOUS
 62
     7
  5
D6
 10
91.144981
 20
-44.488783
 30
0.0
 11
90.272402
 21
-44.488783
 31
0.0
  0
LINE
  8
0
  6
CONTINUOUS
 62
     7
  5
D7
 10
93.454383
 20
-44.488783
 30
0.0
 11
93.454383
 21
-40.988783
 31
0.0
  0
LINE
  8
0
  6
CONTINUOUS
 62
     7
  5
D8
 10
93.454383
 20
-44.488783
 30
0.0
 11
91.144981
 21
-44.488783
 31
0.0
  0
LINE
  8
0
  6
CONTINUOUS
 62
     7
  5
D9
 10
88.900552
 20
330.011217
 30
0.0
 11
88.900552
 21
345.011217
 31
0.0
  0
LINE
  8
0
  6
CONTINUOUS
 62
     7
  5
DA
 10
61.900552
 20
345.011217
 30
0.0
 11
61.900552
 21
330.011217
 31
0.0
  0
LINE
  8
0
  6
CONTINUOUS
 62
     7
  5
DB
 10
71.400552
 20
329.636217
 30
0.0
 11
72.025552
 21
329.011217
 31
0.0
  0
LINE
  8
0
  6
CONTINUOUS
 62
     7
  5
DC
 10
78.775552
 20
329.011217
 30
0.0
 11
79.400552
 21
329.636217
 31
0.0
  0
LINE
  8
0
  6
CONTINUOUS
 62
     7
  5
DD
 10
71.400552
 20
330.011217
 30
0.0
 11
71.400552
 21
329.636217
 31
0.0
  0
LINE
  8
0
  6
CONTINUOUS
 62
     7
  5
DE
 10
79.400552
 20
329.636217
 30
0.0
 11
79.400552
 21
330.011217
 31
0.0
  0
LINE
  8
0
  6
CONTINUOUS
 62
     7
  5
DF
 10
69.400552
 20
137.311217
 30
0.0
 11
69.400552
 21
46.911217
 31
0.0
  0
LINE
  8
0
  6
CONTINUOUS
 62
     7
  5
E0
 10
69.400552
 20
-44.488783
 30
0.0
 11
69.400552
 21
-61.488783
 31
0.0
  0
LINE
  8
0
  6
CONTINUOUS
 62
     7
  5
E1
 10
81.400552
 20
-61.488783
 30
0.0
 11
81.400552
 21
-44.488783
 31
0.0
  0
LINE
  8
0
  6
CONTINUOUS
 62
     7
  5
E2
 10
81.400552
 20
46.911217
 30
0.0
 11
81.400552
 21
137.311217
 31
0.0
  0
LINE
  8
0
  6
CONTINUOUS
 62
     7
  5
E3
 10
81.400552
 20
137.311217
 30
0.0
 11
80.854596
 21
138.811217
 31
0.0
  0
LINE
  8
0
  6
CONTINUOUS
 62
     7
  5
E4
 10
69.946507
 20
138.811217
 30
0.0
 11
69.400552
 21
137.311217
 31
0.0
  0
LINE
  8
0
  6
CONTINUOUS
 62
     7
  5
E5
 10
61.900552
 20
-44.488783
 30
0.0
 11
61.900552
 21
-55.988783
 31
0.0
  0
LINE
  8
0
  6
CONTINUOUS
 62
     7
  5
E6
 10
88.900552
 20
-55.988783
 30
0.0
 11
88.900552
 21
-44.488783
 31
0.0
  0
LINE
  8
0
  6
CONTINUOUS
 62
     7
  5
E7
 10
83.900552
 20
-61.488783
 30
0.0
 11
83.900552
 21
-55.988783
 31
0.0
  0
LINE
  8
0
  6
CONTINUOUS
 62
     7
  5
E8
 10
66.900552
 20
-55.988783
 30
0.0
 11
66.900552
 21
-61.488783
 31
0.0
  0
LINE
  8
0
  6
CONTINUOUS
 62
     7
  5
E9
 10
93.900552
 20
-30.188783
 30
0.0
 11
93.900552
 21
-10.188783
 31
0.0
  0
LINE
  8
0
  6
CONTINUOUS
 62
     7
  5
EA
 10
56.900552
 20
-10.188783
 30
0.0
 11
56.900552
 21
-30.188783
 31
0.0
  0
LINE
  8
0
  6
CONTINUOUS
 62
     7
  5
EB
 10
93.900552
 20
-10.188783
 30
0.0
 11
90.400552
 21
-6.688783
 31
0.0
  0
LINE
  8
0
  6
CONTINUOUS
 62
     7
  5
EC
 10
60.400552
 20
-6.688783
 30
0.0
 11
56.900552
 21
-10.188783
 31
0.0
  0
ARC
  8
0
  6
CONTINUOUS
 62
     7
  5
ED
 10
62.400552
 20
42.811217
 30
0.0
 40
2.0
 50
90.0
 51
180.0
210
0.0
220
0.0
230
1.0
  0
ARC
  8
0
  6
CONTINUOUS
 62
     7
  5
EE
 10
88.400552
 20
42.811217
 30
0.0
 40
2.0
 50
0.0
 51
90.0
210
0.0
220
0.0
230
1.0
  0
LINE
  8
0
  6
CONTINUOUS
 62
     7
  5
EF
 10
90.400552
 20
-6.688783
 30
0.0
 11
90.400552
 21
42.811217
 31
0.0
  0
LINE
  8
0
  6
CONTINUOUS
 62
     7
  5
F0
 10
60.400552
 20
42.811217
 30
0.0
 11
60.400552
 21
-6.688783
 31
0.0
  0
LINE
  8
0
  6
CONTINUOUS
 62
     7
  5
F1
 10
83.400552
 20
44.811217
 30
0.0
 11
81.700552
 21
46.911217
 31
0.0
  0
LINE
  8
0
  6
CONTINUOUS
 62
     7
  5
F2
 10
69.100552
 20
46.911217
 30
0.0
 11
67.400552
 21
44.811217
 31
0.0
  0
ENDBLK
  8
0
  5
F3
  0
BLOCK
  8
0
  5
F6
  2
AID413
 70
     0
 10
0.0
 20
0.0
 30
0.0
  3
#auxiliary draft view
  0
CIRCLE
  8
0
  6
CONTINUOUS
 62
     7
  5
F7
 10
312.126844
 20
452.112201
 30
0.0
 40
2.6
210
0.0
220
0.0
230
1.0
  0
CIRCLE
  8
0
  6
CONTINUOUS
 62
     7
  5
F8
 10
252.126844
 20
452.112201
 30
0.0
 40
2.6
210
0.0
220
0.0
230
1.0
  0
CIRCLE
  8
0
  6
CONTINUOUS
 62
     7
  5
F9
 10
252.126844
 20
477.112201
 30
0.0
 40
2.6
210
0.0
220
0.0
230
1.0
  0
LINE
  8
0
  6
CONTINUOUS
 62
     7
  5
FA
 10
340.126844
 20
483.612201
 30
0.0
 11
224.126844
 21
483.612201
 31
0.0
  0
LINE
  8
0
  6
CONTINUOUS
 62
     7
  5
FB
 10
224.126844
 20
445.612201
 30
0.0
 11
340.126844
 21
445.612201
 31
0.0
  0
LINE
  8
0
  6
CONTINUOUS
 62
     7
  5
FC
 10
340.126844
 20
445.612201
 30
0.0
 11
340.126844
 21
483.612201
 31
0.0
  0
LINE
  8
0
  6
CONTINUOUS
 62
     7
  5
FD
 10
224.126844
 20
483.612201
 30
0.0
 11
224.126844
 21
445.612201
 31
0.0
  0
CIRCLE
  8
0
  6
CONTINUOUS
 62
     7
  5
FE
 10
312.126844
 20
477.112201
 30
0.0
 40
2.6
210
0.0
220
0.0
230
1.0
  0
LINE
  8
0
  6
CONTINUOUS
 62
     7
  5
FF
 10
249.879893
 20
477.17465
 30
0.0
 11
249.539759
 21
477.371026
 31
0.0
  0
LINE
  8
0
  6
CONTINUOUS
 62
     7
  5
100
 10
249.879893
 20
475.804069
 30
0.0
 11
249.879893
 21
477.17465
 31
0.0
  0
LINE
  8
0
  6
CONTINUOUS
 62
     7
  5
101
 10
342.879893
 20
477.17465
 30
0.0
 11
340.126844
 21
478.764123
 31
0.0
  0
LINE
  8
0
  6
CONTINUOUS
 62
     7
  5
102
 10
340.126844
 20
470.966375
 30
0.0
 11
342.879893
 21
472.555848
 31
0.0
  0
LINE
  8
0
  6
CONTINUOUS
 62
     7
  5
103
 10
342.879893
 20
472.555848
 30
0.0
 11
342.879893
 21
477.17465
 31
0.0
  0
LINE
  8
0
  6
CONTINUOUS
 62
     7
  5
104
 10
221.373796
 20
472.555848
 30
0.0
 11
224.126844
 21
470.966375
 31
0.0
  0
LINE
  8
0
  6
CONTINUOUS
 62
     7
  5
105
 10
224.126844
 20
478.764123
 30
0.0
 11
221.373796
 21
477.17465
 31
0.0
  0
LINE
  8
0
  6
CONTINUOUS
 62
     7
  5
106
 10
221.373796
 20
477.17465
 30
0.0
 11
221.373796
 21
472.555848
 31
0.0
  0
LINE
  8
0
  6
CONTINUOUS
 62
     7
  5
107
 10
314.713929
 20
477.371026
 30
0.0
 11
314.373796
 21
477.17465
 31
0.0
  0
LINE
  8
0
  6
CONTINUOUS
 62
     7
  5
108
 10
314.373796
 20
477.17465
 30
0.0
 11
314.373796
 21
475.804069
 31
0.0
  0
LINE
  8
0
  6
CONTINUOUS
 62
     7
  5
109
 10
249.879893
 20
452.049751
 30
0.0
 11
249.879893
 21
453.420332
 31
0.0
  0
LINE
  8
0
  6
CONTINUOUS
 62
     7
  5
10A
 10
249.539759
 20
451.853375
 30
0.0
 11
249.879893
 21
452.049751
 31
0.0
  0
LINE
  8
0
  6
CONTINUOUS
 62
     7
  5
10B
 10
314.373796
 20
452.049751
 30
0.0
 11
314.713929
 21
451.853375
 31
0.0
  0
LINE
  8
0
  6
CONTINUOUS
 62
     7
  5
10C
 10
314.373796
 20
453.420332
 30
0.0
 11
314.373796
 21
452.049751
 31
0.0
  0
LINE
  8
0
  6
CONTINUOUS
 62
     7
  5
10D
 10
224.126844
 20
458.258026
 30
0.0
 11
221.373796
 21
456.668553
 31
0.0
  0
LINE
  8
0
  6
CONTINUOUS
 62
     7
  5
10E
 10
221.373796
 20
452.049751
 30
0.0
 11
224.126844
 21
450.460278
 31
0.0
  0
LINE
  8
0
  6
CONTINUOUS
 62
     7
  5
10F
 10
221.373796
 20
456.668553
 30
0.0
 11
221.373796
 21
452.049751
 31
0.0
  0
LINE
  8
0
  6
CONTINUOUS
 62
     7
  5
110
 10
342.879893
 20
452.049751
 30
0.0
 11
342.879893
 21
456.668553
 31
0.0
  0
LINE
  8
0
  6
CONTINUOUS
 62
     7
  5
111
 10
340.126844
 20
450.460278
 30
0.0
 11
342.879893
 21
452.049751
 31
0.0
  0
LINE
  8
0
  6
CONTINUOUS
 62
     7
  5
112
 10
342.879893
 20
456.668553
 30
0.0
 11
340.126844
 21
458.258026
 31
0.0
  0
CIRCLE
  8
0
  6
CONTINUOUS
 62
     7
  5
113
 10
207.126844
 20
480.862201
 30
0.0
 40
3.25
210
0.0
220
0.0
230
1.0
  0
CIRCLE
  8
0
  6
CONTINUOUS
 62
     7
  5
114
 10
357.126844
 20
480.862201
 30
0.0
 40
3.25
210
0.0
220
0.0
230
1.0
  0
CIRCLE
  8
0
  6
CONTINUOUS
 62
     7
  5
115
 10
207.126844
 20
448.362201
 30
0.0
 40
3.25
210
0.0
220
0.0
230
1.0
  0
CIRCLE
  8
0
  6
CONTINUOUS
 62
     7
  5
116
 10
357.126844
 20
448.362201
 30
0.0
 40
3.25
210
0.0
220
0.0
230
1.0
  0
LINE
  8
0
  6
CONTINUOUS
 62
     7
  5
117
 10
364.126844
 20
488.612201
 30
0.0
 11
200.126844
 21
488.612201
 31
0.0
  0
LINE
  8
0
  6
CONTINUOUS
 62
     7
  5
118
 10
364.126844
 20
440.612201
 30
0.0
 11
364.126844
 21
488.612201
 31
0.0
  0
LINE
  8
0
  6
CONTINUOUS
 62
     7
  5
119
 10
200.126844
 20
440.612201
 30
0.0
 11
364.126844
 21
440.612201
 31
0.0
  0
LINE
  8
0
  6
CONTINUOUS
 62
     7
  5
11A
 10
200.126844
 20
488.612201
 30
0.0
 11
200.126844
 21
440.612201
 31
0.0
  0
ENDBLK
  8
0
  5
11B
  0
BLOCK
  8
0
  5
11E
  2
AID487
 70
     0
 10
0.0
 20
0.0
 30
0.0
  3
DNote#note referencing elements
  0
TEXT
  8
0
 62
     7
  5
11F
 10
49.742859
 20
444.691821
 30
0.0
 40
3.5
  1
Représenté course 88 mm
210
0.0
220
0.0
230
1.0
  0
TEXT
  8
0
 62
     7
  5
120
 10
49.742859
 20
439.441821
 30
0.0
 40
3.5
  1
Represented stroke 88 mm
210
0.0
220
0.0
230
1.0
  0
TEXT
  8
0
 62
     7
  5
121
 10
49.742859
 20
434.191821
 30
0.0
 40
3.5
  1
In Hub 88 mm Vorgestellt
210
0.0
220
0.0
230
1.0
  0
ENDBLK
  8
0
  5
122
  0
ENDSEC
  0
SECTION
  2
ENTITIES
  0
INSERT
  8
0
  5
9E
  2
AID3
 10
0.0
 20
0.0
 30
0.0
  0
INSERT
  8
0
  5
F4
  2
AID245
 10
0.0
 20
0.0
 30
0.0
  0
INSERT
  8
0
  5
11C
  2
AID413
 10
0.0
 20
0.0
 30
0.0
  0
INSERT
  8
0
  5
123
  2
AID487
 10
0.0
 20
0.0
 30
0.0
  0
LINE
  8
0
  6
CENTER
 62
     1
  5
125
 10
75.400552
 20
348.011217
 30
0.0
 11
75.400552
 21
326.011217
 31
0.0
  0
LINE
  8
0
  6
CENTER
 62
     1
  5
126
 10
75.400552
 20
141.811217
 30
0.0
 11
75.400552
 21
-64.488783
 31
0.0
  0
LINE
  8
0
  6
CENTER
 62
     1
  5
127
 10
282.126844
 20
-26.488783
 30
0.0
 11
282.126844
 21
-33.188783
 31
0.0
  0
LINE
  8
0
  6
CENTER
 62
     1
  5
128
 10
357.126844
 20
-27.188783
 30
0.0
 11
357.126844
 21
-43.988783
 31
0.0
  0
LINE
  8
0
  6
CENTER
 62
     1
  5
129
 10
207.126844
 20
-27.188783
 30
0.0
 11
207.126844
 21
-43.988783
 31
0.0
  0
LINE
  8
0
  6
CENTER
 62
     1
  5
12A
 10
245.879893
 20
-23.988783
 30
0.0
 11
245.879893
 21
-13.882166
 31
0.0
  0
LINE
  8
0
  6
CENTER
 62
     1
  5
12B
 10
338.879893
 20
-27.188783
 30
0.0
 11
338.879893
 21
-43.988783
 31
0.0
  0
LINE
  8
0
  6
CENTER
 62
     1
  5
12C
 10
235.626844
 20
141.811217
 30
0.0
 11
235.626844
 21
-64.488783
 31
0.0
  0
LINE
  8
0
  6
CENTER
 62
     1
  5
12D
 10
268.691815
 20
-17.988783
 30
0.0
 11
268.691815
 21
-43.988783
 31
0.0
  0
LINE
  8
0
  6
CENTER
 62
     1
  5
12E
 10
282.126844
 20
348.011217
 30
0.0
 11
282.126844
 21
326.011217
 31
0.0
  0
LINE
  8
0
  6
CENTER
 62
     1
  5
12F
 10
282.126844
 20
-64.488783
 30
0.0
 11
282.126844
 21
-37.988783
 31
0.0
  0
LINE
  8
0
  6
CENTER
 62
     1
  5
130
 10
295.561873
 20
-17.988783
 30
0.0
 11
295.561873
 21
-43.988783
 31
0.0
  0
LINE
  8
0
  6
CENTER
 62
     1
  5
131
 10
318.373796
 20
-12.688783
 30
0.0
 11
318.373796
 21
-19.882166
 31
0.0
  0
LINE
  8
0
  6
CENTER
 62
     1
  5
132
 10
328.626844
 20
141.811217
 30
0.0
 11
328.626844
 21
-64.488783
 31
0.0
  0
LINE
  8
0
  6
CENTER
 62
     1
  5
133
 10
200.876844
 20
448.362201
 30
0.0
 11
213.376844
 21
448.362201
 31
0.0
  0
LINE
  8
0
  6
CENTER
 62
     1
  5
134
 10
207.126844
 20
442.112201
 30
0.0
 11
207.126844
 21
454.612201
 31
0.0
  0
LINE
  8
0
  6
CENTER
 62
     1
  5
135
 10
200.876844
 20
480.862201
 30
0.0
 11
213.376844
 21
480.862201
 31
0.0
  0
LINE
  8
0
  6
CENTER
 62
     1
  5
136
 10
207.126844
 20
474.612201
 30
0.0
 11
207.126844
 21
487.112201
 31
0.0
  0
LINE
  8
0
  6
CENTER
 62
     1
  5
137
 10
246.526844
 20
452.112201
 30
0.0
 11
257.726844
 21
452.112201
 31
0.0
  0
LINE
  8
0
  6
CENTER
 62
     1
  5
138
 10
252.126844
 20
446.512201
 30
0.0
 11
252.126844
 21
457.712201
 31
0.0
  0
LINE
  8
0
  6
CENTER
 62
     1
  5
139
 10
246.526844
 20
477.112201
 30
0.0
 11
257.726844
 21
477.112201
 31
0.0
  0
LINE
  8
0
  6
CENTER
 62
     1
  5
13A
 10
252.126844
 20
471.512201
 30
0.0
 11
252.126844
 21
482.712201
 31
0.0
  0
LINE
  8
0
  6
CENTER
 62
     1
  5
13B
 10
306.526844
 20
452.112201
 30
0.0
 11
317.726844
 21
452.112201
 31
0.0
  0
LINE
  8
0
  6
CENTER
 62
     1
  5
13C
 10
312.126844
 20
446.512201
 30
0.0
 11
312.126844
 21
457.712201
 31
0.0
  0
LINE
  8
0
  6
CENTER
 62
     1
  5
13D
 10
306.526844
 20
477.112201
 30
0.0
 11
317.726844
 21
477.112201
 31
0.0
  0
LINE
  8
0
  6
CENTER
 62
     1
  5
13E
 10
312.126844
 20
471.512201
 30
0.0
 11
312.126844
 21
482.712201
 31
0.0
  0
LINE
  8
0
  6
CENTER
 62
     1
  5
13F
 10
350.876844
 20
448.362201
 30
0.0
 11
363.376844
 21
448.362201
 31
0.0
  0
LINE
  8
0
  6
CENTER
 62
     1
  5
140
 10
357.126844
 20
442.112201
 30
0.0
 11
357.126844
 21
454.612201
 31
0.0
  0
LINE
  8
0
  6
CENTER
 62
     1
  5
141
 10
350.876844
 20
480.862201
 30
0.0
 11
363.376844
 21
480.862201
 31
0.0
  0
LINE
  8
0
  6
CENTER
 62
     1
  5
142
 10
357.126844
 20
474.612201
 30
0.0
 11
357.126844
 21
487.112201
 31
0.0
  0
ENDSEC
  0
EOF
