  0
SECTION
  2
HEADER
  9
$ACADVER
  1
AC1009
  9
$DWGCODEPAGE
  3
ansi_1252
  9
$INSBASE
 10
0.0
 20
0.0
 30
0.0
  9
$EXTMIN
 10
0.0
 20
-62.969411
 30
0.0
  9
$EXTMAX
 10
361.431393
 20
504.790265
 30
5.0
  9
$LIMMIN
 10
0.0
 20
-62.969411
  9
$LIMMAX
 10
361.431393
 20
504.790265
  9
$ORTHOMODE
 70
     0
  9
$REGENMODE
 70
     1
  9
$FILLMODE
 70
     1
  9
$QTEXTMODE
 70
     0
  9
$MIRRTEXT
 70
     1
  9
$DRAGMODE
 70
     2
  9
$LTSCALE
 40
10.0
  9
$OSMODE
 70
     0
  9
$ATTMODE
 70
     1
  9
$TEXTSIZE
 40
0.2
  9
$TRACEWID
 40
0.05
  9
$TEXTSTYLE
  7
STANDARD
  9
$CLAYER
  8
0
  9
$CELTYPE
  6
CONTINUOUS
  9
$CECOLOR
 62
   256
  9
$DIMSCALE
 40
1.0
  9
$DIMASZ
 40
1.25
  9
$DIMEXO
 40
1.0
  9
$DIMDLI
 40
0.38
  9
$DIMRND
 40
0.0
  9
$DIMDLE
 40
0.0
  9
$DIMEXE
 40
0.75
  9
$DIMTP
 40
0.0
  9
$DIMTM
 40
0.0
  9
$DIMTXT
 40
2.5
  9
$DIMCEN
 40
0.09
  9
$DIMTSZ
 40
0.0
  9
$DIMTOL
 70
     0
  9
$DIMLIM
 70
     0
  9
$DIMTIH
 70
     0
  9
$DIMTOH
 70
     0
  9
$DIMSE1
 70
     0
  9
$DIMSE2
 70
     0
  9
$DIMTAD
 70
     1
  9
$DIMZIN
 70
     0
  9
$DIMBLK
  1

  9
$DIMASO
 70
     1
  9
$DIMSHO
 70
     1
  9
$DIMPOST
  1

  9
$DIMAPOST
  1

  9
$DIMALT
 70
     0
  9
$DIMALTD
 70
     2
  9
$DIMALTF
 40
25.4
  9
$DIMLFAC
 40
1.0
  9
$DIMTOFL
 70
     0
  9
$DIMTVP
 40
0.0
  9
$DIMTIX
 70
     0
  9
$DIMSOXD
 70
     0
  9
$DIMSAH
 70
     0
  9
$DIMBLK1
  1

  9
$DIMBLK2
  1

  9
$DIMSTYLE
  2
STANDARD
  9
$DIMCLRD
 70
     7
  9
$DIMCLRE
 70
     7
  9
$DIMCLRT
 70
     7
  9
$DIMTFAC
 40
0.8
  9
$DIMGAP
 40
1.25
  9
$LUNITS
 70
     2
  9
$LUPREC
 70
     4
  9
$AXISMODE
 70
     0
  9
$AXISUNIT
 10
0.0
 20
0.0
  9
$SKETCHINC
 40
0.1
  9
$FILLETRAD
 40
0.0
  9
$AUNITS
 70
     0
  9
$AUPREC
 70
     0
  9
$MENU
  1
acad
  9
$ELEVATION
 40
0.0
  9
$PELEVATION
 40
0.0
  9
$THICKNESS
 40
0.0
  9
$LIMCHECK
 70
     0
  9
$BLIPMODE
 70
     1
  9
$CHAMFERA
 40
0.0
  9
$CHAMFERB
 40
0.0
  9
$SKPOLY
 70
     0
  9
$TDCREATE
 40
2456177.419050926
  9
$TDUPDATE
 40
2456177.335497685
  9
$TDINDWG
 40
0.0000000000
  9
$TDUSRTIMER
 40
0.0000000000
  9
$USRTIMER
 70
     1
  9
$ANGBASE
 50
0.0
  9
$ANGDIR
 70
     0
  9
$PDMODE
 70
     0
  9
$PDSIZE
 40
0.0
  9
$PLINEWID
 40
0.0
  9
$COORDS
 70
     0
  9
$SPLFRAME
 70
     0
  9
$SPLINETYPE
 70
     6
  9
$SPLINESEGS
 70
     8
  9
$ATTDIA
 70
     0
  9
$ATTREQ
 70
     1
  9
$HANDLING
 70
     1
  9
$HANDSEED
  5
143
  9
$SURFTAB1
 70
     6
  9
$SURFTAB2
 70
     6
  9
$SURFTYPE
 70
     6
  9
$SURFU
 70
     6
  9
$SURFV
 70
     6
  9
$UCSNAME
  2

  9
$UCSORG
 10
0.0
 20
0.0
 30
0.0
  9
$UCSXDIR
 10
1.0
 20
0.0
 30
0.0
  9
$UCSYDIR
 10
0.0
 20
1.0
 30
0.0
  9
$PUCSNAME
  2

  9
$PUCSORG
 10
0.0
 20
0.0
 30
0.0
  9
$PUCSXDIR
 10
1.0
 20
0.0
 30
0.0
  9
$PUCSYDIR
 10
0.0
 20
1.0
 30
0.0
  9
$USERI1
 70
     0
  9
$USERI2
 70
     0
  9
$USERI3
 70
     0
  9
$USERI4
 70
     0
  9
$USERI5
 70
     0
  9
$USERR1
 40
0.0
  9
$USERR2
 40
0.0
  9
$USERR3
 40
0.0
  9
$USERR4
 40
0.0
  9
$USERR5
 40
0.0
  9
$WORLDVIEW
 70
     1
  9
$SHADEDGE
 70
     3
  9
$SHADEDIF
 70
    70
  9
$TILEMODE
 70
     1
  9
$MAXACTVP
 70
    16
  9
$PINSBASE
 10
0.0
 20
0.0
 30
0.0
  9
$PLIMCHECK
 70
     0
  9
$PEXTMIN
 10
1.000000E+20
 20
1.000000E+20
 30
1.000000E+20
  9
$PEXTMAX
 10
-1.000000E+20
 20
-1.000000E+20
 30
-1.000000E+20
  9
$PLIMMIN
 10
0.0
 20
0.0
  9
$PLIMMAX
 10
12.0
 20
9.0
  9
$UNITMODE
 70
     0
  9
$VISRETAIN
 70
     0
  9
$PLINEGEN
 70
     1
  9
$PSLTSCALE
 70
     0
  9
$TREEDEPTH
 70
  3020
  0
ENDSEC
  0
SECTION
  2
TABLES
  0
TABLE
  2
VPORT
 70
     1
  0
VPORT
  2
*ACTIVE
 70
     0
 10
0.0
 20
0.0
 11
1.0
 21
1.0
 12
6.591288
 22
4.579184
 13
0.0
 23
0.0
 14
1.0
 24
1.0
 15
0.0
 25
0.0
 16
0.0
 26
0.0
 36
1.0
 17
0.0
 27
0.0
 37
0.0
 40
9.158369
 41
0.688564
 42
50.0
 43
0.0
 44
0.0
 50
0.0
 51
0.0
 71
     0
 72
   100
 73
     1
 74
     1
 75
     0
 76
     0
 77
     0
 78
     0
  0
ENDTAB
  0
TABLE
  2
LTYPE
 70
     2
  0
LTYPE
  2
CONTINUOUS
 70
    64
  3
Solid line
 72
    65
 73
     0
 40
0.0
  0
LTYPE
  2
CENTER
 70
    64
  3
____ _ ____ _ ____ _ ____ _ ____ _ ____ _ ____
 72
    65
 73
     4
 40
2.0
 49
1.25
 49
-0.25
 49
0.25
 49
-0.25
  0
ENDTAB
  0
TABLE
  2
LAYER
 70
     1
  0
LAYER
  2
0
 70
     0
 62
     7
  6
CONTINUOUS
  0
ENDTAB
  0
TABLE
  2
STYLE
 70
     1
  0
STYLE
  2
STANDARD
 70
     0
 40
0.0
 41
1.0
 50
0.0
 71
     0
 42
0.0
  3
IsonormD
  4

  0
ENDTAB
  0
TABLE
  2
VIEW
 70
     0
  0
ENDTAB
  0
TABLE
  2
UCS
 70
     0
  0
ENDTAB
  0
TABLE
  2
APPID
 70
     2
  0
APPID
  2
ACAD
 70
     0
  0
APPID
  2
TopSolid_Draft
 70
     0
  0
ENDTAB
  0
TABLE
  2
DIMSTYLE
 70
     1
  0
DIMSTYLE
  2
STANDARD
 70
     0
  3

  4

  5

  6

  7

 40
1.0
 41
1.25
 42
1.0
 43
0.38
 44
0.75
 45
0.0
 46
0.0
 47
0.0
 48
0.0
 71
     0
 72
     0
 73
     0
 74
     0
 75
     0
 76
     0
 77
     1
 78
     0
140
2.5
141
0.09
142
0.0
143
25.4
144
1.0
145
0.0
146
0.8
147
1.25
170
     0
171
     2
172
     0
173
     0
174
     0
175
     0
176
     7
177
     7
178
     7
  0
ENDTAB
  0
ENDSEC
  0
SECTION
  2
BLOCKS
  0
BLOCK
  8
0
  5
25
  2
AID3
 70
     0
 10
0.0
 20
0.0
 30
0.0
  3
#draft view
  0
LINE
  8
0
  6
CONTINUOUS
 62
     7
  5
26
 10
265.931393
 20
337.530589
 30
0.0
 11
292.931393
 21
337.530589
 31
0.0
  0
LINE
  8
0
  6
CONTINUOUS
 62
     7
  5
27
 10
265.931393
 20
352.530589
 30
0.0
 11
292.931393
 21
352.530589
 31
0.0
  0
LINE
  8
0
  6
CONTINUOUS
 62
     7
  5
28
 10
279.431393
 20
357.830589
 30
0.0
 11
279.431393
 21
352.530589
 31
0.0
  0
LINE
  8
0
  6
CONTINUOUS
 62
     7
  5
29
 10
279.431393
 20
357.830589
 30
0.0
 11
285.931393
 21
357.830589
 31
0.0
  0
LINE
  8
0
  6
CONTINUOUS
 62
     7
  5
2A
 10
285.931393
 20
357.830589
 30
0.0
 11
285.931393
 21
352.530589
 31
0.0
  0
LINE
  8
0
  6
CONTINUOUS
 62
     7
  5
2B
 10
272.931393
 20
357.830589
 30
0.0
 11
272.931393
 21
352.530589
 31
0.0
  0
LINE
  8
0
  6
CONTINUOUS
 62
     7
  5
2C
 10
272.931393
 20
357.830589
 30
0.0
 11
279.431393
 21
357.830589
 31
0.0
  0
LINE
  8
0
  6
CONTINUOUS
 62
     7
  5
2D
 10
275.431393
 20
337.155589
 30
0.0
 11
283.431393
 21
337.155589
 31
0.0
  0
LINE
  8
0
  6
CONTINUOUS
 62
     7
  5
2E
 10
282.806393
 20
336.530589
 30
0.0
 11
276.056393
 21
336.530589
 31
0.0
  0
LINE
  8
0
  6
CONTINUOUS
 62
     7
  5
2F
 10
221.431393
 20
-53.969411
 30
0.0
 11
221.431393
 21
-62.969411
 31
0.0
  0
LINE
  8
0
  6
CONTINUOUS
 62
     7
  5
30
 10
337.431393
 20
-62.969411
 30
0.0
 11
221.431393
 21
-62.969411
 31
0.0
  0
LINE
  8
0
  6
CONTINUOUS
 62
     7
  5
31
 10
337.431393
 20
-53.969411
 30
0.0
 11
221.431393
 21
-53.969411
 31
0.0
  0
LINE
  8
0
  6
CONTINUOUS
 62
     7
  5
32
 10
337.431393
 20
-53.969411
 30
0.0
 11
337.431393
 21
-62.969411
 31
0.0
  0
LINE
  8
0
  6
CONTINUOUS
 62
     7
  5
33
 10
265.931393
 20
-48.469411
 30
0.0
 11
292.931393
 21
-48.469411
 31
0.0
  0
LINE
  8
0
  6
CONTINUOUS
 62
     7
  5
34
 10
224.931393
 20
159.530589
 30
0.0
 11
240.931393
 21
159.530589
 31
0.0
  0
LINE
  8
0
  6
CONTINUOUS
 62
     7
  5
35
 10
240.203452
 20
161.530589
 30
0.0
 11
225.659333
 21
161.530589
 31
0.0
  0
LINE
  8
0
  6
CONTINUOUS
 62
     7
  5
36
 10
318.659333
 20
161.530589
 30
0.0
 11
333.203452
 21
161.530589
 31
0.0
  0
LINE
  8
0
  6
CONTINUOUS
 62
     7
  5
37
 10
333.931393
 20
159.530589
 30
0.0
 11
317.931393
 21
159.530589
 31
0.0
  0
LINE
  8
0
  6
CONTINUOUS
 62
     7
  5
38
 10
197.431393
 20
-22.669411
 30
0.0
 11
197.431393
 21
-33.469411
 31
0.0
  0
LINE
  8
0
  6
CONTINUOUS
 62
     7
  5
39
 10
361.431393
 20
-22.669411
 30
0.0
 11
361.431393
 21
-33.469411
 31
0.0
  0
LINE
  8
0
  6
CONTINUOUS
 62
     7
  5
3A
 10
361.431393
 20
-33.469411
 30
0.0
 11
197.431393
 21
-33.469411
 31
0.0
  0
LINE
  8
0
  6
CONTINUOUS
 62
     7
  5
3B
 10
361.431393
 20
-22.669411
 30
0.0
 11
197.431393
 21
-22.669411
 31
0.0
  0
LINE
  8
0
  6
CONTINUOUS
 62
     7
  5
3C
 10
250.931393
 20
5.830589
 30
0.0
 11
214.931393
 21
5.830589
 31
0.0
  0
LINE
  8
0
  6
CONTINUOUS
 62
     7
  5
3D
 10
254.431393
 20
2.330589
 30
0.0
 11
211.431393
 21
2.330589
 31
0.0
  0
LINE
  8
0
  6
CONTINUOUS
 62
     7
  5
3E
 10
307.931393
 20
5.830589
 30
0.0
 11
343.931393
 21
5.830589
 31
0.0
  0
LINE
  8
0
  6
CONTINUOUS
 62
     7
  5
3F
 10
304.431393
 20
2.330589
 30
0.0
 11
347.431393
 21
2.330589
 31
0.0
  0
LINE
  8
0
  6
CONTINUOUS
 62
     7
  5
40
 10
269.996364
 20
-36.969411
 30
0.0
 11
269.996364
 21
-33.469411
 31
0.0
  0
LINE
  8
0
  6
CONTINUOUS
 62
     7
  5
41
 10
269.996364
 20
-36.969411
 30
0.0
 11
265.996364
 21
-36.969411
 31
0.0
  0
LINE
  8
0
  6
CONTINUOUS
 62
     7
  5
42
 10
265.996364
 20
-36.969411
 30
0.0
 11
265.996364
 21
-33.469411
 31
0.0
  0
LINE
  8
0
  6
CONTINUOUS
 62
     7
  5
43
 10
261.996364
 20
-36.969411
 30
0.0
 11
261.996364
 21
-33.469411
 31
0.0
  0
LINE
  8
0
  6
CONTINUOUS
 62
     7
  5
44
 10
265.996364
 20
-36.969411
 30
0.0
 11
261.996364
 21
-36.969411
 31
0.0
  0
LINE
  8
0
  6
CONTINUOUS
 62
     7
  5
45
 10
292.866422
 20
-36.969411
 30
0.0
 11
292.866422
 21
-33.469411
 31
0.0
  0
LINE
  8
0
  6
CONTINUOUS
 62
     7
  5
46
 10
288.866422
 20
-36.969411
 30
0.0
 11
288.866422
 21
-33.469411
 31
0.0
  0
LINE
  8
0
  6
CONTINUOUS
 62
     7
  5
47
 10
292.866422
 20
-36.969411
 30
0.0
 11
288.866422
 21
-36.969411
 31
0.0
  0
LINE
  8
0
  6
CONTINUOUS
 62
     7
  5
48
 10
296.866422
 20
-36.969411
 30
0.0
 11
296.866422
 21
-33.469411
 31
0.0
  0
LINE
  8
0
  6
CONTINUOUS
 62
     7
  5
49
 10
296.866422
 20
-36.969411
 30
0.0
 11
292.866422
 21
-36.969411
 31
0.0
  0
LINE
  8
0
  6
CONTINUOUS
 62
     9
  5
4A
 10
343.931393
 20
65.330589
 30
0.0
 11
307.931393
 21
65.330589
 31
0.0
  0
LINE
  8
0
  6
CONTINUOUS
 62
     7
  5
4B
 10
248.931393
 20
67.330589
 30
0.0
 11
216.931393
 21
67.330589
 31
0.0
  0
LINE
  8
0
  6
CONTINUOUS
 62
     9
  5
4C
 10
214.931393
 20
65.330589
 30
0.0
 11
250.931393
 21
65.330589
 31
0.0
  0
LINE
  8
0
  6
CONTINUOUS
 62
     7
  5
4D
 10
309.931393
 20
67.330589
 30
0.0
 11
341.931393
 21
67.330589
 31
0.0
  0
LINE
  8
0
  6
CONTINUOUS
 62
     7
  5
4E
 10
342.305762
 20
-36.969411
 30
0.0
 11
342.305762
 21
-33.469411
 31
0.0
  0
LINE
  8
0
  6
CONTINUOUS
 62
     7
  5
4F
 10
342.305762
 20
-36.969411
 30
0.0
 11
338.305762
 21
-36.969411
 31
0.0
  0
LINE
  8
0
  6
CONTINUOUS
 62
     7
  5
50
 10
338.305762
 20
-36.969411
 30
0.0
 11
338.305762
 21
-33.469411
 31
0.0
  0
LINE
  8
0
  6
CONTINUOUS
 62
     7
  5
51
 10
224.557024
 20
-36.969411
 30
0.0
 11
224.557024
 21
-33.469411
 31
0.0
  0
LINE
  8
0
  6
CONTINUOUS
 62
     7
  5
52
 10
224.557024
 20
-36.969411
 30
0.0
 11
220.557024
 21
-36.969411
 31
0.0
  0
LINE
  8
0
  6
CONTINUOUS
 62
     7
  5
53
 10
220.557024
 20
-36.969411
 30
0.0
 11
220.557024
 21
-33.469411
 31
0.0
  0
LINE
  8
0
  6
CONTINUOUS
 62
     7
  5
54
 10
245.305762
 20
-36.969411
 30
0.0
 11
245.305762
 21
-33.469411
 31
0.0
  0
LINE
  8
0
  6
CONTINUOUS
 62
     7
  5
55
 10
241.305762
 20
-36.969411
 30
0.0
 11
241.305762
 21
-33.469411
 31
0.0
  0
LINE
  8
0
  6
CONTINUOUS
 62
     7
  5
56
 10
245.305762
 20
-36.969411
 30
0.0
 11
241.305762
 21
-36.969411
 31
0.0
  0
LINE
  8
0
  6
CONTINUOUS
 62
     7
  5
57
 10
338.305762
 20
-36.969411
 30
0.0
 11
334.305762
 21
-36.969411
 31
0.0
  0
LINE
  8
0
  6
CONTINUOUS
 62
     7
  5
58
 10
334.305762
 20
-36.969411
 30
0.0
 11
334.305762
 21
-33.469411
 31
0.0
  0
LINE
  8
0
  6
CONTINUOUS
 62
     7
  5
59
 10
220.557024
 20
-36.969411
 30
0.0
 11
216.557024
 21
-36.969411
 31
0.0
  0
LINE
  8
0
  6
CONTINUOUS
 62
     7
  5
5A
 10
216.557024
 20
-36.969411
 30
0.0
 11
216.557024
 21
-33.469411
 31
0.0
  0
LINE
  8
0
  6
CONTINUOUS
 62
     7
  5
5B
 10
249.305762
 20
-36.969411
 30
0.0
 11
249.305762
 21
-33.469411
 31
0.0
  0
LINE
  8
0
  6
CONTINUOUS
 62
     7
  5
5C
 10
249.305762
 20
-36.969411
 30
0.0
 11
245.305762
 21
-36.969411
 31
0.0
  0
LINE
  8
0
  6
CONTINUOUS
 62
     7
  5
5D
 10
317.557024
 20
-36.969411
 30
0.0
 11
317.557024
 21
-33.469411
 31
0.0
  0
LINE
  8
0
  6
CONTINUOUS
 62
     7
  5
5E
 10
313.557024
 20
-36.969411
 30
0.0
 11
313.557024
 21
-33.469411
 31
0.0
  0
LINE
  8
0
  6
CONTINUOUS
 62
     7
  5
5F
 10
317.557024
 20
-36.969411
 30
0.0
 11
313.557024
 21
-36.969411
 31
0.0
  0
LINE
  8
0
  6
CONTINUOUS
 62
     7
  5
60
 10
309.557024
 20
-36.969411
 30
0.0
 11
309.557024
 21
-33.469411
 31
0.0
  0
LINE
  8
0
  6
CONTINUOUS
 62
     7
  5
61
 10
313.557024
 20
-36.969411
 30
0.0
 11
309.557024
 21
-36.969411
 31
0.0
  0
LINE
  8
0
  6
CONTINUOUS
 62
     7
  5
62
 10
295.366422
 20
-13.869411
 30
0.0
 11
290.366422
 21
-13.869411
 31
0.0
  0
LINE
  8
0
  6
CONTINUOUS
 62
     7
  5
63
 10
268.496364
 20
-13.869411
 30
0.0
 11
263.496364
 21
-13.869411
 31
0.0
  0
LINE
  8
0
  6
CONTINUOUS
 62
     7
  5
64
 10
290.766422
 20
-13.469411
 30
0.0
 11
294.966422
 21
-13.469411
 31
0.0
  0
LINE
  8
0
  6
CONTINUOUS
 62
     7
  5
65
 10
263.896364
 20
-13.469411
 30
0.0
 11
268.096364
 21
-13.469411
 31
0.0
  0
LINE
  8
0
  6
CONTINUOUS
 62
     7
  5
66
 10
268.496364
 20
-21.969411
 30
0.0
 11
290.366422
 21
-21.969411
 31
0.0
  0
LINE
  8
0
  6
CONTINUOUS
 62
     7
  5
67
 10
241.281393
 20
70.430589
 30
0.0
 11
224.581393
 21
70.430589
 31
0.0
  0
LINE
  8
0
  6
CONTINUOUS
 62
     7
  5
68
 10
317.581393
 20
70.430589
 30
0.0
 11
334.281393
 21
70.430589
 31
0.0
  0
LINE
  8
0
  6
CONTINUOUS
 62
     7
  5
69
 10
317.581393
 20
-36.569411
 30
0.0
 11
334.281393
 21
-36.569411
 31
0.0
  0
LINE
  8
0
  6
CONTINUOUS
 62
     7
  5
6A
 10
241.281393
 20
-36.569411
 30
0.0
 11
224.581393
 21
-36.569411
 31
0.0
  0
LINE
  8
0
  6
CONTINUOUS
 62
     7
  5
6B
 10
292.931393
 20
337.530589
 30
0.0
 11
292.931393
 21
352.530589
 31
0.0
  0
LINE
  8
0
  6
CONTINUOUS
 62
     7
  5
6C
 10
265.931393
 20
352.530589
 30
0.0
 11
265.931393
 21
337.530589
 31
0.0
  0
LINE
  8
0
  6
CONTINUOUS
 62
     7
  5
6D
 10
275.431393
 20
337.530589
 30
0.0
 11
275.431393
 21
337.155589
 31
0.0
  0
LINE
  8
0
  6
CONTINUOUS
 62
     7
  5
6E
 10
283.431393
 20
337.155589
 30
0.0
 11
283.431393
 21
337.530589
 31
0.0
  0
LINE
  8
0
  6
CONTINUOUS
 62
     7
  5
6F
 10
275.431393
 20
337.155589
 30
0.0
 11
276.056393
 21
336.530589
 31
0.0
  0
LINE
  8
0
  6
CONTINUOUS
 62
     7
  5
70
 10
282.806393
 20
336.530589
 30
0.0
 11
283.431393
 21
337.155589
 31
0.0
  0
LINE
  8
0
  6
CONTINUOUS
 62
     7
  5
71
 10
265.931393
 20
-36.969411
 30
0.0
 11
265.931393
 21
-48.469411
 31
0.0
  0
LINE
  8
0
  6
CONTINUOUS
 62
     7
  5
72
 10
292.931393
 20
-48.469411
 30
0.0
 11
292.931393
 21
-36.969411
 31
0.0
  0
LINE
  8
0
  6
CONTINUOUS
 62
     7
  5
73
 10
287.931393
 20
-53.969411
 30
0.0
 11
287.931393
 21
-48.469411
 31
0.0
  0
LINE
  8
0
  6
CONTINUOUS
 62
     7
  5
74
 10
270.931393
 20
-48.469411
 30
0.0
 11
270.931393
 21
-53.969411
 31
0.0
  0
LINE
  8
0
  6
CONTINUOUS
 62
     7
  5
75
 10
224.931393
 20
159.530589
 30
0.0
 11
224.931393
 21
70.430589
 31
0.0
  0
LINE
  8
0
  6
CONTINUOUS
 62
     7
  5
76
 10
224.931393
 20
-36.569411
 30
0.0
 11
224.931393
 21
-53.969411
 31
0.0
  0
LINE
  8
0
  6
CONTINUOUS
 62
     7
  5
77
 10
240.931393
 20
-53.969411
 30
0.0
 11
240.931393
 21
-36.569411
 31
0.0
  0
LINE
  8
0
  6
CONTINUOUS
 62
     7
  5
78
 10
240.931393
 20
70.430589
 30
0.0
 11
240.931393
 21
159.530589
 31
0.0
  0
LINE
  8
0
  6
CONTINUOUS
 62
     7
  5
79
 10
240.931393
 20
159.530589
 30
0.0
 11
240.203452
 21
161.530589
 31
0.0
  0
LINE
  8
0
  6
CONTINUOUS
 62
     7
  5
7A
 10
225.659333
 20
161.530589
 30
0.0
 11
224.931393
 21
159.530589
 31
0.0
  0
LINE
  8
0
  6
CONTINUOUS
 62
     7
  5
7B
 10
333.931393
 20
159.530589
 30
0.0
 11
333.203452
 21
161.530589
 31
0.0
  0
LINE
  8
0
  6
CONTINUOUS
 62
     7
  5
7C
 10
318.659333
 20
161.530589
 30
0.0
 11
317.931393
 21
159.530589
 31
0.0
  0
LINE
  8
0
  6
CONTINUOUS
 62
     7
  5
7D
 10
317.931393
 20
159.530589
 30
0.0
 11
317.931393
 21
70.430589
 31
0.0
  0
LINE
  8
0
  6
CONTINUOUS
 62
     7
  5
7E
 10
317.931393
 20
-36.569411
 30
0.0
 11
317.931393
 21
-53.969411
 31
0.0
  0
LINE
  8
0
  6
CONTINUOUS
 62
     7
  5
7F
 10
333.931393
 20
-53.969411
 30
0.0
 11
333.931393
 21
-36.569411
 31
0.0
  0
LINE
  8
0
  6
CONTINUOUS
 62
     7
  5
80
 10
333.931393
 20
70.430589
 30
0.0
 11
333.931393
 21
159.530589
 31
0.0
  0
LINE
  8
0
  6
CONTINUOUS
 62
     7
  5
81
 10
254.431393
 20
2.330589
 30
0.0
 11
250.931393
 21
5.830589
 31
0.0
  0
LINE
  8
0
  6
CONTINUOUS
 62
     7
  5
82
 10
214.931393
 20
5.830589
 30
0.0
 11
211.431393
 21
2.330589
 31
0.0
  0
LINE
  8
0
  6
CONTINUOUS
 62
     7
  5
83
 10
254.431393
 20
-22.669411
 30
0.0
 11
254.431393
 21
2.330589
 31
0.0
  0
LINE
  8
0
  6
CONTINUOUS
 62
     7
  5
84
 10
211.431393
 20
2.330589
 30
0.0
 11
211.431393
 21
-22.669411
 31
0.0
  0
LINE
  8
0
  6
CONTINUOUS
 62
     7
  5
85
 10
347.431393
 20
2.330589
 30
0.0
 11
343.931393
 21
5.830589
 31
0.0
  0
LINE
  8
0
  6
CONTINUOUS
 62
     7
  5
86
 10
307.931393
 20
5.830589
 30
0.0
 11
304.431393
 21
2.330589
 31
0.0
  0
LINE
  8
0
  6
CONTINUOUS
 62
     7
  5
87
 10
347.431393
 20
-22.669411
 30
0.0
 11
347.431393
 21
2.330589
 31
0.0
  0
LINE
  8
0
  6
CONTINUOUS
 62
     7
  5
88
 10
304.431393
 20
2.330589
 30
0.0
 11
304.431393
 21
-22.669411
 31
0.0
  0
LINE
  8
0
  6
CONTINUOUS
 62
     7
  5
89
 10
343.931393
 20
5.830589
 30
0.0
 11
343.931393
 21
65.330589
 31
0.0
  0
LINE
  8
0
  6
CONTINUOUS
 62
     7
  5
8A
 10
307.931393
 20
65.330589
 30
0.0
 11
307.931393
 21
5.830589
 31
0.0
  0
ARC
  8
0
  6
CONTINUOUS
 62
     7
  5
8B
 10
216.931393
 20
65.330589
 30
0.0
 40
2.0
 50
90.0
 51
180.0
210
0.0
220
0.0
230
1.0
  0
ARC
  8
0
  6
CONTINUOUS
 62
     7
  5
8C
 10
248.931393
 20
65.330589
 30
0.0
 40
2.0
 50
0.0
 51
90.0
210
0.0
220
0.0
230
1.0
  0
LINE
  8
0
  6
CONTINUOUS
 62
     7
  5
8D
 10
250.931393
 20
5.830589
 30
0.0
 11
250.931393
 21
65.330589
 31
0.0
  0
LINE
  8
0
  6
CONTINUOUS
 62
     7
  5
8E
 10
214.931393
 20
65.330589
 30
0.0
 11
214.931393
 21
5.830589
 31
0.0
  0
ARC
  8
0
  6
CONTINUOUS
 62
     7
  5
8F
 10
309.931393
 20
65.330589
 30
0.0
 40
2.0
 50
90.0
 51
180.0
210
0.0
220
0.0
230
1.0
  0
ARC
  8
0
  6
CONTINUOUS
 62
     7
  5
90
 10
341.931393
 20
65.330589
 30
0.0
 40
2.0
 50
0.0
 51
90.0
210
0.0
220
0.0
230
1.0
  0
LINE
  8
0
  6
CONTINUOUS
 62
     7
  5
91
 10
295.366422
 20
-22.669411
 30
0.0
 11
295.366422
 21
-13.869411
 31
0.0
  0
LINE
  8
0
  6
CONTINUOUS
 62
     7
  5
92
 10
290.366422
 20
-13.869411
 30
0.0
 11
290.366422
 21
-22.669411
 31
0.0
  0
LINE
  8
0
  6
CONTINUOUS
 62
     7
  5
93
 10
268.496364
 20
-22.669411
 30
0.0
 11
268.496364
 21
-13.869411
 31
0.0
  0
LINE
  8
0
  6
CONTINUOUS
 62
     7
  5
94
 10
263.496364
 20
-13.869411
 30
0.0
 11
263.496364
 21
-22.669411
 31
0.0
  0
LINE
  8
0
  6
CONTINUOUS
 62
     7
  5
95
 10
295.366422
 20
-13.869411
 30
0.0
 11
294.966422
 21
-13.469411
 31
0.0
  0
LINE
  8
0
  6
CONTINUOUS
 62
     7
  5
96
 10
290.766422
 20
-13.469411
 30
0.0
 11
290.366422
 21
-13.869411
 31
0.0
  0
LINE
  8
0
  6
CONTINUOUS
 62
     7
  5
97
 10
268.496364
 20
-13.869411
 30
0.0
 11
268.096364
 21
-13.469411
 31
0.0
  0
LINE
  8
0
  6
CONTINUOUS
 62
     7
  5
98
 10
263.896364
 20
-13.469411
 30
0.0
 11
263.496364
 21
-13.869411
 31
0.0
  0
LINE
  8
0
  6
CONTINUOUS
 62
     7
  5
99
 10
242.931393
 20
67.330589
 30
0.0
 11
241.281393
 21
70.430589
 31
0.0
  0
LINE
  8
0
  6
CONTINUOUS
 62
     7
  5
9A
 10
224.581393
 20
70.430589
 30
0.0
 11
222.931393
 21
67.330589
 31
0.0
  0
LINE
  8
0
  6
CONTINUOUS
 62
     7
  5
9B
 10
335.931393
 20
67.330589
 30
0.0
 11
334.281393
 21
70.430589
 31
0.0
  0
LINE
  8
0
  6
CONTINUOUS
 62
     7
  5
9C
 10
317.581393
 20
70.430589
 30
0.0
 11
315.931393
 21
67.330589
 31
0.0
  0
LINE
  8
0
  6
CONTINUOUS
 62
     7
  5
9D
 10
317.557024
 20
-36.523627
 30
0.0
 11
317.581393
 21
-36.569411
 31
0.0
  0
LINE
  8
0
  6
CONTINUOUS
 62
     7
  5
9E
 10
334.281393
 20
-36.569411
 30
0.0
 11
334.305762
 21
-36.523627
 31
0.0
  0
LINE
  8
0
  6
CONTINUOUS
 62
     7
  5
9F
 10
224.557024
 20
-36.523627
 30
0.0
 11
224.581393
 21
-36.569411
 31
0.0
  0
LINE
  8
0
  6
CONTINUOUS
 62
     7
  5
A0
 10
241.281393
 20
-36.569411
 30
0.0
 11
241.305762
 21
-36.523627
 31
0.0
  0
ENDBLK
  8
0
  5
A1
  0
BLOCK
  8
0
  5
A4
  2
AID253
 70
     0
 10
0.0
 20
0.0
 30
0.0
  3
#auxiliary draft view
  0
LINE
  8
0
  6
CONTINUOUS
 62
     7
  5
A5
 10
37.558368
 20
337.530589
 30
0.0
 11
64.558368
 21
337.530589
 31
0.0
  0
LINE
  8
0
  6
CONTINUOUS
 62
     7
  5
A6
 10
37.558368
 20
352.530589
 30
0.0
 11
64.558368
 21
352.530589
 31
0.0
  0
LINE
  8
0
  6
CONTINUOUS
 62
     7
  5
A7
 10
47.305591
 20
357.830589
 30
0.0
 11
47.305591
 21
352.530589
 31
0.0
  0
LINE
  8
0
  6
CONTINUOUS
 62
     7
  5
A8
 10
54.811145
 20
357.830589
 30
0.0
 11
54.811145
 21
352.530589
 31
0.0
  0
LINE
  8
0
  6
CONTINUOUS
 62
     7
  5
A9
 10
47.305591
 20
357.830589
 30
0.0
 11
54.811145
 21
357.830589
 31
0.0
  0
LINE
  8
0
  6
CONTINUOUS
 62
     7
  5
AA
 10
58.563921
 20
357.830589
 30
0.0
 11
58.563921
 21
352.530589
 31
0.0
  0
LINE
  8
0
  6
CONTINUOUS
 62
     7
  5
AB
 10
54.811145
 20
357.830589
 30
0.0
 11
58.563921
 21
357.830589
 31
0.0
  0
LINE
  8
0
  6
CONTINUOUS
 62
     7
  5
AC
 10
43.552814
 20
357.830589
 30
0.0
 11
43.552814
 21
352.530589
 31
0.0
  0
LINE
  8
0
  6
CONTINUOUS
 62
     7
  5
AD
 10
43.552814
 20
357.830589
 30
0.0
 11
47.305591
 21
357.830589
 31
0.0
  0
LINE
  8
0
  6
CONTINUOUS
 62
     7
  5
AE
 10
47.058368
 20
337.155589
 30
0.0
 11
51.058368
 21
337.155589
 31
0.0
  0
LINE
  8
0
  6
CONTINUOUS
 62
     7
  5
AF
 10
51.058368
 20
337.155589
 30
0.0
 11
55.058368
 21
337.155589
 31
0.0
  0
LINE
  8
0
  6
CONTINUOUS
 62
     7
  5
B0
 10
54.433368
 20
336.530589
 30
0.0
 11
51.058368
 21
336.530589
 31
0.0
  0
LINE
  8
0
  6
CONTINUOUS
 62
     7
  5
B1
 10
51.058368
 20
336.530589
 30
0.0
 11
47.683368
 21
336.530589
 31
0.0
  0
LINE
  8
0
  6
CONTINUOUS
 62
     7
  5
B2
 10
70.058368
 20
-53.969411
 30
0.0
 11
70.058368
 21
-62.969411
 31
0.0
  0
LINE
  8
0
  6
CONTINUOUS
 62
     7
  5
B3
 10
70.058368
 20
-62.969411
 30
0.0
 11
32.058368
 21
-62.969411
 31
0.0
  0
LINE
  8
0
  6
CONTINUOUS
 62
     7
  5
B4
 10
32.058368
 20
-53.969411
 30
0.0
 11
32.058368
 21
-62.969411
 31
0.0
  0
LINE
  8
0
  6
CONTINUOUS
 62
     7
  5
B5
 10
70.058368
 20
-53.969411
 30
0.0
 11
32.058368
 21
-53.969411
 31
0.0
  0
LINE
  8
0
  6
CONTINUOUS
 62
     7
  5
B6
 10
43.786308
 20
161.530589
 30
0.0
 11
51.058368
 21
161.530589
 31
0.0
  0
LINE
  8
0
  6
CONTINUOUS
 62
     7
  5
B7
 10
59.058368
 20
159.530589
 30
0.0
 11
51.058368
 21
159.530589
 31
0.0
  0
LINE
  8
0
  6
CONTINUOUS
 62
     7
  5
B8
 10
51.058368
 20
161.530589
 30
0.0
 11
58.330427
 21
161.530589
 31
0.0
  0
LINE
  8
0
  6
CONTINUOUS
 62
     7
  5
B9
 10
51.058368
 20
159.530589
 30
0.0
 11
43.058368
 21
159.530589
 31
0.0
  0
LINE
  8
0
  6
CONTINUOUS
 62
     7
  5
BA
 10
37.558368
 20
-48.469411
 30
0.0
 11
43.058368
 21
-48.469411
 31
0.0
  0
LINE
  8
0
  6
CONTINUOUS
 62
     7
  5
BB
 10
59.058368
 20
-48.469411
 30
0.0
 11
64.558368
 21
-48.469411
 31
0.0
  0
LINE
  8
0
  6
CONTINUOUS
 62
     7
  5
BC
 10
75.058368
 20
-22.669411
 30
0.0
 11
75.058368
 21
-33.469411
 31
0.0
  0
LINE
  8
0
  6
CONTINUOUS
 62
     7
  5
BD
 10
75.058368
 20
-33.469411
 30
0.0
 11
27.058368
 21
-33.469411
 31
0.0
  0
LINE
  8
0
  6
CONTINUOUS
 62
     7
  5
BE
 10
27.058368
 20
-22.669411
 30
0.0
 11
27.058368
 21
-33.469411
 31
0.0
  0
LINE
  8
0
  6
CONTINUOUS
 62
     7
  5
BF
 10
75.058368
 20
-22.669411
 30
0.0
 11
27.058368
 21
-22.669411
 31
0.0
  0
LINE
  8
0
  6
CONTINUOUS
 62
     7
  5
C0
 10
33.058368
 20
5.830589
 30
0.0
 11
69.058368
 21
5.830589
 31
0.0
  0
LINE
  8
0
  6
CONTINUOUS
 62
     7
  5
C1
 10
29.558368
 20
2.330589
 30
0.0
 11
72.558368
 21
2.330589
 31
0.0
  0
LINE
  8
0
  6
CONTINUOUS
 62
     9
  5
C2
 10
69.058368
 20
65.330589
 30
0.0
 11
51.058368
 21
65.330589
 31
0.0
  0
LINE
  8
0
  6
CONTINUOUS
 62
     9
  5
C3
 10
51.058368
 20
65.330589
 30
0.0
 11
33.058368
 21
65.330589
 31
0.0
  0
LINE
  8
0
  6
CONTINUOUS
 62
     7
  5
C4
 10
35.058368
 20
67.330589
 30
0.0
 11
51.058368
 21
67.330589
 31
0.0
  0
LINE
  8
0
  6
CONTINUOUS
 62
     7
  5
C5
 10
51.058368
 20
67.330589
 30
0.0
 11
67.058368
 21
67.330589
 31
0.0
  0
LINE
  8
0
  6
CONTINUOUS
 62
     7
  5
C6
 10
61.123335
 20
-36.969411
 30
0.0
 11
61.123335
 21
-33.469411
 31
0.0
  0
LINE
  8
0
  6
CONTINUOUS
 62
     7
  5
C7
 10
61.123335
 20
-36.969411
 30
0.0
 11
58.813934
 21
-36.969411
 31
0.0
  0
LINE
  8
0
  6
CONTINUOUS
 62
     7
  5
C8
 10
58.813934
 20
-36.969411
 30
0.0
 11
58.813934
 21
-33.469411
 31
0.0
  0
LINE
  8
0
  6
CONTINUOUS
 62
     7
  5
C9
 10
43.302801
 20
-36.969411
 30
0.0
 11
43.302801
 21
-33.469411
 31
0.0
  0
LINE
  8
0
  6
CONTINUOUS
 62
     7
  5
CA
 10
43.302801
 20
-36.969411
 30
0.0
 11
40.9934
 21
-36.969411
 31
0.0
  0
LINE
  8
0
  6
CONTINUOUS
 62
     7
  5
CB
 10
40.9934
 20
-36.969411
 30
0.0
 11
40.9934
 21
-33.469411
 31
0.0
  0
LINE
  8
0
  6
CONTINUOUS
 62
     7
  5
CC
 10
36.374598
 20
-36.969411
 30
0.0
 11
36.374598
 21
-33.469411
 31
0.0
  0
LINE
  8
0
  6
CONTINUOUS
 62
     7
  5
CD
 10
36.374598
 20
-36.969411
 30
0.0
 11
34.065197
 21
-36.969411
 31
0.0
  0
LINE
  8
0
  6
CONTINUOUS
 62
     7
  5
CE
 10
34.065197
 20
-36.969411
 30
0.0
 11
34.065197
 21
-33.469411
 31
0.0
  0
LINE
  8
0
  6
CONTINUOUS
 62
     7
  5
CF
 10
40.9934
 20
-36.969411
 30
0.0
 11
36.374598
 21
-36.969411
 31
0.0
  0
LINE
  8
0
  6
CONTINUOUS
 62
     7
  5
D0
 10
68.051539
 20
-36.969411
 30
0.0
 11
68.051539
 21
-33.469411
 31
0.0
  0
LINE
  8
0
  6
CONTINUOUS
 62
     7
  5
D1
 10
68.051539
 20
-36.969411
 30
0.0
 11
65.742138
 21
-36.969411
 31
0.0
  0
LINE
  8
0
  6
CONTINUOUS
 62
     7
  5
D2
 10
65.742138
 20
-36.969411
 30
0.0
 11
65.742138
 21
-33.469411
 31
0.0
  0
LINE
  8
0
  6
CONTINUOUS
 62
     7
  5
D3
 10
65.742138
 20
-36.969411
 30
0.0
 11
61.123335
 21
-36.969411
 31
0.0
  0
LINE
  8
0
  6
CONTINUOUS
 62
     7
  5
D4
 10
43.302801
 20
-36.569411
 30
0.0
 11
51.058368
 21
-36.569411
 31
0.0
  0
LINE
  8
0
  6
CONTINUOUS
 62
     7
  5
D5
 10
51.058368
 20
-36.569411
 30
0.0
 11
58.813934
 21
-36.569411
 31
0.0
  0
LINE
  8
0
  6
CONTINUOUS
 62
     7
  5
D6
 10
42.708368
 20
70.430589
 30
0.0
 11
59.408368
 21
70.430589
 31
0.0
  0
LINE
  8
0
  6
CONTINUOUS
 62
     7
  5
D7
 10
69.112199
 20
-36.969411
 30
0.0
 11
69.112199
 21
-33.469411
 31
0.0
  0
LINE
  8
0
  6
CONTINUOUS
 62
     7
  5
D8
 10
69.112199
 20
-36.969411
 30
0.0
 11
68.051539
 21
-36.969411
 31
0.0
  0
LINE
  8
0
  6
CONTINUOUS
 62
     7
  5
D9
 10
34.065197
 20
-36.969411
 30
0.0
 11
33.004537
 21
-36.969411
 31
0.0
  0
LINE
  8
0
  6
CONTINUOUS
 62
     7
  5
DA
 10
33.004537
 20
-36.969411
 30
0.0
 11
33.004537
 21
-33.469411
 31
0.0
  0
LINE
  8
0
  6
CONTINUOUS
 62
     7
  5
DB
 10
64.558368
 20
337.530589
 30
0.0
 11
64.558368
 21
352.530589
 31
0.0
  0
LINE
  8
0
  6
CONTINUOUS
 62
     7
  5
DC
 10
37.558368
 20
352.530589
 30
0.0
 11
37.558368
 21
337.530589
 31
0.0
  0
LINE
  8
0
  6
CONTINUOUS
 62
     7
  5
DD
 10
47.058368
 20
337.530589
 30
0.0
 11
47.058368
 21
337.155589
 31
0.0
  0
LINE
  8
0
  6
CONTINUOUS
 62
     7
  5
DE
 10
55.058368
 20
337.155589
 30
0.0
 11
55.058368
 21
337.530589
 31
0.0
  0
LINE
  8
0
  6
CONTINUOUS
 62
     7
  5
DF
 10
47.058368
 20
337.155589
 30
0.0
 11
47.683368
 21
336.530589
 31
0.0
  0
LINE
  8
0
  6
CONTINUOUS
 62
     7
  5
E0
 10
54.433368
 20
336.530589
 30
0.0
 11
55.058368
 21
337.155589
 31
0.0
  0
LINE
  8
0
  6
CONTINUOUS
 62
     7
  5
E1
 10
59.058368
 20
159.530589
 30
0.0
 11
58.330427
 21
161.530589
 31
0.0
  0
LINE
  8
0
  6
CONTINUOUS
 62
     7
  5
E2
 10
43.786308
 20
161.530589
 30
0.0
 11
43.058368
 21
159.530589
 31
0.0
  0
LINE
  8
0
  6
CONTINUOUS
 62
     7
  5
E3
 10
43.058368
 20
159.530589
 30
0.0
 11
43.058368
 21
70.430589
 31
0.0
  0
LINE
  8
0
  6
CONTINUOUS
 62
     7
  5
E4
 10
43.058368
 20
-36.969411
 30
0.0
 11
43.058368
 21
-53.969411
 31
0.0
  0
LINE
  8
0
  6
CONTINUOUS
 62
     7
  5
E5
 10
59.058368
 20
-53.969411
 30
0.0
 11
59.058368
 21
-36.969411
 31
0.0
  0
LINE
  8
0
  6
CONTINUOUS
 62
     7
  5
E6
 10
59.058368
 20
70.430589
 30
0.0
 11
59.058368
 21
159.530589
 31
0.0
  0
LINE
  8
0
  6
CONTINUOUS
 62
     7
  5
E7
 10
37.558368
 20
-36.969411
 30
0.0
 11
37.558368
 21
-48.469411
 31
0.0
  0
LINE
  8
0
  6
CONTINUOUS
 62
     7
  5
E8
 10
64.558368
 20
-48.469411
 30
0.0
 11
64.558368
 21
-36.969411
 31
0.0
  0
LINE
  8
0
  6
CONTINUOUS
 62
     7
  5
E9
 10
59.558368
 20
-53.969411
 30
0.0
 11
59.558368
 21
-48.469411
 31
0.0
  0
LINE
  8
0
  6
CONTINUOUS
 62
     7
  5
EA
 10
42.558368
 20
-48.469411
 30
0.0
 11
42.558368
 21
-53.969411
 31
0.0
  0
LINE
  8
0
  6
CONTINUOUS
 62
     7
  5
EB
 10
72.558368
 20
2.330589
 30
0.0
 11
69.058368
 21
5.830589
 31
0.0
  0
LINE
  8
0
  6
CONTINUOUS
 62
     7
  5
EC
 10
33.058368
 20
5.830589
 30
0.0
 11
29.558368
 21
2.330589
 31
0.0
  0
LINE
  8
0
  6
CONTINUOUS
 62
     7
  5
ED
 10
72.558368
 20
-22.669411
 30
0.0
 11
72.558368
 21
2.330589
 31
0.0
  0
LINE
  8
0
  6
CONTINUOUS
 62
     7
  5
EE
 10
29.558368
 20
2.330589
 30
0.0
 11
29.558368
 21
-22.669411
 31
0.0
  0
LINE
  8
0
  6
CONTINUOUS
 62
     7
  5
EF
 10
69.058368
 20
5.830589
 30
0.0
 11
69.058368
 21
65.330589
 31
0.0
  0
LINE
  8
0
  6
CONTINUOUS
 62
     7
  5
F0
 10
33.058368
 20
65.330589
 30
0.0
 11
33.058368
 21
5.830589
 31
0.0
  0
ARC
  8
0
  6
CONTINUOUS
 62
     7
  5
F1
 10
35.058368
 20
65.330589
 30
0.0
 40
2.0
 50
90.0
 51
180.0
210
0.0
220
0.0
230
1.0
  0
ARC
  8
0
  6
CONTINUOUS
 62
     7
  5
F2
 10
67.058368
 20
65.330589
 30
0.0
 40
2.0
 50
0.0
 51
90.0
210
0.0
220
0.0
230
1.0
  0
LINE
  8
0
  6
CONTINUOUS
 62
     7
  5
F3
 10
61.058368
 20
67.330589
 30
0.0
 11
59.408368
 21
70.430589
 31
0.0
  0
LINE
  8
0
  6
CONTINUOUS
 62
     7
  5
F4
 10
42.708368
 20
70.430589
 30
0.0
 11
41.058368
 21
67.330589
 31
0.0
  0
ENDBLK
  8
0
  5
F5
  0
BLOCK
  8
0
  5
F8
  2
AID417
 70
     0
 10
0.0
 20
0.0
 30
0.0
  3
#auxiliary draft view
  0
CIRCLE
  8
0
  6
CONTINUOUS
 62
     7
  5
F9
 10
309.431393
 20
468.290265
 30
0.0
 40
2.6
210
0.0
220
0.0
230
1.0
  0
CIRCLE
  8
0
  6
CONTINUOUS
 62
     7
  5
FA
 10
249.431393
 20
468.290265
 30
0.0
 40
2.6
210
0.0
220
0.0
230
1.0
  0
LINE
  8
0
  6
CONTINUOUS
 62
     7
  5
FB
 10
221.431393
 20
461.790265
 30
0.0
 11
337.431393
 21
461.790265
 31
0.0
  0
CIRCLE
  8
0
  6
CONTINUOUS
 62
     7
  5
FC
 10
249.431393
 20
493.290265
 30
0.0
 40
2.6
210
0.0
220
0.0
230
1.0
  0
LINE
  8
0
  6
CONTINUOUS
 62
     7
  5
FD
 10
337.431393
 20
499.790265
 30
0.0
 11
221.431393
 21
499.790265
 31
0.0
  0
LINE
  8
0
  6
CONTINUOUS
 62
     7
  5
FE
 10
337.431393
 20
461.790265
 30
0.0
 11
337.431393
 21
499.790265
 31
0.0
  0
LINE
  8
0
  6
CONTINUOUS
 62
     7
  5
FF
 10
221.431393
 20
499.790265
 30
0.0
 11
221.431393
 21
461.790265
 31
0.0
  0
CIRCLE
  8
0
  6
CONTINUOUS
 62
     7
  5
100
 10
309.431393
 20
493.290265
 30
0.0
 40
2.6
210
0.0
220
0.0
230
1.0
  0
LINE
  8
0
  6
CONTINUOUS
 62
     7
  5
101
 10
338.305762
 20
497.783436
 30
0.0
 11
337.431393
 21
497.278619
 31
0.0
  0
LINE
  8
0
  6
CONTINUOUS
 62
     7
  5
102
 10
342.305762
 20
495.474035
 30
0.0
 11
338.305762
 21
497.783436
 31
0.0
  0
LINE
  8
0
  6
CONTINUOUS
 62
     7
  5
103
 10
342.305762
 20
490.855233
 30
0.0
 11
342.305762
 21
495.474035
 31
0.0
  0
LINE
  8
0
  6
CONTINUOUS
 62
     7
  5
104
 10
338.305762
 20
488.545832
 30
0.0
 11
342.305762
 21
490.855233
 31
0.0
  0
LINE
  8
0
  6
CONTINUOUS
 62
     7
  5
105
 10
337.431393
 20
489.050649
 30
0.0
 11
338.305762
 21
488.545832
 31
0.0
  0
LINE
  8
0
  6
CONTINUOUS
 62
     7
  5
106
 10
221.431393
 20
497.278619
 30
0.0
 11
220.557024
 21
497.783436
 31
0.0
  0
LINE
  8
0
  6
CONTINUOUS
 62
     7
  5
107
 10
220.557024
 20
488.545832
 30
0.0
 11
221.431393
 21
489.050649
 31
0.0
  0
LINE
  8
0
  6
CONTINUOUS
 62
     7
  5
108
 10
216.557024
 20
490.855233
 30
0.0
 11
220.557024
 21
488.545832
 31
0.0
  0
LINE
  8
0
  6
CONTINUOUS
 62
     7
  5
109
 10
216.557024
 20
495.474035
 30
0.0
 11
216.557024
 21
490.855233
 31
0.0
  0
LINE
  8
0
  6
CONTINUOUS
 62
     7
  5
10A
 10
220.557024
 20
497.783436
 30
0.0
 11
216.557024
 21
495.474035
 31
0.0
  0
LINE
  8
0
  6
CONTINUOUS
 62
     7
  5
10B
 10
338.305762
 20
473.034699
 30
0.0
 11
337.431393
 21
472.529882
 31
0.0
  0
LINE
  8
0
  6
CONTINUOUS
 62
     7
  5
10C
 10
342.305762
 20
470.725298
 30
0.0
 11
338.305762
 21
473.034699
 31
0.0
  0
LINE
  8
0
  6
CONTINUOUS
 62
     7
  5
10D
 10
342.305762
 20
466.106495
 30
0.0
 11
342.305762
 21
470.725298
 31
0.0
  0
LINE
  8
0
  6
CONTINUOUS
 62
     7
  5
10E
 10
338.305762
 20
463.797094
 30
0.0
 11
342.305762
 21
466.106495
 31
0.0
  0
LINE
  8
0
  6
CONTINUOUS
 62
     7
  5
10F
 10
337.431393
 20
464.301911
 30
0.0
 11
338.305762
 21
463.797094
 31
0.0
  0
LINE
  8
0
  6
CONTINUOUS
 62
     7
  5
110
 10
220.557024
 20
473.034699
 30
0.0
 11
216.557024
 21
470.725298
 31
0.0
  0
LINE
  8
0
  6
CONTINUOUS
 62
     7
  5
111
 10
221.431393
 20
472.529882
 30
0.0
 11
220.557024
 21
473.034699
 31
0.0
  0
LINE
  8
0
  6
CONTINUOUS
 62
     7
  5
112
 10
220.557024
 20
463.797094
 30
0.0
 11
221.431393
 21
464.301911
 31
0.0
  0
LINE
  8
0
  6
CONTINUOUS
 62
     7
  5
113
 10
216.557024
 20
466.106495
 30
0.0
 11
220.557024
 21
463.797094
 31
0.0
  0
LINE
  8
0
  6
CONTINUOUS
 62
     7
  5
114
 10
216.557024
 20
470.725298
 30
0.0
 11
216.557024
 21
466.106495
 31
0.0
  0
CIRCLE
  8
0
  6
CONTINUOUS
 62
     7
  5
115
 10
204.431393
 20
497.040265
 30
0.0
 40
3.25
210
0.0
220
0.0
230
1.0
  0
CIRCLE
  8
0
  6
CONTINUOUS
 62
     7
  5
116
 10
354.431393
 20
497.040265
 30
0.0
 40
3.25
210
0.0
220
0.0
230
1.0
  0
CIRCLE
  8
0
  6
CONTINUOUS
 62
     7
  5
117
 10
204.431393
 20
464.540265
 30
0.0
 40
3.25
210
0.0
220
0.0
230
1.0
  0
CIRCLE
  8
0
  6
CONTINUOUS
 62
     7
  5
118
 10
354.431393
 20
464.540265
 30
0.0
 40
3.25
210
0.0
220
0.0
230
1.0
  0
LINE
  8
0
  6
CONTINUOUS
 62
     7
  5
119
 10
361.431393
 20
504.790265
 30
0.0
 11
197.431393
 21
504.790265
 31
0.0
  0
LINE
  8
0
  6
CONTINUOUS
 62
     7
  5
11A
 10
361.431393
 20
456.790265
 30
0.0
 11
361.431393
 21
504.790265
 31
0.0
  0
LINE
  8
0
  6
CONTINUOUS
 62
     7
  5
11B
 10
197.431393
 20
456.790265
 30
0.0
 11
361.431393
 21
456.790265
 31
0.0
  0
LINE
  8
0
  6
CONTINUOUS
 62
     7
  5
11C
 10
197.431393
 20
504.790265
 30
0.0
 11
197.431393
 21
456.790265
 31
0.0
  0
ENDBLK
  8
0
  5
11D
  0
BLOCK
  8
0
  5
120
  2
AID515
 70
     0
 10
0.0
 20
0.0
 30
0.0
  3
DNote#note referencing elements
  0
TEXT
  8
0
 62
     7
  5
121
 10
25.400676
 20
461.952222
 30
0.0
 40
3.5
  1
Représenté course 88 mm
210
0.0
220
0.0
230
1.0
  0
TEXT
  8
0
 62
     7
  5
122
 10
25.400676
 20
456.702222
 30
0.0
 40
3.5
  1
Represented stroke 88 mm
210
0.0
220
0.0
230
1.0
  0
TEXT
  8
0
 62
     7
  5
123
 10
25.400676
 20
451.452222
 30
0.0
 40
3.5
  1
In Hub 88 mm Vorgestellt
210
0.0
220
0.0
230
1.0
  0
ENDBLK
  8
0
  5
124
  0
ENDSEC
  0
SECTION
  2
ENTITIES
  0
INSERT
  8
0
  5
A2
  2
AID3
 10
0.0
 20
0.0
 30
0.0
  0
INSERT
  8
0
  5
F6
  2
AID253
 10
0.0
 20
0.0
 30
0.0
  0
INSERT
  8
0
  5
11E
  2
AID417
 10
0.0
 20
0.0
 30
0.0
  0
INSERT
  8
0
  5
125
  2
AID515
 10
0.0
 20
0.0
 30
0.0
  0
LINE
  8
0
  6
CENTER
 62
     1
  5
127
 10
198.181393
 20
464.540265
 30
0.0
 11
210.681393
 21
464.540265
 31
0.0
  0
LINE
  8
0
  6
CENTER
 62
     1
  5
128
 10
204.431393
 20
458.290265
 30
0.0
 11
204.431393
 21
470.790265
 31
0.0
  0
LINE
  8
0
  6
CENTER
 62
     1
  5
129
 10
198.181393
 20
497.040265
 30
0.0
 11
210.681393
 21
497.040265
 31
0.0
  0
LINE
  8
0
  6
CENTER
 62
     1
  5
12A
 10
204.431393
 20
490.790265
 30
0.0
 11
204.431393
 21
503.290265
 31
0.0
  0
LINE
  8
0
  6
CENTER
 62
     1
  5
12B
 10
243.831393
 20
468.290265
 30
0.0
 11
255.031393
 21
468.290265
 31
0.0
  0
LINE
  8
0
  6
CENTER
 62
     1
  5
12C
 10
249.431393
 20
462.690265
 30
0.0
 11
249.431393
 21
473.890265
 31
0.0
  0
LINE
  8
0
  6
CENTER
 62
     1
  5
12D
 10
243.831393
 20
493.290265
 30
0.0
 11
255.031393
 21
493.290265
 31
0.0
  0
LINE
  8
0
  6
CENTER
 62
     1
  5
12E
 10
249.431393
 20
487.690265
 30
0.0
 11
249.431393
 21
498.890265
 31
0.0
  0
LINE
  8
0
  6
CENTER
 62
     1
  5
12F
 10
303.831393
 20
468.290265
 30
0.0
 11
315.031393
 21
468.290265
 31
0.0
  0
LINE
  8
0
  6
CENTER
 62
     1
  5
130
 10
309.431393
 20
462.690265
 30
0.0
 11
309.431393
 21
473.890265
 31
0.0
  0
LINE
  8
0
  6
CENTER
 62
     1
  5
131
 10
303.831393
 20
493.290265
 30
0.0
 11
315.031393
 21
493.290265
 31
0.0
  0
LINE
  8
0
  6
CENTER
 62
     1
  5
132
 10
309.431393
 20
487.690265
 30
0.0
 11
309.431393
 21
498.890265
 31
0.0
  0
LINE
  8
0
  6
CENTER
 62
     1
  5
133
 10
348.181393
 20
464.540265
 30
0.0
 11
360.681393
 21
464.540265
 31
0.0
  0
LINE
  8
0
  6
CENTER
 62
     1
  5
134
 10
354.431393
 20
458.290265
 30
0.0
 11
354.431393
 21
470.790265
 31
0.0
  0
LINE
  8
0
  6
CENTER
 62
     1
  5
135
 10
348.181393
 20
497.040265
 30
0.0
 11
360.681393
 21
497.040265
 31
0.0
  0
LINE
  8
0
  6
CENTER
 62
     1
  5
136
 10
354.431393
 20
490.790265
 30
0.0
 11
354.431393
 21
503.290265
 31
0.0
  0
LINE
  8
0
  6
CENTER
 62
     1
  5
137
 10
51.058368
 20
355.530589
 30
0.0
 11
51.058368
 21
333.530589
 31
0.0
  0
LINE
  8
0
  6
CENTER
 62
     1
  5
138
 10
51.058368
 20
164.530589
 30
0.0
 11
51.058368
 21
-56.969411
 31
0.0
  0
LINE
  8
0
  6
CENTER
 62
     1
  5
139
 10
204.431393
 20
-19.669411
 30
0.0
 11
204.431393
 21
-36.469411
 31
0.0
  0
LINE
  8
0
  6
CENTER
 62
     1
  5
13A
 10
354.431393
 20
-19.669411
 30
0.0
 11
354.431393
 21
-36.469411
 31
0.0
  0
LINE
  8
0
  6
CENTER
 62
     1
  5
13B
 10
232.931393
 20
164.530589
 30
0.0
 11
232.931393
 21
-56.969411
 31
0.0
  0
LINE
  8
0
  6
CENTER
 62
     1
  5
13C
 10
265.996364
 20
-10.469411
 30
0.0
 11
265.996364
 21
-36.469411
 31
0.0
  0
LINE
  8
0
  6
CENTER
 62
     1
  5
13D
 10
279.431393
 20
355.530589
 30
0.0
 11
279.431393
 21
333.530589
 31
0.0
  0
LINE
  8
0
  6
CENTER
 62
     1
  5
13E
 10
279.431393
 20
-56.969411
 30
0.0
 11
279.431393
 21
-30.469411
 31
0.0
  0
LINE
  8
0
  6
CENTER
 62
     1
  5
13F
 10
292.866422
 20
-10.469411
 30
0.0
 11
292.866422
 21
-36.469411
 31
0.0
  0
LINE
  8
0
  6
CENTER
 62
     1
  5
140
 10
325.931393
 20
164.530589
 30
0.0
 11
325.931393
 21
-56.969411
 31
0.0
  0
ENDSEC
  0
EOF
