  0
SECTION
  2
HEADER
  9
$ACADVER
  1
AC1009
  9
$DWGCODEPAGE
  3
ansi_1252
  9
$INSBASE
 10
0.0
 20
0.0
 30
0.0
  9
$EXTMIN
 10
0.0
 20
-112.318801
 30
0.0
  9
$EXTMAX
 10
396.269735
 20
556.104424
 30
5.0
  9
$LIMMIN
 10
0.0
 20
-112.318801
  9
$LIMMAX
 10
396.269735
 20
556.104424
  9
$ORTHOMODE
 70
     0
  9
$REGENMODE
 70
     1
  9
$FILLMODE
 70
     1
  9
$QTEXTMODE
 70
     0
  9
$MIRRTEXT
 70
     1
  9
$DRAGMODE
 70
     2
  9
$LTSCALE
 40
10.0
  9
$OSMODE
 70
     0
  9
$ATTMODE
 70
     1
  9
$TEXTSIZE
 40
0.2
  9
$TRACEWID
 40
0.05
  9
$TEXTSTYLE
  7
STANDARD
  9
$CLAYER
  8
0
  9
$CELTYPE
  6
CONTINUOUS
  9
$CECOLOR
 62
   256
  9
$DIMSCALE
 40
1.0
  9
$DIMASZ
 40
1.25
  9
$DIMEXO
 40
1.0
  9
$DIMDLI
 40
0.38
  9
$DIMRND
 40
0.0
  9
$DIMDLE
 40
0.0
  9
$DIMEXE
 40
0.75
  9
$DIMTP
 40
0.0
  9
$DIMTM
 40
0.0
  9
$DIMTXT
 40
2.5
  9
$DIMCEN
 40
0.09
  9
$DIMTSZ
 40
0.0
  9
$DIMTOL
 70
     0
  9
$DIMLIM
 70
     0
  9
$DIMTIH
 70
     0
  9
$DIMTOH
 70
     0
  9
$DIMSE1
 70
     0
  9
$DIMSE2
 70
     0
  9
$DIMTAD
 70
     1
  9
$DIMZIN
 70
     0
  9
$DIMBLK
  1

  9
$DIMASO
 70
     1
  9
$DIMSHO
 70
     1
  9
$DIMPOST
  1

  9
$DIMAPOST
  1

  9
$DIMALT
 70
     0
  9
$DIMALTD
 70
     2
  9
$DIMALTF
 40
25.4
  9
$DIMLFAC
 40
1.0
  9
$DIMTOFL
 70
     0
  9
$DIMTVP
 40
0.0
  9
$DIMTIX
 70
     0
  9
$DIMSOXD
 70
     0
  9
$DIMSAH
 70
     0
  9
$DIMBLK1
  1

  9
$DIMBLK2
  1

  9
$DIMSTYLE
  2
STANDARD
  9
$DIMCLRD
 70
     7
  9
$DIMCLRE
 70
     7
  9
$DIMCLRT
 70
     7
  9
$DIMTFAC
 40
0.8
  9
$DIMGAP
 40
1.25
  9
$LUNITS
 70
     2
  9
$LUPREC
 70
     4
  9
$AXISMODE
 70
     0
  9
$AXISUNIT
 10
0.0
 20
0.0
  9
$SKETCHINC
 40
0.1
  9
$FILLETRAD
 40
0.0
  9
$AUNITS
 70
     0
  9
$AUPREC
 70
     0
  9
$MENU
  1
acad
  9
$ELEVATION
 40
0.0
  9
$PELEVATION
 40
0.0
  9
$THICKNESS
 40
0.0
  9
$LIMCHECK
 70
     0
  9
$BLIPMODE
 70
     1
  9
$CHAMFERA
 40
0.0
  9
$CHAMFERB
 40
0.0
  9
$SKPOLY
 70
     0
  9
$TDCREATE
 40
2456177.426701389
  9
$TDUPDATE
 40
2456177.343032408
  9
$TDINDWG
 40
0.0000000000
  9
$TDUSRTIMER
 40
0.0000000000
  9
$USRTIMER
 70
     1
  9
$ANGBASE
 50
0.0
  9
$ANGDIR
 70
     0
  9
$PDMODE
 70
     0
  9
$PDSIZE
 40
0.0
  9
$PLINEWID
 40
0.0
  9
$COORDS
 70
     0
  9
$SPLFRAME
 70
     0
  9
$SPLINETYPE
 70
     6
  9
$SPLINESEGS
 70
     8
  9
$ATTDIA
 70
     0
  9
$ATTREQ
 70
     1
  9
$HANDLING
 70
     1
  9
$HANDSEED
  5
138
  9
$SURFTAB1
 70
     6
  9
$SURFTAB2
 70
     6
  9
$SURFTYPE
 70
     6
  9
$SURFU
 70
     6
  9
$SURFV
 70
     6
  9
$UCSNAME
  2

  9
$UCSORG
 10
0.0
 20
0.0
 30
0.0
  9
$UCSXDIR
 10
1.0
 20
0.0
 30
0.0
  9
$UCSYDIR
 10
0.0
 20
1.0
 30
0.0
  9
$PUCSNAME
  2

  9
$PUCSORG
 10
0.0
 20
0.0
 30
0.0
  9
$PUCSXDIR
 10
1.0
 20
0.0
 30
0.0
  9
$PUCSYDIR
 10
0.0
 20
1.0
 30
0.0
  9
$USERI1
 70
     0
  9
$USERI2
 70
     0
  9
$USERI3
 70
     0
  9
$USERI4
 70
     0
  9
$USERI5
 70
     0
  9
$USERR1
 40
0.0
  9
$USERR2
 40
0.0
  9
$USERR3
 40
0.0
  9
$USERR4
 40
0.0
  9
$USERR5
 40
0.0
  9
$WORLDVIEW
 70
     1
  9
$SHADEDGE
 70
     3
  9
$SHADEDIF
 70
    70
  9
$TILEMODE
 70
     1
  9
$MAXACTVP
 70
    16
  9
$PINSBASE
 10
0.0
 20
0.0
 30
0.0
  9
$PLIMCHECK
 70
     0
  9
$PEXTMIN
 10
1.000000E+20
 20
1.000000E+20
 30
1.000000E+20
  9
$PEXTMAX
 10
-1.000000E+20
 20
-1.000000E+20
 30
-1.000000E+20
  9
$PLIMMIN
 10
0.0
 20
0.0
  9
$PLIMMAX
 10
12.0
 20
9.0
  9
$UNITMODE
 70
     0
  9
$VISRETAIN
 70
     0
  9
$PLINEGEN
 70
     1
  9
$PSLTSCALE
 70
     0
  9
$TREEDEPTH
 70
  3020
  0
ENDSEC
  0
SECTION
  2
TABLES
  0
TABLE
  2
VPORT
 70
     1
  0
VPORT
  2
*ACTIVE
 70
     0
 10
0.0
 20
0.0
 11
1.0
 21
1.0
 12
6.591288
 22
4.579184
 13
0.0
 23
0.0
 14
1.0
 24
1.0
 15
0.0
 25
0.0
 16
0.0
 26
0.0
 36
1.0
 17
0.0
 27
0.0
 37
0.0
 40
9.158369
 41
0.688564
 42
50.0
 43
0.0
 44
0.0
 50
0.0
 51
0.0
 71
     0
 72
   100
 73
     1
 74
     1
 75
     0
 76
     0
 77
     0
 78
     0
  0
ENDTAB
  0
TABLE
  2
LTYPE
 70
     2
  0
LTYPE
  2
CONTINUOUS
 70
    64
  3
Solid line
 72
    65
 73
     0
 40
0.0
  0
LTYPE
  2
CENTER
 70
    64
  3
____ _ ____ _ ____ _ ____ _ ____ _ ____ _ ____
 72
    65
 73
     4
 40
2.0
 49
1.25
 49
-0.25
 49
0.25
 49
-0.25
  0
ENDTAB
  0
TABLE
  2
LAYER
 70
     1
  0
LAYER
  2
0
 70
     0
 62
     7
  6
CONTINUOUS
  0
ENDTAB
  0
TABLE
  2
STYLE
 70
     1
  0
STYLE
  2
STANDARD
 70
     0
 40
0.0
 41
1.0
 50
0.0
 71
     0
 42
0.0
  3
IsonormD
  4

  0
ENDTAB
  0
TABLE
  2
VIEW
 70
     0
  0
ENDTAB
  0
TABLE
  2
UCS
 70
     0
  0
ENDTAB
  0
TABLE
  2
APPID
 70
     2
  0
APPID
  2
ACAD
 70
     0
  0
APPID
  2
TopSolid_Draft
 70
     0
  0
ENDTAB
  0
TABLE
  2
DIMSTYLE
 70
     1
  0
DIMSTYLE
  2
STANDARD
 70
     0
  3

  4

  5

  6

  7

 40
1.0
 41
1.25
 42
1.0
 43
0.38
 44
0.75
 45
0.0
 46
0.0
 47
0.0
 48
0.0
 71
     0
 72
     0
 73
     0
 74
     0
 75
     0
 76
     0
 77
     1
 78
     0
140
2.5
141
0.09
142
0.0
143
25.4
144
1.0
145
0.0
146
0.8
147
1.25
170
     0
171
     2
172
     0
173
     0
174
     0
175
     0
176
     7
177
     7
178
     7
  0
ENDTAB
  0
ENDSEC
  0
SECTION
  2
BLOCKS
  0
BLOCK
  8
0
  5
25
  2
AID3
 70
     0
 10
0.0
 20
0.0
 30
0.0
  3
#draft view
  0
LINE
  8
0
  6
CONTINUOUS
 62
     7
  5
26
 10
268.769735
 20
400.681199
 30
0.0
 11
303.769735
 21
400.681199
 31
0.0
  0
LINE
  8
0
  6
CONTINUOUS
 62
     7
  5
27
 10
268.769735
 20
416.681199
 30
0.0
 11
303.769735
 21
416.681199
 31
0.0
  0
LINE
  8
0
  6
CONTINUOUS
 62
     7
  5
28
 10
278.269735
 20
423.081199
 30
0.0
 11
278.269735
 21
416.681199
 31
0.0
  0
LINE
  8
0
  6
CONTINUOUS
 62
     7
  5
29
 10
286.269735
 20
423.081199
 30
0.0
 11
286.269735
 21
416.681199
 31
0.0
  0
LINE
  8
0
  6
CONTINUOUS
 62
     7
  5
2A
 10
278.269735
 20
423.081199
 30
0.0
 11
286.269735
 21
423.081199
 31
0.0
  0
LINE
  8
0
  6
CONTINUOUS
 62
     7
  5
2B
 10
294.269735
 20
423.081199
 30
0.0
 11
294.269735
 21
416.681199
 31
0.0
  0
LINE
  8
0
  6
CONTINUOUS
 62
     7
  5
2C
 10
286.269735
 20
423.081199
 30
0.0
 11
294.269735
 21
423.081199
 31
0.0
  0
LINE
  8
0
  6
CONTINUOUS
 62
     7
  5
2D
 10
281.269735
 20
397.431199
 30
0.0
 11
291.269735
 21
397.431199
 31
0.0
  0
LINE
  8
0
  6
CONTINUOUS
 62
     7
  5
2E
 10
290.519735
 20
396.681199
 30
0.0
 11
282.019735
 21
396.681199
 31
0.0
  0
LINE
  8
0
  6
CONTINUOUS
 62
     7
  5
2F
 10
206.269735
 20
-97.818801
 30
0.0
 11
206.269735
 21
-109.318801
 31
0.0
  0
LINE
  8
0
  6
CONTINUOUS
 62
     7
  5
30
 10
366.269735
 20
-109.318801
 30
0.0
 11
206.269735
 21
-109.318801
 31
0.0
  0
LINE
  8
0
  6
CONTINUOUS
 62
     7
  5
31
 10
366.269735
 20
-97.818801
 30
0.0
 11
366.269735
 21
-109.318801
 31
0.0
  0
LINE
  8
0
  6
CONTINUOUS
 62
     7
  5
32
 10
366.269735
 20
-97.818801
 30
0.0
 11
206.269735
 21
-97.818801
 31
0.0
  0
LINE
  8
0
  6
CONTINUOUS
 62
     7
  5
33
 10
268.769735
 20
-91.318801
 30
0.0
 11
303.769735
 21
-91.318801
 31
0.0
  0
LINE
  8
0
  6
CONTINUOUS
 62
     7
  5
34
 10
339.769735
 20
144.681199
 30
0.0
 11
359.769735
 21
144.681199
 31
0.0
  0
LINE
  8
0
  6
CONTINUOUS
 62
     7
  5
35
 10
232.769735
 20
144.681199
 30
0.0
 11
212.769735
 21
144.681199
 31
0.0
  0
LINE
  8
0
  6
CONTINUOUS
 62
     7
  5
36
 10
213.497675
 20
146.681199
 30
0.0
 11
232.041794
 21
146.681199
 31
0.0
  0
LINE
  8
0
  6
CONTINUOUS
 62
     7
  5
37
 10
359.041794
 20
146.681199
 30
0.0
 11
340.497675
 21
146.681199
 31
0.0
  0
LINE
  8
0
  6
CONTINUOUS
 62
     7
  5
38
 10
176.269735
 20
-61.518801
 30
0.0
 11
176.269735
 21
-75.318801
 31
0.0
  0
LINE
  8
0
  6
CONTINUOUS
 62
     7
  5
39
 10
396.269735
 20
-61.518801
 30
0.0
 11
176.269735
 21
-61.518801
 31
0.0
  0
LINE
  8
0
  6
CONTINUOUS
 62
     7
  5
3A
 10
396.269735
 20
-61.518801
 30
0.0
 11
396.269735
 21
-75.318801
 31
0.0
  0
LINE
  8
0
  6
CONTINUOUS
 62
     7
  5
3B
 10
396.269735
 20
-75.318801
 30
0.0
 11
176.269735
 21
-75.318801
 31
0.0
  0
LINE
  8
0
  6
CONTINUOUS
 62
     7
  5
3C
 10
201.769735
 20
-27.518801
 30
0.0
 11
243.769735
 21
-27.518801
 31
0.0
  0
LINE
  8
0
  6
CONTINUOUS
 62
     7
  5
3D
 10
198.019735
 20
-31.268801
 30
0.0
 11
247.519735
 21
-31.268801
 31
0.0
  0
LINE
  8
0
  6
CONTINUOUS
 62
     7
  5
3E
 10
370.769735
 20
-27.518801
 30
0.0
 11
328.769735
 21
-27.518801
 31
0.0
  0
LINE
  8
0
  6
CONTINUOUS
 62
     7
  5
3F
 10
374.519735
 20
-31.268801
 30
0.0
 11
325.019735
 21
-31.268801
 31
0.0
  0
LINE
  8
0
  6
CONTINUOUS
 62
     7
  5
40
 10
303.240298
 20
-79.318801
 30
0.0
 11
303.240298
 21
-75.318801
 31
0.0
  0
LINE
  8
0
  6
CONTINUOUS
 62
     7
  5
41
 10
303.240298
 20
-79.318801
 30
0.0
 11
298.240298
 21
-79.318801
 31
0.0
  0
LINE
  8
0
  6
CONTINUOUS
 62
     7
  5
42
 10
298.240298
 20
-79.318801
 30
0.0
 11
298.240298
 21
-75.318801
 31
0.0
  0
LINE
  8
0
  6
CONTINUOUS
 62
     7
  5
43
 10
269.299172
 20
-79.318801
 30
0.0
 11
269.299172
 21
-75.318801
 31
0.0
  0
LINE
  8
0
  6
CONTINUOUS
 62
     7
  5
44
 10
269.299172
 20
-79.318801
 30
0.0
 11
264.299172
 21
-79.318801
 31
0.0
  0
LINE
  8
0
  6
CONTINUOUS
 62
     7
  5
45
 10
264.299172
 20
-79.318801
 30
0.0
 11
264.299172
 21
-75.318801
 31
0.0
  0
LINE
  8
0
  6
CONTINUOUS
 62
     7
  5
46
 10
308.240298
 20
-79.318801
 30
0.0
 11
308.240298
 21
-75.318801
 31
0.0
  0
LINE
  8
0
  6
CONTINUOUS
 62
     7
  5
47
 10
308.240298
 20
-79.318801
 30
0.0
 11
303.240298
 21
-79.318801
 31
0.0
  0
LINE
  8
0
  6
CONTINUOUS
 62
     7
  5
48
 10
274.299172
 20
-79.318801
 30
0.0
 11
274.299172
 21
-75.318801
 31
0.0
  0
LINE
  8
0
  6
CONTINUOUS
 62
     7
  5
49
 10
274.299172
 20
-79.318801
 30
0.0
 11
269.299172
 21
-79.318801
 31
0.0
  0
LINE
  8
0
  6
CONTINUOUS
 62
     7
  5
4A
 10
367.769735
 20
48.481199
 30
0.0
 11
331.769735
 21
48.481199
 31
0.0
  0
LINE
  8
0
  6
CONTINUOUS
 62
     9
  5
4B
 10
328.769735
 20
45.481199
 30
0.0
 11
370.769735
 21
45.481199
 31
0.0
  0
LINE
  8
0
  6
CONTINUOUS
 62
     9
  5
4C
 10
243.769735
 20
45.481199
 30
0.0
 11
201.769735
 21
45.481199
 31
0.0
  0
LINE
  8
0
  6
CONTINUOUS
 62
     7
  5
4D
 10
204.769735
 20
48.481199
 30
0.0
 11
240.769735
 21
48.481199
 31
0.0
  0
LINE
  8
0
  6
CONTINUOUS
 62
     7
  5
4E
 10
266.289735
 20
-60.818801
 30
0.0
 11
266.299172
 21
-60.818801
 31
0.0
  0
LINE
  8
0
  6
CONTINUOUS
 62
     7
  5
4F
 10
272.299172
 20
-60.818801
 30
0.0
 11
300.240298
 21
-60.818801
 31
0.0
  0
LINE
  8
0
  6
CONTINUOUS
 62
     7
  5
50
 10
306.240298
 20
-60.818801
 30
0.0
 11
306.249735
 21
-60.818801
 31
0.0
  0
LINE
  8
0
  6
CONTINUOUS
 62
     7
  5
51
 10
306.240298
 20
-50.818801
 30
0.0
 11
300.240298
 21
-50.818801
 31
0.0
  0
LINE
  8
0
  6
CONTINUOUS
 62
     7
  5
52
 10
300.740298
 20
-50.318801
 30
0.0
 11
305.740298
 21
-50.318801
 31
0.0
  0
LINE
  8
0
  6
CONTINUOUS
 62
     7
  5
53
 10
272.299172
 20
-50.818801
 30
0.0
 11
266.299172
 21
-50.818801
 31
0.0
  0
LINE
  8
0
  6
CONTINUOUS
 62
     7
  5
54
 10
266.799172
 20
-50.318801
 30
0.0
 11
271.799172
 21
-50.318801
 31
0.0
  0
LINE
  8
0
  6
CONTINUOUS
 62
     7
  5
55
 10
241.911871
 20
-79.318801
 30
0.0
 11
241.911871
 21
-75.318801
 31
0.0
  0
LINE
  8
0
  6
CONTINUOUS
 62
     7
  5
56
 10
241.911871
 20
-79.318801
 30
0.0
 11
236.911871
 21
-79.318801
 31
0.0
  0
LINE
  8
0
  6
CONTINUOUS
 62
     7
  5
57
 10
236.911871
 20
-79.318801
 30
0.0
 11
236.911871
 21
-75.318801
 31
0.0
  0
LINE
  8
0
  6
CONTINUOUS
 62
     7
  5
58
 10
208.627599
 20
-79.318801
 30
0.0
 11
208.627599
 21
-75.318801
 31
0.0
  0
LINE
  8
0
  6
CONTINUOUS
 62
     7
  5
59
 10
208.627599
 20
-79.318801
 30
0.0
 11
203.627599
 21
-79.318801
 31
0.0
  0
LINE
  8
0
  6
CONTINUOUS
 62
     7
  5
5A
 10
203.627599
 20
-79.318801
 30
0.0
 11
203.627599
 21
-75.318801
 31
0.0
  0
LINE
  8
0
  6
CONTINUOUS
 62
     7
  5
5B
 10
213.627599
 20
-79.318801
 30
0.0
 11
213.627599
 21
-75.318801
 31
0.0
  0
LINE
  8
0
  6
CONTINUOUS
 62
     7
  5
5C
 10
213.627599
 20
-79.318801
 30
0.0
 11
208.627599
 21
-79.318801
 31
0.0
  0
LINE
  8
0
  6
CONTINUOUS
 62
     7
  5
5D
 10
236.911871
 20
-79.318801
 30
0.0
 11
231.911871
 21
-79.318801
 31
0.0
  0
LINE
  8
0
  6
CONTINUOUS
 62
     7
  5
5E
 10
231.911871
 20
-79.318801
 30
0.0
 11
231.911871
 21
-75.318801
 31
0.0
  0
LINE
  8
0
  6
CONTINUOUS
 62
     7
  5
5F
 10
335.627599
 20
-79.318801
 30
0.0
 11
335.627599
 21
-75.318801
 31
0.0
  0
LINE
  8
0
  6
CONTINUOUS
 62
     7
  5
60
 10
335.627599
 20
-79.318801
 30
0.0
 11
330.627599
 21
-79.318801
 31
0.0
  0
LINE
  8
0
  6
CONTINUOUS
 62
     7
  5
61
 10
330.627599
 20
-79.318801
 30
0.0
 11
330.627599
 21
-75.318801
 31
0.0
  0
LINE
  8
0
  6
CONTINUOUS
 62
     7
  5
62
 10
340.627599
 20
-79.318801
 30
0.0
 11
340.627599
 21
-75.318801
 31
0.0
  0
LINE
  8
0
  6
CONTINUOUS
 62
     7
  5
63
 10
340.627599
 20
-79.318801
 30
0.0
 11
335.627599
 21
-79.318801
 31
0.0
  0
LINE
  8
0
  6
CONTINUOUS
 62
     7
  5
64
 10
368.911871
 20
-79.318801
 30
0.0
 11
368.911871
 21
-75.318801
 31
0.0
  0
LINE
  8
0
  6
CONTINUOUS
 62
     7
  5
65
 10
368.911871
 20
-79.318801
 30
0.0
 11
363.911871
 21
-79.318801
 31
0.0
  0
LINE
  8
0
  6
CONTINUOUS
 62
     7
  5
66
 10
363.911871
 20
-79.318801
 30
0.0
 11
363.911871
 21
-75.318801
 31
0.0
  0
LINE
  8
0
  6
CONTINUOUS
 62
     7
  5
67
 10
363.911871
 20
-79.318801
 30
0.0
 11
358.911871
 21
-79.318801
 31
0.0
  0
LINE
  8
0
  6
CONTINUOUS
 62
     7
  5
68
 10
358.911871
 20
-79.318801
 30
0.0
 11
358.911871
 21
-75.318801
 31
0.0
  0
LINE
  8
0
  6
CONTINUOUS
 62
     7
  5
69
 10
212.419735
 20
50.081199
 30
0.0
 11
233.119735
 21
50.081199
 31
0.0
  0
LINE
  8
0
  6
CONTINUOUS
 62
     7
  5
6A
 10
360.119735
 20
50.081199
 30
0.0
 11
339.419735
 21
50.081199
 31
0.0
  0
LINE
  8
0
  6
CONTINUOUS
 62
     7
  5
6B
 10
358.911871
 20
-76.918801
 30
0.0
 11
340.627599
 21
-76.918801
 31
0.0
  0
LINE
  8
0
  6
CONTINUOUS
 62
     7
  5
6C
 10
213.627599
 20
-76.918801
 30
0.0
 11
231.911871
 21
-76.918801
 31
0.0
  0
LINE
  8
0
  6
CONTINUOUS
 62
     7
  5
6D
 10
303.769735
 20
400.681199
 30
0.0
 11
303.769735
 21
416.681199
 31
0.0
  0
LINE
  8
0
  6
CONTINUOUS
 62
     7
  5
6E
 10
268.769735
 20
416.681199
 30
0.0
 11
268.769735
 21
400.681199
 31
0.0
  0
LINE
  8
0
  6
CONTINUOUS
 62
     7
  5
6F
 10
281.269735
 20
400.681199
 30
0.0
 11
281.269735
 21
397.431199
 31
0.0
  0
LINE
  8
0
  6
CONTINUOUS
 62
     7
  5
70
 10
291.269735
 20
397.431199
 30
0.0
 11
291.269735
 21
400.681199
 31
0.0
  0
LINE
  8
0
  6
CONTINUOUS
 62
     7
  5
71
 10
281.269735
 20
397.431199
 30
0.0
 11
282.019735
 21
396.681199
 31
0.0
  0
LINE
  8
0
  6
CONTINUOUS
 62
     7
  5
72
 10
290.519735
 20
396.681199
 30
0.0
 11
291.269735
 21
397.431199
 31
0.0
  0
LINE
  8
0
  6
CONTINUOUS
 62
     7
  5
73
 10
268.769735
 20
-79.318801
 30
0.0
 11
268.769735
 21
-91.318801
 31
0.0
  0
LINE
  8
0
  6
CONTINUOUS
 62
     7
  5
74
 10
303.769735
 20
-91.318801
 30
0.0
 11
303.769735
 21
-79.318801
 31
0.0
  0
LINE
  8
0
  6
CONTINUOUS
 62
     7
  5
75
 10
296.769735
 20
-97.818801
 30
0.0
 11
296.769735
 21
-91.318801
 31
0.0
  0
LINE
  8
0
  6
CONTINUOUS
 62
     7
  5
76
 10
275.769735
 20
-91.318801
 30
0.0
 11
275.769735
 21
-97.818801
 31
0.0
  0
LINE
  8
0
  6
CONTINUOUS
 62
     7
  5
77
 10
339.769735
 20
144.681199
 30
0.0
 11
339.769735
 21
50.081199
 31
0.0
  0
LINE
  8
0
  6
CONTINUOUS
 62
     7
  5
78
 10
339.769735
 20
-79.318801
 30
0.0
 11
339.769735
 21
-97.818801
 31
0.0
  0
LINE
  8
0
  6
CONTINUOUS
 62
     7
  5
79
 10
359.769735
 20
-97.818801
 30
0.0
 11
359.769735
 21
-79.318801
 31
0.0
  0
LINE
  8
0
  6
CONTINUOUS
 62
     7
  5
7A
 10
359.769735
 20
50.081199
 30
0.0
 11
359.769735
 21
144.681199
 31
0.0
  0
LINE
  8
0
  6
CONTINUOUS
 62
     7
  5
7B
 10
212.769735
 20
144.681199
 30
0.0
 11
212.769735
 21
50.081199
 31
0.0
  0
LINE
  8
0
  6
CONTINUOUS
 62
     7
  5
7C
 10
212.769735
 20
-79.318801
 30
0.0
 11
212.769735
 21
-97.818801
 31
0.0
  0
LINE
  8
0
  6
CONTINUOUS
 62
     7
  5
7D
 10
232.769735
 20
-97.818801
 30
0.0
 11
232.769735
 21
-79.318801
 31
0.0
  0
LINE
  8
0
  6
CONTINUOUS
 62
     7
  5
7E
 10
232.769735
 20
50.081199
 30
0.0
 11
232.769735
 21
144.681199
 31
0.0
  0
LINE
  8
0
  6
CONTINUOUS
 62
     7
  5
7F
 10
232.769735
 20
144.681199
 30
0.0
 11
232.041794
 21
146.681199
 31
0.0
  0
LINE
  8
0
  6
CONTINUOUS
 62
     7
  5
80
 10
213.497675
 20
146.681199
 30
0.0
 11
212.769735
 21
144.681199
 31
0.0
  0
LINE
  8
0
  6
CONTINUOUS
 62
     7
  5
81
 10
359.769735
 20
144.681199
 30
0.0
 11
359.041794
 21
146.681199
 31
0.0
  0
LINE
  8
0
  6
CONTINUOUS
 62
     7
  5
82
 10
340.497675
 20
146.681199
 30
0.0
 11
339.769735
 21
144.681199
 31
0.0
  0
LINE
  8
0
  6
CONTINUOUS
 62
     7
  5
83
 10
247.519735
 20
-31.268801
 30
0.0
 11
243.769735
 21
-27.518801
 31
0.0
  0
LINE
  8
0
  6
CONTINUOUS
 62
     7
  5
84
 10
201.769735
 20
-27.518801
 30
0.0
 11
198.019735
 21
-31.268801
 31
0.0
  0
LINE
  8
0
  6
CONTINUOUS
 62
     7
  5
85
 10
247.519735
 20
-61.518801
 30
0.0
 11
247.519735
 21
-31.268801
 31
0.0
  0
LINE
  8
0
  6
CONTINUOUS
 62
     7
  5
86
 10
198.019735
 20
-31.268801
 30
0.0
 11
198.019735
 21
-61.518801
 31
0.0
  0
LINE
  8
0
  6
CONTINUOUS
 62
     7
  5
87
 10
374.519735
 20
-31.268801
 30
0.0
 11
370.769735
 21
-27.518801
 31
0.0
  0
LINE
  8
0
  6
CONTINUOUS
 62
     7
  5
88
 10
328.769735
 20
-27.518801
 30
0.0
 11
325.019735
 21
-31.268801
 31
0.0
  0
LINE
  8
0
  6
CONTINUOUS
 62
     7
  5
89
 10
374.519735
 20
-61.518801
 30
0.0
 11
374.519735
 21
-31.268801
 31
0.0
  0
LINE
  8
0
  6
CONTINUOUS
 62
     7
  5
8A
 10
325.019735
 20
-31.268801
 30
0.0
 11
325.019735
 21
-61.518801
 31
0.0
  0
ARC
  8
0
  6
CONTINUOUS
 62
     7
  5
8B
 10
331.769735
 20
45.481199
 30
0.0
 40
3.0
 50
90.0
 51
180.0
210
0.0
220
0.0
230
1.0
  0
ARC
  8
0
  6
CONTINUOUS
 62
     7
  5
8C
 10
367.769735
 20
45.481199
 30
0.0
 40
3.0
 50
0.0
 51
90.0
210
0.0
220
0.0
230
1.0
  0
LINE
  8
0
  6
CONTINUOUS
 62
     7
  5
8D
 10
243.769735
 20
-27.518801
 30
0.0
 11
243.769735
 21
45.481199
 31
0.0
  0
LINE
  8
0
  6
CONTINUOUS
 62
     7
  5
8E
 10
201.769735
 20
45.481199
 30
0.0
 11
201.769735
 21
-27.518801
 31
0.0
  0
ARC
  8
0
  6
CONTINUOUS
 62
     7
  5
8F
 10
204.769735
 20
45.481199
 30
0.0
 40
3.0
 50
90.0
 51
180.0
210
0.0
220
0.0
230
1.0
  0
ARC
  8
0
  6
CONTINUOUS
 62
     7
  5
90
 10
240.769735
 20
45.481199
 30
0.0
 40
3.0
 50
0.0
 51
90.0
210
0.0
220
0.0
230
1.0
  0
LINE
  8
0
  6
CONTINUOUS
 62
     7
  5
91
 10
370.769735
 20
-27.518801
 30
0.0
 11
370.769735
 21
45.481199
 31
0.0
  0
LINE
  8
0
  6
CONTINUOUS
 62
     7
  5
92
 10
328.769735
 20
45.481199
 30
0.0
 11
328.769735
 21
-27.518801
 31
0.0
  0
LINE
  8
0
  6
CONTINUOUS
 62
     7
  5
93
 10
306.249735
 20
-61.518801
 30
0.0
 11
306.249735
 21
-60.818801
 31
0.0
  0
LINE
  8
0
  6
CONTINUOUS
 62
     7
  5
94
 10
266.289735
 20
-60.818801
 30
0.0
 11
266.289735
 21
-61.518801
 31
0.0
  0
LINE
  8
0
  6
CONTINUOUS
 62
     7
  5
95
 10
306.240298
 20
-61.518801
 30
0.0
 11
306.240298
 21
-50.818801
 31
0.0
  0
LINE
  8
0
  6
CONTINUOUS
 62
     7
  5
96
 10
300.240298
 20
-50.818801
 30
0.0
 11
300.240298
 21
-61.518801
 31
0.0
  0
LINE
  8
0
  6
CONTINUOUS
 62
     7
  5
97
 10
306.240298
 20
-50.818801
 30
0.0
 11
305.740298
 21
-50.318801
 31
0.0
  0
LINE
  8
0
  6
CONTINUOUS
 62
     7
  5
98
 10
300.740298
 20
-50.318801
 30
0.0
 11
300.240298
 21
-50.818801
 31
0.0
  0
LINE
  8
0
  6
CONTINUOUS
 62
     7
  5
99
 10
272.299172
 20
-61.518801
 30
0.0
 11
272.299172
 21
-50.818801
 31
0.0
  0
LINE
  8
0
  6
CONTINUOUS
 62
     7
  5
9A
 10
266.299172
 20
-50.818801
 30
0.0
 11
266.299172
 21
-61.518801
 31
0.0
  0
LINE
  8
0
  6
CONTINUOUS
 62
     7
  5
9B
 10
272.299172
 20
-50.818801
 30
0.0
 11
271.799172
 21
-50.318801
 31
0.0
  0
LINE
  8
0
  6
CONTINUOUS
 62
     7
  5
9C
 10
266.799172
 20
-50.318801
 30
0.0
 11
266.299172
 21
-50.818801
 31
0.0
  0
LINE
  8
0
  6
CONTINUOUS
 62
     7
  5
9D
 10
235.019735
 20
48.481199
 30
0.0
 11
233.119735
 21
50.081199
 31
0.0
  0
LINE
  8
0
  6
CONTINUOUS
 62
     7
  5
9E
 10
212.419735
 20
50.081199
 30
0.0
 11
210.519735
 21
48.481199
 31
0.0
  0
LINE
  8
0
  6
CONTINUOUS
 62
     7
  5
9F
 10
362.019735
 20
48.481199
 30
0.0
 11
360.119735
 21
50.081199
 31
0.0
  0
LINE
  8
0
  6
CONTINUOUS
 62
     7
  5
A0
 10
339.419735
 20
50.081199
 30
0.0
 11
337.519735
 21
48.481199
 31
0.0
  0
ENDBLK
  8
0
  5
A1
  0
BLOCK
  8
0
  5
A4
  2
AID253
 70
     0
 10
0.0
 20
0.0
 30
0.0
  3
#auxiliary draft view
  0
LINE
  8
0
  6
CONTINUOUS
 62
     7
  5
A5
 10
18.395188
 20
400.681199
 30
0.0
 11
53.395188
 21
400.681199
 31
0.0
  0
LINE
  8
0
  6
CONTINUOUS
 62
     7
  5
A6
 10
18.395188
 20
416.681199
 30
0.0
 11
53.395188
 21
416.681199
 31
0.0
  0
LINE
  8
0
  6
CONTINUOUS
 62
     7
  5
A7
 10
31.276386
 20
423.081199
 30
0.0
 11
31.276386
 21
416.681199
 31
0.0
  0
LINE
  8
0
  6
CONTINUOUS
 62
     7
  5
A8
 10
31.276386
 20
423.081199
 30
0.0
 11
40.51399
 21
423.081199
 31
0.0
  0
LINE
  8
0
  6
CONTINUOUS
 62
     7
  5
A9
 10
40.51399
 20
423.081199
 30
0.0
 11
40.51399
 21
416.681199
 31
0.0
  0
LINE
  8
0
  6
CONTINUOUS
 62
     7
  5
AA
 10
40.51399
 20
423.081199
 30
0.0
 11
45.132792
 21
423.081199
 31
0.0
  0
LINE
  8
0
  6
CONTINUOUS
 62
     7
  5
AB
 10
45.132792
 20
423.081199
 30
0.0
 11
45.132792
 21
416.681199
 31
0.0
  0
LINE
  8
0
  6
CONTINUOUS
 62
     7
  5
AC
 10
26.657583
 20
423.081199
 30
0.0
 11
26.657583
 21
416.681199
 31
0.0
  0
LINE
  8
0
  6
CONTINUOUS
 62
     7
  5
AD
 10
26.657583
 20
423.081199
 30
0.0
 11
31.276386
 21
423.081199
 31
0.0
  0
LINE
  8
0
  6
CONTINUOUS
 62
     7
  5
AE
 10
40.145188
 20
396.681199
 30
0.0
 11
35.895188
 21
396.681199
 31
0.0
  0
LINE
  8
0
  6
CONTINUOUS
 62
     7
  5
AF
 10
30.895188
 20
397.431199
 30
0.0
 11
35.895188
 21
397.431199
 31
0.0
  0
LINE
  8
0
  6
CONTINUOUS
 62
     7
  5
B0
 10
35.895188
 20
396.681199
 30
0.0
 11
31.645188
 21
396.681199
 31
0.0
  0
LINE
  8
0
  6
CONTINUOUS
 62
     7
  5
B1
 10
35.895188
 20
397.431199
 30
0.0
 11
40.895188
 21
397.431199
 31
0.0
  0
LINE
  8
0
  6
CONTINUOUS
 62
     7
  5
B2
 10
11.895188
 20
-97.818801
 30
0.0
 11
11.895188
 21
-109.318801
 31
0.0
  0
LINE
  8
0
  6
CONTINUOUS
 62
     7
  5
B3
 10
59.895188
 20
-97.818801
 30
0.0
 11
11.895188
 21
-97.818801
 31
0.0
  0
LINE
  8
0
  6
CONTINUOUS
 62
     7
  5
B4
 10
59.895188
 20
-97.818801
 30
0.0
 11
59.895188
 21
-109.318801
 31
0.0
  0
LINE
  8
0
  6
CONTINUOUS
 62
     7
  5
B5
 10
59.895188
 20
-109.318801
 30
0.0
 11
11.895188
 21
-109.318801
 31
0.0
  0
LINE
  8
0
  6
CONTINUOUS
 62
     7
  5
B6
 10
25.895188
 20
144.681199
 30
0.0
 11
35.895188
 21
144.681199
 31
0.0
  0
LINE
  8
0
  6
CONTINUOUS
 62
     7
  5
B7
 10
35.895188
 20
144.681199
 30
0.0
 11
45.895188
 21
144.681199
 31
0.0
  0
LINE
  8
0
  6
CONTINUOUS
 62
     7
  5
B8
 10
45.167247
 20
146.681199
 30
0.0
 11
35.895188
 21
146.681199
 31
0.0
  0
LINE
  8
0
  6
CONTINUOUS
 62
     7
  5
B9
 10
35.895188
 20
146.681199
 30
0.0
 11
26.623128
 21
146.681199
 31
0.0
  0
LINE
  8
0
  6
CONTINUOUS
 62
     7
  5
BA
 10
18.395188
 20
-91.318801
 30
0.0
 11
25.895188
 21
-91.318801
 31
0.0
  0
LINE
  8
0
  6
CONTINUOUS
 62
     7
  5
BB
 10
45.895188
 20
-91.318801
 30
0.0
 11
53.395188
 21
-91.318801
 31
0.0
  0
LINE
  8
0
  6
CONTINUOUS
 62
     7
  5
BC
 10
65.895188
 20
-61.518801
 30
0.0
 11
5.895188
 21
-61.518801
 31
0.0
  0
LINE
  8
0
  6
CONTINUOUS
 62
     7
  5
BD
 10
65.895188
 20
-61.518801
 30
0.0
 11
65.895188
 21
-75.318801
 31
0.0
  0
LINE
  8
0
  6
CONTINUOUS
 62
     7
  5
BE
 10
65.895188
 20
-75.318801
 30
0.0
 11
5.895188
 21
-75.318801
 31
0.0
  0
LINE
  8
0
  6
CONTINUOUS
 62
     7
  5
BF
 10
5.895188
 20
-61.518801
 30
0.0
 11
5.895188
 21
-75.318801
 31
0.0
  0
LINE
  8
0
  6
CONTINUOUS
 62
     7
  5
C0
 10
60.645188
 20
-31.268801
 30
0.0
 11
11.145188
 21
-31.268801
 31
0.0
  0
LINE
  8
0
  6
CONTINUOUS
 62
     7
  5
C1
 10
56.895188
 20
-27.518801
 30
0.0
 11
14.895188
 21
-27.518801
 31
0.0
  0
LINE
  8
0
  6
CONTINUOUS
 62
     9
  5
C2
 10
14.895188
 20
45.481199
 30
0.0
 11
56.895188
 21
45.481199
 31
0.0
  0
LINE
  8
0
  6
CONTINUOUS
 62
     7
  5
C3
 10
53.895188
 20
48.481199
 30
0.0
 11
17.895188
 21
48.481199
 31
0.0
  0
LINE
  8
0
  6
CONTINUOUS
 62
     7
  5
C4
 10
47.150572
 20
-79.318801
 30
0.0
 11
47.150572
 21
-75.318801
 31
0.0
  0
LINE
  8
0
  6
CONTINUOUS
 62
     7
  5
C5
 10
47.150572
 20
-79.318801
 30
0.0
 11
44.263821
 21
-79.318801
 31
0.0
  0
LINE
  8
0
  6
CONTINUOUS
 62
     7
  5
C6
 10
44.263821
 20
-79.318801
 30
0.0
 11
44.263821
 21
-75.318801
 31
0.0
  0
LINE
  8
0
  6
CONTINUOUS
 62
     7
  5
C7
 10
55.810826
 20
-79.318801
 30
0.0
 11
55.810826
 21
-75.318801
 31
0.0
  0
LINE
  8
0
  6
CONTINUOUS
 62
     7
  5
C8
 10
55.810826
 20
-79.318801
 30
0.0
 11
52.924075
 21
-79.318801
 31
0.0
  0
LINE
  8
0
  6
CONTINUOUS
 62
     7
  5
C9
 10
52.924075
 20
-79.318801
 30
0.0
 11
52.924075
 21
-75.318801
 31
0.0
  0
LINE
  8
0
  6
CONTINUOUS
 62
     7
  5
CA
 10
52.924075
 20
-79.318801
 30
0.0
 11
47.150572
 21
-79.318801
 31
0.0
  0
LINE
  8
0
  6
CONTINUOUS
 62
     7
  5
CB
 10
24.639804
 20
-79.318801
 30
0.0
 11
24.639804
 21
-75.318801
 31
0.0
  0
LINE
  8
0
  6
CONTINUOUS
 62
     7
  5
CC
 10
24.639804
 20
-79.318801
 30
0.0
 11
18.866301
 21
-79.318801
 31
0.0
  0
LINE
  8
0
  6
CONTINUOUS
 62
     7
  5
CD
 10
18.866301
 20
-79.318801
 30
0.0
 11
18.866301
 21
-75.318801
 31
0.0
  0
LINE
  8
0
  6
CONTINUOUS
 62
     7
  5
CE
 10
15.979549
 20
-79.318801
 30
0.0
 11
15.979549
 21
-75.318801
 31
0.0
  0
LINE
  8
0
  6
CONTINUOUS
 62
     7
  5
CF
 10
18.866301
 20
-79.318801
 30
0.0
 11
15.979549
 21
-79.318801
 31
0.0
  0
LINE
  8
0
  6
CONTINUOUS
 62
     7
  5
D0
 10
27.526555
 20
-79.318801
 30
0.0
 11
27.526555
 21
-75.318801
 31
0.0
  0
LINE
  8
0
  6
CONTINUOUS
 62
     7
  5
D1
 10
27.526555
 20
-79.318801
 30
0.0
 11
24.639804
 21
-79.318801
 31
0.0
  0
LINE
  8
0
  6
CONTINUOUS
 62
     7
  5
D2
 10
46.245188
 20
50.081199
 30
0.0
 11
25.545188
 21
50.081199
 31
0.0
  0
LINE
  8
0
  6
CONTINUOUS
 62
     7
  5
D3
 10
44.263821
 20
-76.918801
 30
0.0
 11
35.895188
 21
-76.918801
 31
0.0
  0
LINE
  8
0
  6
CONTINUOUS
 62
     7
  5
D4
 10
35.895188
 20
-76.918801
 30
0.0
 11
27.526555
 21
-76.918801
 31
0.0
  0
LINE
  8
0
  6
CONTINUOUS
 62
     7
  5
D5
 10
58.639253
 20
-79.318801
 30
0.0
 11
58.639253
 21
-75.318801
 31
0.0
  0
LINE
  8
0
  6
CONTINUOUS
 62
     7
  5
D6
 10
58.639253
 20
-79.318801
 30
0.0
 11
55.810826
 21
-79.318801
 31
0.0
  0
LINE
  8
0
  6
CONTINUOUS
 62
     7
  5
D7
 10
15.979549
 20
-79.318801
 30
0.0
 11
13.151122
 21
-79.318801
 31
0.0
  0
LINE
  8
0
  6
CONTINUOUS
 62
     7
  5
D8
 10
13.151122
 20
-79.318801
 30
0.0
 11
13.151122
 21
-75.318801
 31
0.0
  0
LINE
  8
0
  6
CONTINUOUS
 62
     7
  5
D9
 10
53.395188
 20
400.681199
 30
0.0
 11
53.395188
 21
416.681199
 31
0.0
  0
LINE
  8
0
  6
CONTINUOUS
 62
     7
  5
DA
 10
18.395188
 20
416.681199
 30
0.0
 11
18.395188
 21
400.681199
 31
0.0
  0
LINE
  8
0
  6
CONTINUOUS
 62
     7
  5
DB
 10
30.895188
 20
397.431199
 30
0.0
 11
31.645188
 21
396.681199
 31
0.0
  0
LINE
  8
0
  6
CONTINUOUS
 62
     7
  5
DC
 10
40.145188
 20
396.681199
 30
0.0
 11
40.895188
 21
397.431199
 31
0.0
  0
LINE
  8
0
  6
CONTINUOUS
 62
     7
  5
DD
 10
30.895188
 20
400.681199
 30
0.0
 11
30.895188
 21
397.431199
 31
0.0
  0
LINE
  8
0
  6
CONTINUOUS
 62
     7
  5
DE
 10
40.895188
 20
397.431199
 30
0.0
 11
40.895188
 21
400.681199
 31
0.0
  0
LINE
  8
0
  6
CONTINUOUS
 62
     7
  5
DF
 10
25.895188
 20
144.681199
 30
0.0
 11
25.895188
 21
50.081199
 31
0.0
  0
LINE
  8
0
  6
CONTINUOUS
 62
     7
  5
E0
 10
25.895188
 20
-79.318801
 30
0.0
 11
25.895188
 21
-97.818801
 31
0.0
  0
LINE
  8
0
  6
CONTINUOUS
 62
     7
  5
E1
 10
45.895188
 20
-97.818801
 30
0.0
 11
45.895188
 21
-79.318801
 31
0.0
  0
LINE
  8
0
  6
CONTINUOUS
 62
     7
  5
E2
 10
45.895188
 20
50.081199
 30
0.0
 11
45.895188
 21
144.681199
 31
0.0
  0
LINE
  8
0
  6
CONTINUOUS
 62
     7
  5
E3
 10
45.895188
 20
144.681199
 30
0.0
 11
45.167247
 21
146.681199
 31
0.0
  0
LINE
  8
0
  6
CONTINUOUS
 62
     7
  5
E4
 10
26.623128
 20
146.681199
 30
0.0
 11
25.895188
 21
144.681199
 31
0.0
  0
LINE
  8
0
  6
CONTINUOUS
 62
     7
  5
E5
 10
18.395188
 20
-79.318801
 30
0.0
 11
18.395188
 21
-91.318801
 31
0.0
  0
LINE
  8
0
  6
CONTINUOUS
 62
     7
  5
E6
 10
53.395188
 20
-91.318801
 30
0.0
 11
53.395188
 21
-79.318801
 31
0.0
  0
LINE
  8
0
  6
CONTINUOUS
 62
     7
  5
E7
 10
46.395188
 20
-97.818801
 30
0.0
 11
46.395188
 21
-91.318801
 31
0.0
  0
LINE
  8
0
  6
CONTINUOUS
 62
     7
  5
E8
 10
25.395188
 20
-91.318801
 30
0.0
 11
25.395188
 21
-97.818801
 31
0.0
  0
LINE
  8
0
  6
CONTINUOUS
 62
     7
  5
E9
 10
60.645188
 20
-61.518801
 30
0.0
 11
60.645188
 21
-31.268801
 31
0.0
  0
LINE
  8
0
  6
CONTINUOUS
 62
     7
  5
EA
 10
11.145188
 20
-31.268801
 30
0.0
 11
11.145188
 21
-61.518801
 31
0.0
  0
LINE
  8
0
  6
CONTINUOUS
 62
     7
  5
EB
 10
60.645188
 20
-31.268801
 30
0.0
 11
56.895188
 21
-27.518801
 31
0.0
  0
LINE
  8
0
  6
CONTINUOUS
 62
     7
  5
EC
 10
14.895188
 20
-27.518801
 30
0.0
 11
11.145188
 21
-31.268801
 31
0.0
  0
LINE
  8
0
  6
CONTINUOUS
 62
     7
  5
ED
 10
56.895188
 20
-27.518801
 30
0.0
 11
56.895188
 21
45.481199
 31
0.0
  0
LINE
  8
0
  6
CONTINUOUS
 62
     7
  5
EE
 10
14.895188
 20
45.481199
 30
0.0
 11
14.895188
 21
-27.518801
 31
0.0
  0
ARC
  8
0
  6
CONTINUOUS
 62
     7
  5
EF
 10
17.895188
 20
45.481199
 30
0.0
 40
3.0
 50
90.0
 51
180.0
210
0.0
220
0.0
230
1.0
  0
ARC
  8
0
  6
CONTINUOUS
 62
     7
  5
F0
 10
53.895188
 20
45.481199
 30
0.0
 40
3.0
 50
0.0
 51
90.0
210
0.0
220
0.0
230
1.0
  0
LINE
  8
0
  6
CONTINUOUS
 62
     7
  5
F1
 10
48.145188
 20
48.481199
 30
0.0
 11
46.245188
 21
50.081199
 31
0.0
  0
LINE
  8
0
  6
CONTINUOUS
 62
     7
  5
F2
 10
25.545188
 20
50.081199
 30
0.0
 11
23.645188
 21
48.481199
 31
0.0
  0
ENDBLK
  8
0
  5
F3
  0
BLOCK
  8
0
  5
F6
  2
AID413
 70
     0
 10
0.0
 20
0.0
 30
0.0
  3
#auxiliary draft view
  0
CIRCLE
  8
0
  6
CONTINUOUS
 62
     7
  5
F7
 10
326.269735
 20
511.104424
 30
0.0
 40
4.25
210
0.0
220
0.0
230
1.0
  0
CIRCLE
  8
0
  6
CONTINUOUS
 62
     7
  5
F8
 10
326.269735
 20
541.104424
 30
0.0
 40
4.25
210
0.0
220
0.0
230
1.0
  0
CIRCLE
  8
0
  6
CONTINUOUS
 62
     7
  5
F9
 10
246.269735
 20
511.104424
 30
0.0
 40
4.25
210
0.0
220
0.0
230
1.0
  0
LINE
  8
0
  6
CONTINUOUS
 62
     7
  5
FA
 10
206.269735
 20
502.104424
 30
0.0
 11
366.269735
 21
502.104424
 31
0.0
  0
LINE
  8
0
  6
CONTINUOUS
 62
     7
  5
FB
 10
366.269735
 20
502.104424
 30
0.0
 11
366.269735
 21
550.104424
 31
0.0
  0
LINE
  8
0
  6
CONTINUOUS
 62
     7
  5
FC
 10
366.269735
 20
550.104424
 30
0.0
 11
206.269735
 21
550.104424
 31
0.0
  0
LINE
  8
0
  6
CONTINUOUS
 62
     7
  5
FD
 10
206.269735
 20
550.104424
 30
0.0
 11
206.269735
 21
502.104424
 31
0.0
  0
CIRCLE
  8
0
  6
CONTINUOUS
 62
     7
  5
FE
 10
246.269735
 20
541.104424
 30
0.0
 40
4.25
210
0.0
220
0.0
230
1.0
  0
LINE
  8
0
  6
CONTINUOUS
 62
     7
  5
FF
 10
368.911871
 20
543.133311
 30
0.0
 11
366.269735
 21
544.658748
 31
0.0
  0
LINE
  8
0
  6
CONTINUOUS
 62
     7
  5
100
 10
368.911871
 20
537.359808
 30
0.0
 11
368.911871
 21
543.133311
 31
0.0
  0
LINE
  8
0
  6
CONTINUOUS
 62
     7
  5
101
 10
366.269735
 20
535.83437
 30
0.0
 11
368.911871
 21
537.359808
 31
0.0
  0
LINE
  8
0
  6
CONTINUOUS
 62
     7
  5
102
 10
206.269735
 20
544.658748
 30
0.0
 11
203.627599
 21
543.133311
 31
0.0
  0
LINE
  8
0
  6
CONTINUOUS
 62
     7
  5
103
 10
203.627599
 20
537.359808
 30
0.0
 11
206.269735
 21
535.83437
 31
0.0
  0
LINE
  8
0
  6
CONTINUOUS
 62
     7
  5
104
 10
203.627599
 20
543.133311
 30
0.0
 11
203.627599
 21
537.359808
 31
0.0
  0
LINE
  8
0
  6
CONTINUOUS
 62
     7
  5
105
 10
206.269735
 20
516.374477
 30
0.0
 11
203.627599
 21
514.84904
 31
0.0
  0
LINE
  8
0
  6
CONTINUOUS
 62
     7
  5
106
 10
203.627599
 20
509.075537
 30
0.0
 11
206.269735
 21
507.550099
 31
0.0
  0
LINE
  8
0
  6
CONTINUOUS
 62
     7
  5
107
 10
203.627599
 20
514.84904
 30
0.0
 11
203.627599
 21
509.075537
 31
0.0
  0
LINE
  8
0
  6
CONTINUOUS
 62
     7
  5
108
 10
368.911871
 20
509.075537
 30
0.0
 11
368.911871
 21
514.84904
 31
0.0
  0
LINE
  8
0
  6
CONTINUOUS
 62
     7
  5
109
 10
366.269735
 20
507.550099
 30
0.0
 11
368.911871
 21
509.075537
 31
0.0
  0
LINE
  8
0
  6
CONTINUOUS
 62
     7
  5
10A
 10
368.911871
 20
514.84904
 30
0.0
 11
366.269735
 21
516.374477
 31
0.0
  0
CIRCLE
  8
0
  6
CONTINUOUS
 62
     7
  5
10B
 10
185.269735
 20
546.104424
 30
0.0
 40
4.25
210
0.0
220
0.0
230
1.0
  0
CIRCLE
  8
0
  6
CONTINUOUS
 62
     7
  5
10C
 10
387.269735
 20
546.104424
 30
0.0
 40
4.25
210
0.0
220
0.0
230
1.0
  0
CIRCLE
  8
0
  6
CONTINUOUS
 62
     7
  5
10D
 10
185.269735
 20
506.104424
 30
0.0
 40
4.25
210
0.0
220
0.0
230
1.0
  0
CIRCLE
  8
0
  6
CONTINUOUS
 62
     7
  5
10E
 10
387.269735
 20
506.104424
 30
0.0
 40
4.25
210
0.0
220
0.0
230
1.0
  0
LINE
  8
0
  6
CONTINUOUS
 62
     7
  5
10F
 10
396.269735
 20
496.104424
 30
0.0
 11
396.269735
 21
556.104424
 31
0.0
  0
LINE
  8
0
  6
CONTINUOUS
 62
     7
  5
110
 10
176.269735
 20
496.104424
 30
0.0
 11
396.269735
 21
496.104424
 31
0.0
  0
LINE
  8
0
  6
CONTINUOUS
 62
     7
  5
111
 10
176.269735
 20
556.104424
 30
0.0
 11
176.269735
 21
496.104424
 31
0.0
  0
LINE
  8
0
  6
CONTINUOUS
 62
     7
  5
112
 10
396.269735
 20
556.104424
 30
0.0
 11
176.269735
 21
556.104424
 31
0.0
  0
ENDBLK
  8
0
  5
113
  0
BLOCK
  8
0
  5
130
  2
AID623
 70
     0
 10
0.0
 20
0.0
 30
0.0
  3
DNote#note referencing elements
  0
TEXT
  8
0
 62
     7
  5
131
 10
15.612043
 20
513.272225
 30
0.0
 40
3.5
  1
Représenté course 92 mm
210
0.0
220
0.0
230
1.0
  0
TEXT
  8
0
 62
     7
  5
132
 10
15.612043
 20
508.022225
 30
0.0
 40
3.5
  1
Represented stroke 92 mm
210
0.0
220
0.0
230
1.0
  0
TEXT
  8
0
 62
     7
  5
133
 10
15.612043
 20
502.772225
 30
0.0
 40
3.5
  1
In Hub 92 mm Vorgestellt
210
0.0
220
0.0
230
1.0
  0
ENDBLK
  8
0
  5
134
  0
ENDSEC
  0
SECTION
  2
ENTITIES
  0
INSERT
  8
0
  5
A2
  2
AID3
 10
0.0
 20
0.0
 30
0.0
  0
INSERT
  8
0
  5
F4
  2
AID253
 10
0.0
 20
0.0
 30
0.0
  0
INSERT
  8
0
  5
114
  2
AID413
 10
0.0
 20
0.0
 30
0.0
  0
LINE
  8
0
  6
CENTER
 62
     1
  5
116
 10
35.895188
 20
419.681199
 30
0.0
 11
35.895188
 21
393.681199
 31
0.0
  0
LINE
  8
0
  6
CENTER
 62
     1
  5
117
 10
35.895188
 20
149.681199
 30
0.0
 11
35.895188
 21
-100.818801
 31
0.0
  0
LINE
  8
0
  6
CENTER
 62
     1
  5
118
 10
178.019735
 20
506.104424
 30
0.0
 11
192.519735
 21
506.104424
 31
0.0
  0
LINE
  8
0
  6
CENTER
 62
     1
  5
119
 10
185.269735
 20
498.854424
 30
0.0
 11
185.269735
 21
513.354424
 31
0.0
  0
LINE
  8
0
  6
CENTER
 62
     1
  5
11A
 10
178.019735
 20
546.104424
 30
0.0
 11
192.519735
 21
546.104424
 31
0.0
  0
LINE
  8
0
  6
CENTER
 62
     1
  5
11B
 10
185.269735
 20
538.854424
 30
0.0
 11
185.269735
 21
553.354424
 31
0.0
  0
LINE
  8
0
  6
CENTER
 62
     1
  5
11C
 10
239.019735
 20
511.104424
 30
0.0
 11
253.519735
 21
511.104424
 31
0.0
  0
LINE
  8
0
  6
CENTER
 62
     1
  5
11D
 10
246.269735
 20
503.854424
 30
0.0
 11
246.269735
 21
518.354424
 31
0.0
  0
LINE
  8
0
  6
CENTER
 62
     1
  5
11E
 10
239.019735
 20
541.104424
 30
0.0
 11
253.519735
 21
541.104424
 31
0.0
  0
LINE
  8
0
  6
CENTER
 62
     1
  5
11F
 10
246.269735
 20
533.854424
 30
0.0
 11
246.269735
 21
548.354424
 31
0.0
  0
LINE
  8
0
  6
CENTER
 62
     1
  5
120
 10
319.019735
 20
511.104424
 30
0.0
 11
333.519735
 21
511.104424
 31
0.0
  0
LINE
  8
0
  6
CENTER
 62
     1
  5
121
 10
326.269735
 20
503.854424
 30
0.0
 11
326.269735
 21
518.354424
 31
0.0
  0
LINE
  8
0
  6
CENTER
 62
     1
  5
122
 10
319.019735
 20
541.104424
 30
0.0
 11
333.519735
 21
541.104424
 31
0.0
  0
LINE
  8
0
  6
CENTER
 62
     1
  5
123
 10
326.269735
 20
533.854424
 30
0.0
 11
326.269735
 21
548.354424
 31
0.0
  0
LINE
  8
0
  6
CENTER
 62
     1
  5
124
 10
380.019735
 20
506.104424
 30
0.0
 11
394.519735
 21
506.104424
 31
0.0
  0
LINE
  8
0
  6
CENTER
 62
     1
  5
125
 10
387.269735
 20
498.854424
 30
0.0
 11
387.269735
 21
513.354424
 31
0.0
  0
LINE
  8
0
  6
CENTER
 62
     1
  5
126
 10
380.019735
 20
546.104424
 30
0.0
 11
394.519735
 21
546.104424
 31
0.0
  0
LINE
  8
0
  6
CENTER
 62
     1
  5
127
 10
387.269735
 20
538.854424
 30
0.0
 11
387.269735
 21
553.354424
 31
0.0
  0
LINE
  8
0
  6
CENTER
 62
     1
  5
128
 10
286.269735
 20
-57.818801
 30
0.0
 11
286.269735
 21
-64.518801
 31
0.0
  0
LINE
  8
0
  6
CENTER
 62
     1
  5
129
 10
222.769735
 20
149.681199
 30
0.0
 11
222.769735
 21
-100.818801
 31
0.0
  0
LINE
  8
0
  6
CENTER
 62
     1
  5
12A
 10
269.299172
 20
-47.318801
 30
0.0
 11
269.299172
 21
-78.318801
 31
0.0
  0
LINE
  8
0
  6
CENTER
 62
     1
  5
12B
 10
286.269735
 20
419.681199
 30
0.0
 11
286.269735
 21
393.681199
 31
0.0
  0
LINE
  8
0
  6
CENTER
 62
     1
  5
12C
 10
286.269735
 20
-100.818801
 30
0.0
 11
286.269735
 21
-72.318801
 31
0.0
  0
LINE
  8
0
  6
CENTER
 62
     1
  5
12D
 10
303.240298
 20
-47.318801
 30
0.0
 11
303.240298
 21
-78.318801
 31
0.0
  0
LINE
  8
0
  6
CENTER
 62
     1
  5
12E
 10
349.769735
 20
149.681199
 30
0.0
 11
349.769735
 21
-100.818801
 31
0.0
  0
INSERT
  8
0
  5
135
  2
AID623
 10
0.0
 20
0.0
 30
0.0
  0
ENDSEC
  0
EOF
