  0
SECTION
  2
HEADER
  9
$ACADVER
  1
AC1009
  9
$DWGCODEPAGE
  3
ansi_1252
  9
$INSBASE
 10
0.0
 20
0.0
 30
0.0
  9
$EXTMIN
 10
0.0
 20
-124.663271
 30
0.0
  9
$EXTMAX
 10
431.459766
 20
603.142027
 30
5.0
  9
$LIMMIN
 10
0.0
 20
-124.663271
  9
$LIMMAX
 10
431.459766
 20
603.142027
  9
$ORTHOMODE
 70
     0
  9
$REGENMODE
 70
     1
  9
$FILLMODE
 70
     1
  9
$QTEXTMODE
 70
     0
  9
$MIRRTEXT
 70
     1
  9
$DRAGMODE
 70
     2
  9
$LTSCALE
 40
10.0
  9
$OSMODE
 70
     0
  9
$ATTMODE
 70
     1
  9
$TEXTSIZE
 40
0.2
  9
$TRACEWID
 40
0.05
  9
$TEXTSTYLE
  7
STANDARD
  9
$CLAYER
  8
0
  9
$CELTYPE
  6
CONTINUOUS
  9
$CECOLOR
 62
   256
  9
$DIMSCALE
 40
1.0
  9
$DIMASZ
 40
1.25
  9
$DIMEXO
 40
1.0
  9
$DIMDLI
 40
0.38
  9
$DIMRND
 40
0.0
  9
$DIMDLE
 40
0.0
  9
$DIMEXE
 40
0.75
  9
$DIMTP
 40
0.0
  9
$DIMTM
 40
0.0
  9
$DIMTXT
 40
2.5
  9
$DIMCEN
 40
0.09
  9
$DIMTSZ
 40
0.0
  9
$DIMTOL
 70
     0
  9
$DIMLIM
 70
     0
  9
$DIMTIH
 70
     0
  9
$DIMTOH
 70
     0
  9
$DIMSE1
 70
     0
  9
$DIMSE2
 70
     0
  9
$DIMTAD
 70
     1
  9
$DIMZIN
 70
     0
  9
$DIMBLK
  1

  9
$DIMASO
 70
     1
  9
$DIMSHO
 70
     1
  9
$DIMPOST
  1

  9
$DIMAPOST
  1

  9
$DIMALT
 70
     0
  9
$DIMALTD
 70
     2
  9
$DIMALTF
 40
25.4
  9
$DIMLFAC
 40
1.0
  9
$DIMTOFL
 70
     0
  9
$DIMTVP
 40
0.0
  9
$DIMTIX
 70
     0
  9
$DIMSOXD
 70
     0
  9
$DIMSAH
 70
     0
  9
$DIMBLK1
  1

  9
$DIMBLK2
  1

  9
$DIMSTYLE
  2
STANDARD
  9
$DIMCLRD
 70
     7
  9
$DIMCLRE
 70
     7
  9
$DIMCLRT
 70
     7
  9
$DIMTFAC
 40
0.8
  9
$DIMGAP
 40
1.25
  9
$LUNITS
 70
     2
  9
$LUPREC
 70
     4
  9
$AXISMODE
 70
     0
  9
$AXISUNIT
 10
0.0
 20
0.0
  9
$SKETCHINC
 40
0.1
  9
$FILLETRAD
 40
0.0
  9
$AUNITS
 70
     0
  9
$AUPREC
 70
     0
  9
$MENU
  1
acad
  9
$ELEVATION
 40
0.0
  9
$PELEVATION
 40
0.0
  9
$THICKNESS
 40
0.0
  9
$LIMCHECK
 70
     0
  9
$BLIPMODE
 70
     1
  9
$CHAMFERA
 40
0.0
  9
$CHAMFERB
 40
0.0
  9
$SKPOLY
 70
     0
  9
$TDCREATE
 40
2456177.439143519
  9
$TDUPDATE
 40
2456177.355509259
  9
$TDINDWG
 40
0.0000000000
  9
$TDUSRTIMER
 40
0.0000000000
  9
$USRTIMER
 70
     1
  9
$ANGBASE
 50
0.0
  9
$ANGDIR
 70
     0
  9
$PDMODE
 70
     0
  9
$PDSIZE
 40
0.0
  9
$PLINEWID
 40
0.0
  9
$COORDS
 70
     0
  9
$SPLFRAME
 70
     0
  9
$SPLINETYPE
 70
     6
  9
$SPLINESEGS
 70
     8
  9
$ATTDIA
 70
     0
  9
$ATTREQ
 70
     1
  9
$HANDLING
 70
     1
  9
$HANDSEED
  5
147
  9
$SURFTAB1
 70
     6
  9
$SURFTAB2
 70
     6
  9
$SURFTYPE
 70
     6
  9
$SURFU
 70
     6
  9
$SURFV
 70
     6
  9
$UCSNAME
  2

  9
$UCSORG
 10
0.0
 20
0.0
 30
0.0
  9
$UCSXDIR
 10
1.0
 20
0.0
 30
0.0
  9
$UCSYDIR
 10
0.0
 20
1.0
 30
0.0
  9
$PUCSNAME
  2

  9
$PUCSORG
 10
0.0
 20
0.0
 30
0.0
  9
$PUCSXDIR
 10
1.0
 20
0.0
 30
0.0
  9
$PUCSYDIR
 10
0.0
 20
1.0
 30
0.0
  9
$USERI1
 70
     0
  9
$USERI2
 70
     0
  9
$USERI3
 70
     0
  9
$USERI4
 70
     0
  9
$USERI5
 70
     0
  9
$USERR1
 40
0.0
  9
$USERR2
 40
0.0
  9
$USERR3
 40
0.0
  9
$USERR4
 40
0.0
  9
$USERR5
 40
0.0
  9
$WORLDVIEW
 70
     1
  9
$SHADEDGE
 70
     3
  9
$SHADEDIF
 70
    70
  9
$TILEMODE
 70
     1
  9
$MAXACTVP
 70
    16
  9
$PINSBASE
 10
0.0
 20
0.0
 30
0.0
  9
$PLIMCHECK
 70
     0
  9
$PEXTMIN
 10
1.000000E+20
 20
1.000000E+20
 30
1.000000E+20
  9
$PEXTMAX
 10
-1.000000E+20
 20
-1.000000E+20
 30
-1.000000E+20
  9
$PLIMMIN
 10
0.0
 20
0.0
  9
$PLIMMAX
 10
12.0
 20
9.0
  9
$UNITMODE
 70
     0
  9
$VISRETAIN
 70
     0
  9
$PLINEGEN
 70
     1
  9
$PSLTSCALE
 70
     0
  9
$TREEDEPTH
 70
  3020
  0
ENDSEC
  0
SECTION
  2
TABLES
  0
TABLE
  2
VPORT
 70
     1
  0
VPORT
  2
*ACTIVE
 70
     0
 10
0.0
 20
0.0
 11
1.0
 21
1.0
 12
6.591288
 22
4.579184
 13
0.0
 23
0.0
 14
1.0
 24
1.0
 15
0.0
 25
0.0
 16
0.0
 26
0.0
 36
1.0
 17
0.0
 27
0.0
 37
0.0
 40
9.158369
 41
0.688564
 42
50.0
 43
0.0
 44
0.0
 50
0.0
 51
0.0
 71
     0
 72
   100
 73
     1
 74
     1
 75
     0
 76
     0
 77
     0
 78
     0
  0
ENDTAB
  0
TABLE
  2
LTYPE
 70
     2
  0
LTYPE
  2
CONTINUOUS
 70
    64
  3
Solid line
 72
    65
 73
     0
 40
0.0
  0
LTYPE
  2
CENTER
 70
    64
  3
____ _ ____ _ ____ _ ____ _ ____ _ ____ _ ____
 72
    65
 73
     4
 40
2.0
 49
1.25
 49
-0.25
 49
0.25
 49
-0.25
  0
ENDTAB
  0
TABLE
  2
LAYER
 70
     1
  0
LAYER
  2
0
 70
     0
 62
     7
  6
CONTINUOUS
  0
ENDTAB
  0
TABLE
  2
STYLE
 70
     1
  0
STYLE
  2
STANDARD
 70
     0
 40
0.0
 41
1.0
 50
0.0
 71
     0
 42
0.0
  3
IsonormD
  4

  0
ENDTAB
  0
TABLE
  2
VIEW
 70
     0
  0
ENDTAB
  0
TABLE
  2
UCS
 70
     0
  0
ENDTAB
  0
TABLE
  2
APPID
 70
     2
  0
APPID
  2
ACAD
 70
     0
  0
APPID
  2
TopSolid_Draft
 70
     0
  0
ENDTAB
  0
TABLE
  2
DIMSTYLE
 70
     1
  0
DIMSTYLE
  2
STANDARD
 70
     0
  3

  4

  5

  6

  7

 40
1.0
 41
1.25
 42
1.0
 43
0.38
 44
0.75
 45
0.0
 46
0.0
 47
0.0
 48
0.0
 71
     0
 72
     0
 73
     0
 74
     0
 75
     0
 76
     0
 77
     1
 78
     0
140
2.5
141
0.09
142
0.0
143
25.4
144
1.0
145
0.0
146
0.8
147
1.25
170
     0
171
     2
172
     0
173
     0
174
     0
175
     0
176
     7
177
     7
178
     7
  0
ENDTAB
  0
ENDSEC
  0
SECTION
  2
BLOCKS
  0
BLOCK
  8
0
  5
25
  2
AID3
 70
     0
 10
0.0
 20
0.0
 30
0.0
  3
#draft view
  0
LINE
  8
0
  6
CONTINUOUS
 62
     7
  5
26
 10
303.959766
 20
388.336729
 30
0.0
 11
338.959766
 21
388.336729
 31
0.0
  0
LINE
  8
0
  6
CONTINUOUS
 62
     7
  5
27
 10
303.959766
 20
404.336729
 30
0.0
 11
338.959766
 21
404.336729
 31
0.0
  0
LINE
  8
0
  6
CONTINUOUS
 62
     7
  5
28
 10
313.459766
 20
410.736729
 30
0.0
 11
313.459766
 21
404.336729
 31
0.0
  0
LINE
  8
0
  6
CONTINUOUS
 62
     7
  5
29
 10
321.459766
 20
410.736729
 30
0.0
 11
321.459766
 21
404.336729
 31
0.0
  0
LINE
  8
0
  6
CONTINUOUS
 62
     7
  5
2A
 10
313.459766
 20
410.736729
 30
0.0
 11
321.459766
 21
410.736729
 31
0.0
  0
LINE
  8
0
  6
CONTINUOUS
 62
     7
  5
2B
 10
329.459766
 20
410.736729
 30
0.0
 11
329.459766
 21
404.336729
 31
0.0
  0
LINE
  8
0
  6
CONTINUOUS
 62
     7
  5
2C
 10
321.459766
 20
410.736729
 30
0.0
 11
329.459766
 21
410.736729
 31
0.0
  0
LINE
  8
0
  6
CONTINUOUS
 62
     7
  5
2D
 10
316.459766
 20
385.086729
 30
0.0
 11
326.459766
 21
385.086729
 31
0.0
  0
LINE
  8
0
  6
CONTINUOUS
 62
     7
  5
2E
 10
325.709766
 20
384.336729
 30
0.0
 11
317.209766
 21
384.336729
 31
0.0
  0
LINE
  8
0
  6
CONTINUOUS
 62
     7
  5
2F
 10
241.459766
 20
-110.163271
 30
0.0
 11
241.459766
 21
-121.663271
 31
0.0
  0
LINE
  8
0
  6
CONTINUOUS
 62
     7
  5
30
 10
401.459766
 20
-121.663271
 30
0.0
 11
241.459766
 21
-121.663271
 31
0.0
  0
LINE
  8
0
  6
CONTINUOUS
 62
     7
  5
31
 10
401.459766
 20
-110.163271
 30
0.0
 11
241.459766
 21
-110.163271
 31
0.0
  0
LINE
  8
0
  6
CONTINUOUS
 62
     7
  5
32
 10
401.459766
 20
-110.163271
 30
0.0
 11
401.459766
 21
-121.663271
 31
0.0
  0
LINE
  8
0
  6
CONTINUOUS
 62
     7
  5
33
 10
303.959766
 20
-103.663271
 30
0.0
 11
338.959766
 21
-103.663271
 31
0.0
  0
LINE
  8
0
  6
CONTINUOUS
 62
     7
  5
34
 10
372.459766
 20
157.836729
 30
0.0
 11
397.459766
 21
157.836729
 31
0.0
  0
LINE
  8
0
  6
CONTINUOUS
 62
     7
  5
35
 10
396.549841
 20
160.336729
 30
0.0
 11
373.369692
 21
160.336729
 31
0.0
  0
LINE
  8
0
  6
CONTINUOUS
 62
     7
  5
36
 10
270.459766
 20
157.836729
 30
0.0
 11
245.459766
 21
157.836729
 31
0.0
  0
LINE
  8
0
  6
CONTINUOUS
 62
     7
  5
37
 10
246.369692
 20
160.336729
 30
0.0
 11
269.549841
 21
160.336729
 31
0.0
  0
LINE
  8
0
  6
CONTINUOUS
 62
     7
  5
38
 10
211.459766
 20
-73.863271
 30
0.0
 11
211.459766
 21
-87.663271
 31
0.0
  0
LINE
  8
0
  6
CONTINUOUS
 62
     7
  5
39
 10
431.459766
 20
-73.863271
 30
0.0
 11
211.459766
 21
-73.863271
 31
0.0
  0
LINE
  8
0
  6
CONTINUOUS
 62
     7
  5
3A
 10
431.459766
 20
-73.863271
 30
0.0
 11
431.459766
 21
-87.663271
 31
0.0
  0
LINE
  8
0
  6
CONTINUOUS
 62
     7
  5
3B
 10
431.459766
 20
-87.663271
 30
0.0
 11
211.459766
 21
-87.663271
 31
0.0
  0
LINE
  8
0
  6
CONTINUOUS
 62
     7
  5
3C
 10
233.459766
 20
-34.863271
 30
0.0
 11
282.459766
 21
-34.863271
 31
0.0
  0
LINE
  8
0
  6
CONTINUOUS
 62
     7
  5
3D
 10
229.459766
 20
-38.863271
 30
0.0
 11
286.459766
 21
-38.863271
 31
0.0
  0
LINE
  8
0
  6
CONTINUOUS
 62
     7
  5
3E
 10
409.459766
 20
-34.863271
 30
0.0
 11
360.459766
 21
-34.863271
 31
0.0
  0
LINE
  8
0
  6
CONTINUOUS
 62
     7
  5
3F
 10
413.459766
 20
-38.863271
 30
0.0
 11
356.459766
 21
-38.863271
 31
0.0
  0
LINE
  8
0
  6
CONTINUOUS
 62
     7
  5
40
 10
406.459766
 20
61.136729
 30
0.0
 11
363.459766
 21
61.136729
 31
0.0
  0
LINE
  8
0
  6
CONTINUOUS
 62
     9
  5
41
 10
360.459766
 20
58.136729
 30
0.0
 11
409.459766
 21
58.136729
 31
0.0
  0
LINE
  8
0
  6
CONTINUOUS
 62
     9
  5
42
 10
282.459766
 20
58.136729
 30
0.0
 11
233.459766
 21
58.136729
 31
0.0
  0
LINE
  8
0
  6
CONTINUOUS
 62
     7
  5
43
 10
236.459766
 20
61.136729
 30
0.0
 11
279.459766
 21
61.136729
 31
0.0
  0
LINE
  8
0
  6
CONTINUOUS
 62
     7
  5
44
 10
338.430329
 20
-91.663271
 30
0.0
 11
338.430329
 21
-87.663271
 31
0.0
  0
LINE
  8
0
  6
CONTINUOUS
 62
     7
  5
45
 10
338.430329
 20
-91.663271
 30
0.0
 11
333.430329
 21
-91.663271
 31
0.0
  0
LINE
  8
0
  6
CONTINUOUS
 62
     7
  5
46
 10
333.430329
 20
-91.663271
 30
0.0
 11
333.430329
 21
-87.663271
 31
0.0
  0
LINE
  8
0
  6
CONTINUOUS
 62
     7
  5
47
 10
309.489204
 20
-91.663271
 30
0.0
 11
309.489204
 21
-87.663271
 31
0.0
  0
LINE
  8
0
  6
CONTINUOUS
 62
     7
  5
48
 10
309.489204
 20
-91.663271
 30
0.0
 11
304.489204
 21
-91.663271
 31
0.0
  0
LINE
  8
0
  6
CONTINUOUS
 62
     7
  5
49
 10
304.489204
 20
-91.663271
 30
0.0
 11
304.489204
 21
-87.663271
 31
0.0
  0
LINE
  8
0
  6
CONTINUOUS
 62
     7
  5
4A
 10
343.430329
 20
-91.663271
 30
0.0
 11
343.430329
 21
-87.663271
 31
0.0
  0
LINE
  8
0
  6
CONTINUOUS
 62
     7
  5
4B
 10
343.430329
 20
-91.663271
 30
0.0
 11
338.430329
 21
-91.663271
 31
0.0
  0
LINE
  8
0
  6
CONTINUOUS
 62
     7
  5
4C
 10
304.489204
 20
-91.663271
 30
0.0
 11
299.489204
 21
-91.663271
 31
0.0
  0
LINE
  8
0
  6
CONTINUOUS
 62
     7
  5
4D
 10
299.489204
 20
-91.663271
 30
0.0
 11
299.489204
 21
-87.663271
 31
0.0
  0
LINE
  8
0
  6
CONTINUOUS
 62
     7
  5
4E
 10
401.576776
 20
-91.663271
 30
0.0
 11
401.576776
 21
-87.663271
 31
0.0
  0
LINE
  8
0
  6
CONTINUOUS
 62
     7
  5
4F
 10
401.576776
 20
-91.663271
 30
0.0
 11
396.576776
 21
-91.663271
 31
0.0
  0
LINE
  8
0
  6
CONTINUOUS
 62
     7
  5
50
 10
396.576776
 20
-91.663271
 30
0.0
 11
396.576776
 21
-87.663271
 31
0.0
  0
LINE
  8
0
  6
CONTINUOUS
 62
     7
  5
51
 10
406.576776
 20
-91.663271
 30
0.0
 11
406.576776
 21
-87.663271
 31
0.0
  0
LINE
  8
0
  6
CONTINUOUS
 62
     7
  5
52
 10
406.576776
 20
-91.663271
 30
0.0
 11
401.576776
 21
-91.663271
 31
0.0
  0
LINE
  8
0
  6
CONTINUOUS
 62
     7
  5
53
 10
279.576776
 20
-91.663271
 30
0.0
 11
279.576776
 21
-87.663271
 31
0.0
  0
LINE
  8
0
  6
CONTINUOUS
 62
     7
  5
54
 10
279.576776
 20
-91.663271
 30
0.0
 11
274.576776
 21
-91.663271
 31
0.0
  0
LINE
  8
0
  6
CONTINUOUS
 62
     7
  5
55
 10
274.576776
 20
-91.663271
 30
0.0
 11
274.576776
 21
-87.663271
 31
0.0
  0
LINE
  8
0
  6
CONTINUOUS
 62
     7
  5
56
 10
274.576776
 20
-91.663271
 30
0.0
 11
269.576776
 21
-91.663271
 31
0.0
  0
LINE
  8
0
  6
CONTINUOUS
 62
     7
  5
57
 10
269.576776
 20
-91.663271
 30
0.0
 11
269.576776
 21
-87.663271
 31
0.0
  0
LINE
  8
0
  6
CONTINUOUS
 62
     7
  5
58
 10
368.342757
 20
-91.663271
 30
0.0
 11
368.342757
 21
-87.663271
 31
0.0
  0
LINE
  8
0
  6
CONTINUOUS
 62
     7
  5
59
 10
368.342757
 20
-91.663271
 30
0.0
 11
363.342757
 21
-91.663271
 31
0.0
  0
LINE
  8
0
  6
CONTINUOUS
 62
     7
  5
5A
 10
363.342757
 20
-91.663271
 30
0.0
 11
363.342757
 21
-87.663271
 31
0.0
  0
LINE
  8
0
  6
CONTINUOUS
 62
     7
  5
5B
 10
373.342757
 20
-91.663271
 30
0.0
 11
373.342757
 21
-87.663271
 31
0.0
  0
LINE
  8
0
  6
CONTINUOUS
 62
     7
  5
5C
 10
373.342757
 20
-91.663271
 30
0.0
 11
368.342757
 21
-91.663271
 31
0.0
  0
LINE
  8
0
  6
CONTINUOUS
 62
     7
  5
5D
 10
241.342757
 20
-91.663271
 30
0.0
 11
241.342757
 21
-87.663271
 31
0.0
  0
LINE
  8
0
  6
CONTINUOUS
 62
     7
  5
5E
 10
241.342757
 20
-91.663271
 30
0.0
 11
236.342757
 21
-91.663271
 31
0.0
  0
LINE
  8
0
  6
CONTINUOUS
 62
     7
  5
5F
 10
236.342757
 20
-91.663271
 30
0.0
 11
236.342757
 21
-87.663271
 31
0.0
  0
LINE
  8
0
  6
CONTINUOUS
 62
     7
  5
60
 10
246.342757
 20
-91.663271
 30
0.0
 11
246.342757
 21
-87.663271
 31
0.0
  0
LINE
  8
0
  6
CONTINUOUS
 62
     7
  5
61
 10
246.342757
 20
-91.663271
 30
0.0
 11
241.342757
 21
-91.663271
 31
0.0
  0
LINE
  8
0
  6
CONTINUOUS
 62
     7
  5
62
 10
301.479766
 20
-73.163271
 30
0.0
 11
301.489204
 21
-73.163271
 31
0.0
  0
LINE
  8
0
  6
CONTINUOUS
 62
     7
  5
63
 10
307.489204
 20
-73.163271
 30
0.0
 11
335.430329
 21
-73.163271
 31
0.0
  0
LINE
  8
0
  6
CONTINUOUS
 62
     7
  5
64
 10
341.430329
 20
-73.163271
 30
0.0
 11
341.439766
 21
-73.163271
 31
0.0
  0
LINE
  8
0
  6
CONTINUOUS
 62
     7
  5
65
 10
341.430329
 20
-63.163271
 30
0.0
 11
335.430329
 21
-63.163271
 31
0.0
  0
LINE
  8
0
  6
CONTINUOUS
 62
     7
  5
66
 10
335.930329
 20
-62.663271
 30
0.0
 11
340.930329
 21
-62.663271
 31
0.0
  0
LINE
  8
0
  6
CONTINUOUS
 62
     7
  5
67
 10
307.489204
 20
-63.163271
 30
0.0
 11
301.489204
 21
-63.163271
 31
0.0
  0
LINE
  8
0
  6
CONTINUOUS
 62
     7
  5
68
 10
301.989204
 20
-62.663271
 30
0.0
 11
306.989204
 21
-62.663271
 31
0.0
  0
LINE
  8
0
  6
CONTINUOUS
 62
     7
  5
69
 10
245.059766
 20
64.236729
 30
0.0
 11
270.859766
 21
64.236729
 31
0.0
  0
LINE
  8
0
  6
CONTINUOUS
 62
     7
  5
6A
 10
397.859766
 20
64.236729
 30
0.0
 11
372.059766
 21
64.236729
 31
0.0
  0
LINE
  8
0
  6
CONTINUOUS
 62
     7
  5
6B
 10
396.576776
 20
-90.763271
 30
0.0
 11
373.342757
 21
-90.763271
 31
0.0
  0
LINE
  8
0
  6
CONTINUOUS
 62
     7
  5
6C
 10
246.342757
 20
-90.763271
 30
0.0
 11
269.576776
 21
-90.763271
 31
0.0
  0
LINE
  8
0
  6
CONTINUOUS
 62
     7
  5
6D
 10
338.959766
 20
388.336729
 30
0.0
 11
338.959766
 21
404.336729
 31
0.0
  0
LINE
  8
0
  6
CONTINUOUS
 62
     7
  5
6E
 10
303.959766
 20
404.336729
 30
0.0
 11
303.959766
 21
388.336729
 31
0.0
  0
LINE
  8
0
  6
CONTINUOUS
 62
     7
  5
6F
 10
316.459766
 20
388.336729
 30
0.0
 11
316.459766
 21
385.086729
 31
0.0
  0
LINE
  8
0
  6
CONTINUOUS
 62
     7
  5
70
 10
326.459766
 20
385.086729
 30
0.0
 11
326.459766
 21
388.336729
 31
0.0
  0
LINE
  8
0
  6
CONTINUOUS
 62
     7
  5
71
 10
316.459766
 20
385.086729
 30
0.0
 11
317.209766
 21
384.336729
 31
0.0
  0
LINE
  8
0
  6
CONTINUOUS
 62
     7
  5
72
 10
325.709766
 20
384.336729
 30
0.0
 11
326.459766
 21
385.086729
 31
0.0
  0
LINE
  8
0
  6
CONTINUOUS
 62
     7
  5
73
 10
303.959766
 20
-91.663271
 30
0.0
 11
303.959766
 21
-103.663271
 31
0.0
  0
LINE
  8
0
  6
CONTINUOUS
 62
     7
  5
74
 10
338.959766
 20
-103.663271
 30
0.0
 11
338.959766
 21
-91.663271
 31
0.0
  0
LINE
  8
0
  6
CONTINUOUS
 62
     7
  5
75
 10
397.459766
 20
157.836729
 30
0.0
 11
396.549841
 21
160.336729
 31
0.0
  0
LINE
  8
0
  6
CONTINUOUS
 62
     7
  5
76
 10
373.369692
 20
160.336729
 30
0.0
 11
372.459766
 21
157.836729
 31
0.0
  0
LINE
  8
0
  6
CONTINUOUS
 62
     7
  5
77
 10
372.459766
 20
157.836729
 30
0.0
 11
372.459766
 21
64.236729
 31
0.0
  0
LINE
  8
0
  6
CONTINUOUS
 62
     7
  5
78
 10
372.459766
 20
-91.663271
 30
0.0
 11
372.459766
 21
-110.163271
 31
0.0
  0
LINE
  8
0
  6
CONTINUOUS
 62
     7
  5
79
 10
397.459766
 20
-110.163271
 30
0.0
 11
397.459766
 21
-91.663271
 31
0.0
  0
LINE
  8
0
  6
CONTINUOUS
 62
     7
  5
7A
 10
397.459766
 20
64.236729
 30
0.0
 11
397.459766
 21
157.836729
 31
0.0
  0
LINE
  8
0
  6
CONTINUOUS
 62
     7
  5
7B
 10
245.459766
 20
157.836729
 30
0.0
 11
245.459766
 21
64.236729
 31
0.0
  0
LINE
  8
0
  6
CONTINUOUS
 62
     7
  5
7C
 10
245.459766
 20
-91.663271
 30
0.0
 11
245.459766
 21
-110.163271
 31
0.0
  0
LINE
  8
0
  6
CONTINUOUS
 62
     7
  5
7D
 10
270.459766
 20
-110.163271
 30
0.0
 11
270.459766
 21
-91.663271
 31
0.0
  0
LINE
  8
0
  6
CONTINUOUS
 62
     7
  5
7E
 10
270.459766
 20
64.236729
 30
0.0
 11
270.459766
 21
157.836729
 31
0.0
  0
LINE
  8
0
  6
CONTINUOUS
 62
     7
  5
7F
 10
270.459766
 20
157.836729
 30
0.0
 11
269.549841
 21
160.336729
 31
0.0
  0
LINE
  8
0
  6
CONTINUOUS
 62
     7
  5
80
 10
246.369692
 20
160.336729
 30
0.0
 11
245.459766
 21
157.836729
 31
0.0
  0
LINE
  8
0
  6
CONTINUOUS
 62
     7
  5
81
 10
331.959766
 20
-110.163271
 30
0.0
 11
331.959766
 21
-103.663271
 31
0.0
  0
LINE
  8
0
  6
CONTINUOUS
 62
     7
  5
82
 10
310.959766
 20
-103.663271
 30
0.0
 11
310.959766
 21
-110.163271
 31
0.0
  0
LINE
  8
0
  6
CONTINUOUS
 62
     7
  5
83
 10
286.459766
 20
-38.863271
 30
0.0
 11
282.459766
 21
-34.863271
 31
0.0
  0
LINE
  8
0
  6
CONTINUOUS
 62
     7
  5
84
 10
233.459766
 20
-34.863271
 30
0.0
 11
229.459766
 21
-38.863271
 31
0.0
  0
LINE
  8
0
  6
CONTINUOUS
 62
     7
  5
85
 10
286.459766
 20
-73.863271
 30
0.0
 11
286.459766
 21
-38.863271
 31
0.0
  0
LINE
  8
0
  6
CONTINUOUS
 62
     7
  5
86
 10
229.459766
 20
-38.863271
 30
0.0
 11
229.459766
 21
-73.863271
 31
0.0
  0
LINE
  8
0
  6
CONTINUOUS
 62
     7
  5
87
 10
413.459766
 20
-38.863271
 30
0.0
 11
409.459766
 21
-34.863271
 31
0.0
  0
LINE
  8
0
  6
CONTINUOUS
 62
     7
  5
88
 10
360.459766
 20
-34.863271
 30
0.0
 11
356.459766
 21
-38.863271
 31
0.0
  0
LINE
  8
0
  6
CONTINUOUS
 62
     7
  5
89
 10
413.459766
 20
-73.863271
 30
0.0
 11
413.459766
 21
-38.863271
 31
0.0
  0
LINE
  8
0
  6
CONTINUOUS
 62
     7
  5
8A
 10
356.459766
 20
-38.863271
 30
0.0
 11
356.459766
 21
-73.863271
 31
0.0
  0
ARC
  8
0
  6
CONTINUOUS
 62
     7
  5
8B
 10
363.459766
 20
58.136729
 30
0.0
 40
3.0
 50
90.0
 51
180.0
210
0.0
220
0.0
230
1.0
  0
ARC
  8
0
  6
CONTINUOUS
 62
     7
  5
8C
 10
406.459766
 20
58.136729
 30
0.0
 40
3.0
 50
0.0
 51
90.0
210
0.0
220
0.0
230
1.0
  0
LINE
  8
0
  6
CONTINUOUS
 62
     7
  5
8D
 10
282.459766
 20
-34.863271
 30
0.0
 11
282.459766
 21
58.136729
 31
0.0
  0
LINE
  8
0
  6
CONTINUOUS
 62
     7
  5
8E
 10
233.459766
 20
58.136729
 30
0.0
 11
233.459766
 21
-34.863271
 31
0.0
  0
LINE
  8
0
  6
CONTINUOUS
 62
     7
  5
8F
 10
409.459766
 20
-34.863271
 30
0.0
 11
409.459766
 21
58.136729
 31
0.0
  0
LINE
  8
0
  6
CONTINUOUS
 62
     7
  5
90
 10
360.459766
 20
58.136729
 30
0.0
 11
360.459766
 21
-34.863271
 31
0.0
  0
ARC
  8
0
  6
CONTINUOUS
 62
     7
  5
91
 10
236.459766
 20
58.136729
 30
0.0
 40
3.0
 50
90.0
 51
180.0
210
0.0
220
0.0
230
1.0
  0
ARC
  8
0
  6
CONTINUOUS
 62
     7
  5
92
 10
279.459766
 20
58.136729
 30
0.0
 40
3.0
 50
0.0
 51
90.0
210
0.0
220
0.0
230
1.0
  0
LINE
  8
0
  6
CONTINUOUS
 62
     7
  5
93
 10
341.439766
 20
-73.863271
 30
0.0
 11
341.439766
 21
-73.163271
 31
0.0
  0
LINE
  8
0
  6
CONTINUOUS
 62
     7
  5
94
 10
301.479766
 20
-73.163271
 30
0.0
 11
301.479766
 21
-73.863271
 31
0.0
  0
LINE
  8
0
  6
CONTINUOUS
 62
     7
  5
95
 10
341.430329
 20
-63.163271
 30
0.0
 11
340.930329
 21
-62.663271
 31
0.0
  0
LINE
  8
0
  6
CONTINUOUS
 62
     7
  5
96
 10
335.930329
 20
-62.663271
 30
0.0
 11
335.430329
 21
-63.163271
 31
0.0
  0
LINE
  8
0
  6
CONTINUOUS
 62
     7
  5
97
 10
341.430329
 20
-73.863271
 30
0.0
 11
341.430329
 21
-63.163271
 31
0.0
  0
LINE
  8
0
  6
CONTINUOUS
 62
     7
  5
98
 10
335.430329
 20
-63.163271
 30
0.0
 11
335.430329
 21
-73.863271
 31
0.0
  0
LINE
  8
0
  6
CONTINUOUS
 62
     7
  5
99
 10
307.489204
 20
-73.863271
 30
0.0
 11
307.489204
 21
-63.163271
 31
0.0
  0
LINE
  8
0
  6
CONTINUOUS
 62
     7
  5
9A
 10
301.489204
 20
-63.163271
 30
0.0
 11
301.489204
 21
-73.863271
 31
0.0
  0
LINE
  8
0
  6
CONTINUOUS
 62
     7
  5
9B
 10
307.489204
 20
-63.163271
 30
0.0
 11
306.989204
 21
-62.663271
 31
0.0
  0
LINE
  8
0
  6
CONTINUOUS
 62
     7
  5
9C
 10
301.989204
 20
-62.663271
 30
0.0
 11
301.489204
 21
-63.163271
 31
0.0
  0
LINE
  8
0
  6
CONTINUOUS
 62
     7
  5
9D
 10
272.459766
 20
61.136729
 30
0.0
 11
270.859766
 21
64.236729
 31
0.0
  0
LINE
  8
0
  6
CONTINUOUS
 62
     7
  5
9E
 10
245.059766
 20
64.236729
 30
0.0
 11
243.459766
 21
61.136729
 31
0.0
  0
LINE
  8
0
  6
CONTINUOUS
 62
     7
  5
9F
 10
399.459766
 20
61.136729
 30
0.0
 11
397.859766
 21
64.236729
 31
0.0
  0
LINE
  8
0
  6
CONTINUOUS
 62
     7
  5
A0
 10
372.059766
 20
64.236729
 30
0.0
 11
370.459766
 21
61.136729
 31
0.0
  0
ENDBLK
  8
0
  5
A1
  0
BLOCK
  8
0
  5
A4
  2
AID253
 70
     0
 10
0.0
 20
0.0
 30
0.0
  3
#auxiliary draft view
  0
LINE
  8
0
  6
CONTINUOUS
 62
     7
  5
A5
 10
33.700315
 20
388.336729
 30
0.0
 11
68.700315
 21
388.336729
 31
0.0
  0
LINE
  8
0
  6
CONTINUOUS
 62
     7
  5
A6
 10
33.700315
 20
404.336729
 30
0.0
 11
68.700315
 21
404.336729
 31
0.0
  0
LINE
  8
0
  6
CONTINUOUS
 62
     7
  5
A7
 10
46.581512
 20
410.736729
 30
0.0
 11
46.581512
 21
404.336729
 31
0.0
  0
LINE
  8
0
  6
CONTINUOUS
 62
     7
  5
A8
 10
46.581512
 20
410.736729
 30
0.0
 11
55.819117
 21
410.736729
 31
0.0
  0
LINE
  8
0
  6
CONTINUOUS
 62
     7
  5
A9
 10
55.819117
 20
410.736729
 30
0.0
 11
55.819117
 21
404.336729
 31
0.0
  0
LINE
  8
0
  6
CONTINUOUS
 62
     7
  5
AA
 10
55.819117
 20
410.736729
 30
0.0
 11
60.437919
 21
410.736729
 31
0.0
  0
LINE
  8
0
  6
CONTINUOUS
 62
     7
  5
AB
 10
60.437919
 20
410.736729
 30
0.0
 11
60.437919
 21
404.336729
 31
0.0
  0
LINE
  8
0
  6
CONTINUOUS
 62
     7
  5
AC
 10
41.96271
 20
410.736729
 30
0.0
 11
41.96271
 21
404.336729
 31
0.0
  0
LINE
  8
0
  6
CONTINUOUS
 62
     7
  5
AD
 10
41.96271
 20
410.736729
 30
0.0
 11
46.581512
 21
410.736729
 31
0.0
  0
LINE
  8
0
  6
CONTINUOUS
 62
     7
  5
AE
 10
55.450315
 20
384.336729
 30
0.0
 11
51.200315
 21
384.336729
 31
0.0
  0
LINE
  8
0
  6
CONTINUOUS
 62
     7
  5
AF
 10
46.200315
 20
385.086729
 30
0.0
 11
51.200315
 21
385.086729
 31
0.0
  0
LINE
  8
0
  6
CONTINUOUS
 62
     7
  5
B0
 10
51.200315
 20
384.336729
 30
0.0
 11
46.950315
 21
384.336729
 31
0.0
  0
LINE
  8
0
  6
CONTINUOUS
 62
     7
  5
B1
 10
51.200315
 20
385.086729
 30
0.0
 11
56.200315
 21
385.086729
 31
0.0
  0
LINE
  8
0
  6
CONTINUOUS
 62
     7
  5
B2
 10
27.200315
 20
-110.163271
 30
0.0
 11
27.200315
 21
-121.663271
 31
0.0
  0
LINE
  8
0
  6
CONTINUOUS
 62
     7
  5
B3
 10
75.200315
 20
-110.163271
 30
0.0
 11
27.200315
 21
-110.163271
 31
0.0
  0
LINE
  8
0
  6
CONTINUOUS
 62
     7
  5
B4
 10
75.200315
 20
-121.663271
 30
0.0
 11
27.200315
 21
-121.663271
 31
0.0
  0
LINE
  8
0
  6
CONTINUOUS
 62
     7
  5
B5
 10
75.200315
 20
-110.163271
 30
0.0
 11
75.200315
 21
-121.663271
 31
0.0
  0
LINE
  8
0
  6
CONTINUOUS
 62
     7
  5
B6
 10
62.790389
 20
160.336729
 30
0.0
 11
51.200315
 21
160.336729
 31
0.0
  0
LINE
  8
0
  6
CONTINUOUS
 62
     7
  5
B7
 10
38.700315
 20
157.836729
 30
0.0
 11
51.200315
 21
157.836729
 31
0.0
  0
LINE
  8
0
  6
CONTINUOUS
 62
     7
  5
B8
 10
51.200315
 20
160.336729
 30
0.0
 11
39.61024
 21
160.336729
 31
0.0
  0
LINE
  8
0
  6
CONTINUOUS
 62
     7
  5
B9
 10
51.200315
 20
157.836729
 30
0.0
 11
63.700315
 21
157.836729
 31
0.0
  0
LINE
  8
0
  6
CONTINUOUS
 62
     7
  5
BA
 10
33.700315
 20
-103.663271
 30
0.0
 11
38.700315
 21
-103.663271
 31
0.0
  0
LINE
  8
0
  6
CONTINUOUS
 62
     7
  5
BB
 10
63.700315
 20
-103.663271
 30
0.0
 11
68.700315
 21
-103.663271
 31
0.0
  0
LINE
  8
0
  6
CONTINUOUS
 62
     7
  5
BC
 10
81.200315
 20
-73.863271
 30
0.0
 11
21.200315
 21
-73.863271
 31
0.0
  0
LINE
  8
0
  6
CONTINUOUS
 62
     7
  5
BD
 10
81.200315
 20
-73.863271
 30
0.0
 11
81.200315
 21
-87.663271
 31
0.0
  0
LINE
  8
0
  6
CONTINUOUS
 62
     7
  5
BE
 10
81.200315
 20
-87.663271
 30
0.0
 11
21.200315
 21
-87.663271
 31
0.0
  0
LINE
  8
0
  6
CONTINUOUS
 62
     7
  5
BF
 10
21.200315
 20
-73.863271
 30
0.0
 11
21.200315
 21
-87.663271
 31
0.0
  0
LINE
  8
0
  6
CONTINUOUS
 62
     7
  5
C0
 10
79.700315
 20
-38.863271
 30
0.0
 11
22.700315
 21
-38.863271
 31
0.0
  0
LINE
  8
0
  6
CONTINUOUS
 62
     7
  5
C1
 10
75.700315
 20
-34.863271
 30
0.0
 11
26.700315
 21
-34.863271
 31
0.0
  0
LINE
  8
0
  6
CONTINUOUS
 62
     9
  5
C2
 10
26.700315
 20
58.136729
 30
0.0
 11
75.700315
 21
58.136729
 31
0.0
  0
LINE
  8
0
  6
CONTINUOUS
 62
     7
  5
C3
 10
72.700315
 20
61.136729
 30
0.0
 11
29.700315
 21
61.136729
 31
0.0
  0
LINE
  8
0
  6
CONTINUOUS
 62
     7
  5
C4
 10
37.470057
 20
-91.663271
 30
0.0
 11
37.470057
 21
-87.663271
 31
0.0
  0
LINE
  8
0
  6
CONTINUOUS
 62
     7
  5
C5
 10
37.470057
 20
-91.663271
 30
0.0
 11
31.696554
 21
-91.663271
 31
0.0
  0
LINE
  8
0
  6
CONTINUOUS
 62
     7
  5
C6
 10
31.696554
 20
-91.663271
 30
0.0
 11
31.696554
 21
-87.663271
 31
0.0
  0
LINE
  8
0
  6
CONTINUOUS
 62
     7
  5
C7
 10
73.590827
 20
-91.663271
 30
0.0
 11
73.590827
 21
-87.663271
 31
0.0
  0
LINE
  8
0
  6
CONTINUOUS
 62
     7
  5
C8
 10
73.590827
 20
-91.663271
 30
0.0
 11
70.704075
 21
-91.663271
 31
0.0
  0
LINE
  8
0
  6
CONTINUOUS
 62
     7
  5
C9
 10
70.704075
 20
-91.663271
 30
0.0
 11
70.704075
 21
-87.663271
 31
0.0
  0
LINE
  8
0
  6
CONTINUOUS
 62
     7
  5
CA
 10
64.930573
 20
-91.663271
 30
0.0
 11
64.930573
 21
-87.663271
 31
0.0
  0
LINE
  8
0
  6
CONTINUOUS
 62
     7
  5
CB
 10
64.930573
 20
-91.663271
 30
0.0
 11
62.043821
 21
-91.663271
 31
0.0
  0
LINE
  8
0
  6
CONTINUOUS
 62
     7
  5
CC
 10
62.043821
 20
-91.663271
 30
0.0
 11
62.043821
 21
-87.663271
 31
0.0
  0
LINE
  8
0
  6
CONTINUOUS
 62
     7
  5
CD
 10
31.696554
 20
-91.663271
 30
0.0
 11
28.809802
 21
-91.663271
 31
0.0
  0
LINE
  8
0
  6
CONTINUOUS
 62
     7
  5
CE
 10
28.809802
 20
-91.663271
 30
0.0
 11
28.809802
 21
-87.663271
 31
0.0
  0
LINE
  8
0
  6
CONTINUOUS
 62
     7
  5
CF
 10
40.356808
 20
-91.663271
 30
0.0
 11
40.356808
 21
-87.663271
 31
0.0
  0
LINE
  8
0
  6
CONTINUOUS
 62
     7
  5
D0
 10
40.356808
 20
-91.663271
 30
0.0
 11
37.470057
 21
-91.663271
 31
0.0
  0
LINE
  8
0
  6
CONTINUOUS
 62
     7
  5
D1
 10
70.704075
 20
-91.663271
 30
0.0
 11
64.930573
 21
-91.663271
 31
0.0
  0
LINE
  8
0
  6
CONTINUOUS
 62
     7
  5
D2
 10
64.100315
 20
64.236729
 30
0.0
 11
38.300315
 21
64.236729
 31
0.0
  0
LINE
  8
0
  6
CONTINUOUS
 62
     7
  5
D3
 10
62.043821
 20
-90.763271
 30
0.0
 11
51.200315
 21
-90.763271
 31
0.0
  0
LINE
  8
0
  6
CONTINUOUS
 62
     7
  5
D4
 10
51.200315
 20
-90.763271
 30
0.0
 11
40.356808
 21
-90.763271
 31
0.0
  0
LINE
  8
0
  6
CONTINUOUS
 62
     7
  5
D5
 10
73.94438
 20
-91.663271
 30
0.0
 11
73.94438
 21
-87.663271
 31
0.0
  0
LINE
  8
0
  6
CONTINUOUS
 62
     7
  5
D6
 10
73.94438
 20
-91.663271
 30
0.0
 11
73.590827
 21
-91.663271
 31
0.0
  0
LINE
  8
0
  6
CONTINUOUS
 62
     7
  5
D7
 10
28.809802
 20
-91.663271
 30
0.0
 11
28.456249
 21
-91.663271
 31
0.0
  0
LINE
  8
0
  6
CONTINUOUS
 62
     7
  5
D8
 10
28.456249
 20
-91.663271
 30
0.0
 11
28.456249
 21
-87.663271
 31
0.0
  0
LINE
  8
0
  6
CONTINUOUS
 62
     7
  5
D9
 10
68.700315
 20
388.336729
 30
0.0
 11
68.700315
 21
404.336729
 31
0.0
  0
LINE
  8
0
  6
CONTINUOUS
 62
     7
  5
DA
 10
33.700315
 20
404.336729
 30
0.0
 11
33.700315
 21
388.336729
 31
0.0
  0
LINE
  8
0
  6
CONTINUOUS
 62
     7
  5
DB
 10
46.200315
 20
385.086729
 30
0.0
 11
46.950315
 21
384.336729
 31
0.0
  0
LINE
  8
0
  6
CONTINUOUS
 62
     7
  5
DC
 10
55.450315
 20
384.336729
 30
0.0
 11
56.200315
 21
385.086729
 31
0.0
  0
LINE
  8
0
  6
CONTINUOUS
 62
     7
  5
DD
 10
46.200315
 20
388.336729
 30
0.0
 11
46.200315
 21
385.086729
 31
0.0
  0
LINE
  8
0
  6
CONTINUOUS
 62
     7
  5
DE
 10
56.200315
 20
385.086729
 30
0.0
 11
56.200315
 21
388.336729
 31
0.0
  0
LINE
  8
0
  6
CONTINUOUS
 62
     7
  5
DF
 10
63.700315
 20
157.836729
 30
0.0
 11
62.790389
 21
160.336729
 31
0.0
  0
LINE
  8
0
  6
CONTINUOUS
 62
     7
  5
E0
 10
39.61024
 20
160.336729
 30
0.0
 11
38.700315
 21
157.836729
 31
0.0
  0
LINE
  8
0
  6
CONTINUOUS
 62
     7
  5
E1
 10
38.700315
 20
157.836729
 30
0.0
 11
38.700315
 21
64.236729
 31
0.0
  0
LINE
  8
0
  6
CONTINUOUS
 62
     7
  5
E2
 10
38.700315
 20
-91.663271
 30
0.0
 11
38.700315
 21
-110.163271
 31
0.0
  0
LINE
  8
0
  6
CONTINUOUS
 62
     7
  5
E3
 10
63.700315
 20
-110.163271
 30
0.0
 11
63.700315
 21
-91.663271
 31
0.0
  0
LINE
  8
0
  6
CONTINUOUS
 62
     7
  5
E4
 10
63.700315
 20
64.236729
 30
0.0
 11
63.700315
 21
157.836729
 31
0.0
  0
LINE
  8
0
  6
CONTINUOUS
 62
     7
  5
E5
 10
33.700315
 20
-91.663271
 30
0.0
 11
33.700315
 21
-103.663271
 31
0.0
  0
LINE
  8
0
  6
CONTINUOUS
 62
     7
  5
E6
 10
68.700315
 20
-103.663271
 30
0.0
 11
68.700315
 21
-91.663271
 31
0.0
  0
LINE
  8
0
  6
CONTINUOUS
 62
     7
  5
E7
 10
79.700315
 20
-73.863271
 30
0.0
 11
79.700315
 21
-38.863271
 31
0.0
  0
LINE
  8
0
  6
CONTINUOUS
 62
     7
  5
E8
 10
22.700315
 20
-38.863271
 30
0.0
 11
22.700315
 21
-73.863271
 31
0.0
  0
LINE
  8
0
  6
CONTINUOUS
 62
     7
  5
E9
 10
79.700315
 20
-38.863271
 30
0.0
 11
75.700315
 21
-34.863271
 31
0.0
  0
LINE
  8
0
  6
CONTINUOUS
 62
     7
  5
EA
 10
26.700315
 20
-34.863271
 30
0.0
 11
22.700315
 21
-38.863271
 31
0.0
  0
LINE
  8
0
  6
CONTINUOUS
 62
     7
  5
EB
 10
75.700315
 20
-34.863271
 30
0.0
 11
75.700315
 21
58.136729
 31
0.0
  0
LINE
  8
0
  6
CONTINUOUS
 62
     7
  5
EC
 10
26.700315
 20
58.136729
 30
0.0
 11
26.700315
 21
-34.863271
 31
0.0
  0
ARC
  8
0
  6
CONTINUOUS
 62
     7
  5
ED
 10
29.700315
 20
58.136729
 30
0.0
 40
3.0
 50
90.0
 51
180.0
210
0.0
220
0.0
230
1.0
  0
ARC
  8
0
  6
CONTINUOUS
 62
     7
  5
EE
 10
72.700315
 20
58.136729
 30
0.0
 40
3.0
 50
0.0
 51
90.0
210
0.0
220
0.0
230
1.0
  0
LINE
  8
0
  6
CONTINUOUS
 62
     7
  5
EF
 10
65.700315
 20
61.136729
 30
0.0
 11
64.100315
 21
64.236729
 31
0.0
  0
LINE
  8
0
  6
CONTINUOUS
 62
     7
  5
F0
 10
38.300315
 20
64.236729
 30
0.0
 11
36.700315
 21
61.136729
 31
0.0
  0
ENDBLK
  8
0
  5
F1
  0
BLOCK
  8
0
  5
F4
  2
AID409
 70
     0
 10
0.0
 20
0.0
 30
0.0
  3
#auxiliary draft view
  0
CIRCLE
  8
0
  6
CONTINUOUS
 62
     7
  5
F5
 10
361.459766
 20
558.142027
 30
0.0
 40
4.25
210
0.0
220
0.0
230
1.0
  0
CIRCLE
  8
0
  6
CONTINUOUS
 62
     7
  5
F6
 10
361.459766
 20
588.142027
 30
0.0
 40
4.25
210
0.0
220
0.0
230
1.0
  0
CIRCLE
  8
0
  6
CONTINUOUS
 62
     7
  5
F7
 10
281.459766
 20
558.142027
 30
0.0
 40
4.25
210
0.0
220
0.0
230
1.0
  0
LINE
  8
0
  6
CONTINUOUS
 62
     7
  5
F8
 10
241.459766
 20
549.142027
 30
0.0
 11
401.459766
 21
549.142027
 31
0.0
  0
LINE
  8
0
  6
CONTINUOUS
 62
     7
  5
F9
 10
401.459766
 20
549.142027
 30
0.0
 11
401.459766
 21
597.142027
 31
0.0
  0
LINE
  8
0
  6
CONTINUOUS
 62
     7
  5
FA
 10
401.459766
 20
597.142027
 30
0.0
 11
241.459766
 21
597.142027
 31
0.0
  0
LINE
  8
0
  6
CONTINUOUS
 62
     7
  5
FB
 10
241.459766
 20
597.142027
 30
0.0
 11
241.459766
 21
549.142027
 31
0.0
  0
CIRCLE
  8
0
  6
CONTINUOUS
 62
     7
  5
FC
 10
281.459766
 20
588.142027
 30
0.0
 40
4.25
210
0.0
220
0.0
230
1.0
  0
LINE
  8
0
  6
CONTINUOUS
 62
     7
  5
FD
 10
401.576776
 20
595.532539
 30
0.0
 11
401.459766
 21
595.464984
 31
0.0
  0
LINE
  8
0
  6
CONTINUOUS
 62
     7
  5
FE
 10
406.576776
 20
592.645788
 30
0.0
 11
401.576776
 21
595.532539
 31
0.0
  0
LINE
  8
0
  6
CONTINUOUS
 62
     7
  5
FF
 10
401.576776
 20
583.985534
 30
0.0
 11
406.576776
 21
586.872285
 31
0.0
  0
LINE
  8
0
  6
CONTINUOUS
 62
     7
  5
100
 10
401.459766
 20
584.053089
 30
0.0
 11
401.576776
 21
583.985534
 31
0.0
  0
LINE
  8
0
  6
CONTINUOUS
 62
     7
  5
101
 10
406.576776
 20
586.872285
 30
0.0
 11
406.576776
 21
592.645788
 31
0.0
  0
LINE
  8
0
  6
CONTINUOUS
 62
     7
  5
102
 10
241.342757
 20
583.985534
 30
0.0
 11
241.459766
 21
584.053089
 31
0.0
  0
LINE
  8
0
  6
CONTINUOUS
 62
     7
  5
103
 10
236.342757
 20
586.872285
 30
0.0
 11
241.342757
 21
583.985534
 31
0.0
  0
LINE
  8
0
  6
CONTINUOUS
 62
     7
  5
104
 10
241.342757
 20
595.532539
 30
0.0
 11
236.342757
 21
592.645788
 31
0.0
  0
LINE
  8
0
  6
CONTINUOUS
 62
     7
  5
105
 10
241.459766
 20
595.464984
 30
0.0
 11
241.342757
 21
595.532539
 31
0.0
  0
LINE
  8
0
  6
CONTINUOUS
 62
     7
  5
106
 10
236.342757
 20
592.645788
 30
0.0
 11
236.342757
 21
586.872285
 31
0.0
  0
LINE
  8
0
  6
CONTINUOUS
 62
     7
  5
107
 10
401.576776
 20
562.298521
 30
0.0
 11
401.459766
 21
562.230965
 31
0.0
  0
LINE
  8
0
  6
CONTINUOUS
 62
     7
  5
108
 10
406.576776
 20
559.411769
 30
0.0
 11
401.576776
 21
562.298521
 31
0.0
  0
LINE
  8
0
  6
CONTINUOUS
 62
     7
  5
109
 10
406.576776
 20
553.638267
 30
0.0
 11
406.576776
 21
559.411769
 31
0.0
  0
LINE
  8
0
  6
CONTINUOUS
 62
     7
  5
10A
 10
401.576776
 20
550.751515
 30
0.0
 11
406.576776
 21
553.638267
 31
0.0
  0
LINE
  8
0
  6
CONTINUOUS
 62
     7
  5
10B
 10
401.459766
 20
550.819071
 30
0.0
 11
401.576776
 21
550.751515
 31
0.0
  0
LINE
  8
0
  6
CONTINUOUS
 62
     7
  5
10C
 10
241.342757
 20
562.298521
 30
0.0
 11
236.342757
 21
559.411769
 31
0.0
  0
LINE
  8
0
  6
CONTINUOUS
 62
     7
  5
10D
 10
241.459766
 20
562.230965
 30
0.0
 11
241.342757
 21
562.298521
 31
0.0
  0
LINE
  8
0
  6
CONTINUOUS
 62
     7
  5
10E
 10
241.342757
 20
550.751515
 30
0.0
 11
241.459766
 21
550.819071
 31
0.0
  0
LINE
  8
0
  6
CONTINUOUS
 62
     7
  5
10F
 10
236.342757
 20
553.638267
 30
0.0
 11
241.342757
 21
550.751515
 31
0.0
  0
LINE
  8
0
  6
CONTINUOUS
 62
     7
  5
110
 10
236.342757
 20
559.411769
 30
0.0
 11
236.342757
 21
553.638267
 31
0.0
  0
CIRCLE
  8
0
  6
CONTINUOUS
 62
     7
  5
111
 10
220.459766
 20
593.142027
 30
0.0
 40
4.25
210
0.0
220
0.0
230
1.0
  0
CIRCLE
  8
0
  6
CONTINUOUS
 62
     7
  5
112
 10
422.459766
 20
593.142027
 30
0.0
 40
4.25
210
0.0
220
0.0
230
1.0
  0
CIRCLE
  8
0
  6
CONTINUOUS
 62
     7
  5
113
 10
220.459766
 20
553.142027
 30
0.0
 40
4.25
210
0.0
220
0.0
230
1.0
  0
CIRCLE
  8
0
  6
CONTINUOUS
 62
     7
  5
114
 10
422.459766
 20
553.142027
 30
0.0
 40
4.25
210
0.0
220
0.0
230
1.0
  0
LINE
  8
0
  6
CONTINUOUS
 62
     7
  5
115
 10
431.459766
 20
543.142027
 30
0.0
 11
431.459766
 21
603.142027
 31
0.0
  0
LINE
  8
0
  6
CONTINUOUS
 62
     7
  5
116
 10
211.459766
 20
543.142027
 30
0.0
 11
431.459766
 21
543.142027
 31
0.0
  0
LINE
  8
0
  6
CONTINUOUS
 62
     7
  5
117
 10
211.459766
 20
603.142027
 30
0.0
 11
211.459766
 21
543.142027
 31
0.0
  0
LINE
  8
0
  6
CONTINUOUS
 62
     7
  5
118
 10
431.459766
 20
603.142027
 30
0.0
 11
211.459766
 21
603.142027
 31
0.0
  0
ENDBLK
  8
0
  5
119
  0
BLOCK
  8
0
  5
13F
  2
AID643
 70
     0
 10
0.0
 20
0.0
 30
0.0
  3
DNote#note referencing elements
  0
TEXT
  8
0
 62
     7
  5
140
 10
23.471305
 20
553.144775
 30
0.0
 40
4.5
  1
Représenté course 92 mm
210
0.0
220
0.0
230
1.0
  0
TEXT
  8
0
 62
     7
  5
141
 10
23.471305
 20
546.394775
 30
0.0
 40
4.5
  1
Represented stroke 92 mm
210
0.0
220
0.0
230
1.0
  0
TEXT
  8
0
 62
     7
  5
142
 10
23.471305
 20
539.644775
 30
0.0
 40
4.5
  1
In Hub 92 mm Vorgestellt
210
0.0
220
0.0
230
1.0
  0
ENDBLK
  8
0
  5
143
  0
ENDSEC
  0
SECTION
  2
ENTITIES
  0
INSERT
  8
0
  5
A2
  2
AID3
 10
0.0
 20
0.0
 30
0.0
  0
INSERT
  8
0
  5
F2
  2
AID253
 10
0.0
 20
0.0
 30
0.0
  0
INSERT
  8
0
  5
11A
  2
AID409
 10
0.0
 20
0.0
 30
0.0
  0
LINE
  8
0
  6
CENTER
 62
     1
  5
11C
 10
34.229752
 20
-59.663271
 30
0.0
 11
34.229752
 21
-66.163271
 31
0.0
  0
LINE
  8
0
  6
CENTER
 62
     1
  5
11D
 10
34.583305
 20
-70.863271
 30
0.0
 11
34.583305
 21
-90.663271
 31
0.0
  0
LINE
  8
0
  6
CENTER
 62
     1
  5
11E
 10
67.817324
 20
-53.863271
 30
0.0
 11
67.817324
 21
-61.282975
 31
0.0
  0
LINE
  8
0
  6
CENTER
 62
     1
  5
11F
 10
67.817324
 20
-70.863271
 30
0.0
 11
67.817324
 21
-90.663271
 31
0.0
  0
LINE
  8
0
  6
CENTER
 62
     1
  5
120
 10
51.200315
 20
407.336729
 30
0.0
 11
51.200315
 21
381.336729
 31
0.0
  0
LINE
  8
0
  6
CENTER
 62
     1
  5
121
 10
51.200315
 20
163.336729
 30
0.0
 11
51.200315
 21
-113.163271
 31
0.0
  0
LINE
  8
0
  6
CENTER
 62
     1
  5
122
 10
321.459766
 20
-70.163271
 30
0.0
 11
321.459766
 21
-76.863271
 31
0.0
  0
LINE
  8
0
  6
CENTER
 62
     1
  5
123
 10
368.342757
 20
-65.663271
 30
0.0
 11
368.342757
 21
-55.282975
 31
0.0
  0
LINE
  8
0
  6
CENTER
 62
     1
  5
124
 10
368.342757
 20
-70.863271
 30
0.0
 11
368.342757
 21
-90.663271
 31
0.0
  0
LINE
  8
0
  6
CENTER
 62
     1
  5
125
 10
401.576776
 20
-70.863271
 30
0.0
 11
401.576776
 21
-90.663271
 31
0.0
  0
LINE
  8
0
  6
CENTER
 62
     1
  5
126
 10
281.459766
 20
-107.163271
 30
0.0
 11
281.459766
 21
-124.663271
 31
0.0
  0
LINE
  8
0
  6
CENTER
 62
     1
  5
127
 10
257.959766
 20
163.336729
 30
0.0
 11
257.959766
 21
-113.163271
 31
0.0
  0
LINE
  8
0
  6
CENTER
 62
     1
  5
128
 10
304.489204
 20
-59.663271
 30
0.0
 11
304.489204
 21
-90.663271
 31
0.0
  0
LINE
  8
0
  6
CENTER
 62
     1
  5
129
 10
321.459766
 20
407.336729
 30
0.0
 11
321.459766
 21
381.336729
 31
0.0
  0
LINE
  8
0
  6
CENTER
 62
     1
  5
12A
 10
321.459766
 20
-113.163271
 30
0.0
 11
321.459766
 21
-84.663271
 31
0.0
  0
LINE
  8
0
  6
CENTER
 62
     1
  5
12B
 10
338.430329
 20
-59.663271
 30
0.0
 11
338.430329
 21
-90.663271
 31
0.0
  0
LINE
  8
0
  6
CENTER
 62
     1
  5
12C
 10
384.959766
 20
163.336729
 30
0.0
 11
384.959766
 21
-113.163271
 31
0.0
  0
LINE
  8
0
  6
CENTER
 62
     1
  5
12D
 10
422.459766
 20
-70.863271
 30
0.0
 11
422.459766
 21
-90.663271
 31
0.0
  0
LINE
  8
0
  6
CENTER
 62
     1
  5
12E
 10
213.209766
 20
553.142027
 30
0.0
 11
227.709766
 21
553.142027
 31
0.0
  0
LINE
  8
0
  6
CENTER
 62
     1
  5
12F
 10
220.459766
 20
545.892027
 30
0.0
 11
220.459766
 21
560.392027
 31
0.0
  0
LINE
  8
0
  6
CENTER
 62
     1
  5
130
 10
213.209766
 20
593.142027
 30
0.0
 11
227.709766
 21
593.142027
 31
0.0
  0
LINE
  8
0
  6
CENTER
 62
     1
  5
131
 10
220.459766
 20
585.892027
 30
0.0
 11
220.459766
 21
600.392027
 31
0.0
  0
LINE
  8
0
  6
CENTER
 62
     1
  5
132
 10
274.209766
 20
558.142027
 30
0.0
 11
288.709766
 21
558.142027
 31
0.0
  0
LINE
  8
0
  6
CENTER
 62
     1
  5
133
 10
281.459766
 20
550.892027
 30
0.0
 11
281.459766
 21
565.392027
 31
0.0
  0
LINE
  8
0
  6
CENTER
 62
     1
  5
134
 10
274.209766
 20
588.142027
 30
0.0
 11
288.709766
 21
588.142027
 31
0.0
  0
LINE
  8
0
  6
CENTER
 62
     1
  5
135
 10
281.459766
 20
580.892027
 30
0.0
 11
281.459766
 21
595.392027
 31
0.0
  0
LINE
  8
0
  6
CENTER
 62
     1
  5
136
 10
354.209766
 20
558.142027
 30
0.0
 11
368.709766
 21
558.142027
 31
0.0
  0
LINE
  8
0
  6
CENTER
 62
     1
  5
137
 10
361.459766
 20
550.892027
 30
0.0
 11
361.459766
 21
565.392027
 31
0.0
  0
LINE
  8
0
  6
CENTER
 62
     1
  5
138
 10
354.209766
 20
588.142027
 30
0.0
 11
368.709766
 21
588.142027
 31
0.0
  0
LINE
  8
0
  6
CENTER
 62
     1
  5
139
 10
361.459766
 20
580.892027
 30
0.0
 11
361.459766
 21
595.392027
 31
0.0
  0
LINE
  8
0
  6
CENTER
 62
     1
  5
13A
 10
415.209766
 20
553.142027
 30
0.0
 11
429.709766
 21
553.142027
 31
0.0
  0
LINE
  8
0
  6
CENTER
 62
     1
  5
13B
 10
422.459766
 20
545.892027
 30
0.0
 11
422.459766
 21
560.392027
 31
0.0
  0
LINE
  8
0
  6
CENTER
 62
     1
  5
13C
 10
415.209766
 20
593.142027
 30
0.0
 11
429.709766
 21
593.142027
 31
0.0
  0
LINE
  8
0
  6
CENTER
 62
     1
  5
13D
 10
422.459766
 20
585.892027
 30
0.0
 11
422.459766
 21
600.392027
 31
0.0
  0
INSERT
  8
0
  5
144
  2
AID643
 10
0.0
 20
0.0
 30
0.0
  0
ENDSEC
  0
EOF
