  0
SECTION
  2
HEADER
  9
$ACADVER
  1
AC1009
  9
$DWGCODEPAGE
  3
ansi_1252
  9
$INSBASE
 10
0.0
 20
0.0
 30
0.0
  9
$EXTMIN
 10
0.0
 20
-82.853317
 30
0.0
  9
$EXTMAX
 10
353.284787
 20
381.810482
 30
5.0
  9
$LIMMIN
 10
0.0
 20
-82.853317
  9
$LIMMAX
 10
353.284787
 20
381.810482
  9
$ORTHOMODE
 70
     0
  9
$REGENMODE
 70
     1
  9
$FILLMODE
 70
     1
  9
$QTEXTMODE
 70
     0
  9
$MIRRTEXT
 70
     1
  9
$DRAGMODE
 70
     2
  9
$LTSCALE
 40
10.0
  9
$OSMODE
 70
     0
  9
$ATTMODE
 70
     1
  9
$TEXTSIZE
 40
0.2
  9
$TRACEWID
 40
0.05
  9
$TEXTSTYLE
  7
STANDARD
  9
$CLAYER
  8
0
  9
$CELTYPE
  6
CONTINUOUS
  9
$CECOLOR
 62
   256
  9
$DIMSCALE
 40
1.0
  9
$DIMASZ
 40
1.25
  9
$DIMEXO
 40
1.0
  9
$DIMDLI
 40
0.38
  9
$DIMRND
 40
0.0
  9
$DIMDLE
 40
0.0
  9
$DIMEXE
 40
0.75
  9
$DIMTP
 40
0.0
  9
$DIMTM
 40
0.0
  9
$DIMTXT
 40
2.5
  9
$DIMCEN
 40
0.09
  9
$DIMTSZ
 40
0.0
  9
$DIMTOL
 70
     0
  9
$DIMLIM
 70
     0
  9
$DIMTIH
 70
     0
  9
$DIMTOH
 70
     0
  9
$DIMSE1
 70
     0
  9
$DIMSE2
 70
     0
  9
$DIMTAD
 70
     1
  9
$DIMZIN
 70
     0
  9
$DIMBLK
  1

  9
$DIMASO
 70
     1
  9
$DIMSHO
 70
     1
  9
$DIMPOST
  1

  9
$DIMAPOST
  1

  9
$DIMALT
 70
     0
  9
$DIMALTD
 70
     2
  9
$DIMALTF
 40
25.4
  9
$DIMLFAC
 40
1.0
  9
$DIMTOFL
 70
     0
  9
$DIMTVP
 40
0.0
  9
$DIMTIX
 70
     0
  9
$DIMSOXD
 70
     0
  9
$DIMSAH
 70
     0
  9
$DIMBLK1
  1

  9
$DIMBLK2
  1

  9
$DIMSTYLE
  2
STANDARD
  9
$DIMCLRD
 70
     7
  9
$DIMCLRE
 70
     7
  9
$DIMCLRT
 70
     7
  9
$DIMTFAC
 40
0.8
  9
$DIMGAP
 40
1.25
  9
$LUNITS
 70
     2
  9
$LUPREC
 70
     4
  9
$AXISMODE
 70
     0
  9
$AXISUNIT
 10
0.0
 20
0.0
  9
$SKETCHINC
 40
0.1
  9
$FILLETRAD
 40
0.0
  9
$AUNITS
 70
     0
  9
$AUPREC
 70
     0
  9
$MENU
  1
acad
  9
$ELEVATION
 40
0.0
  9
$PELEVATION
 40
0.0
  9
$THICKNESS
 40
0.0
  9
$LIMCHECK
 70
     0
  9
$BLIPMODE
 70
     1
  9
$CHAMFERA
 40
0.0
  9
$CHAMFERB
 40
0.0
  9
$SKPOLY
 70
     0
  9
$TDCREATE
 40
2454334.653391204
  9
$TDUPDATE
 40
2454334.569328704
  9
$TDINDWG
 40
0.0000000000
  9
$TDUSRTIMER
 40
0.0000000000
  9
$USRTIMER
 70
     1
  9
$ANGBASE
 50
0.0
  9
$ANGDIR
 70
     0
  9
$PDMODE
 70
     0
  9
$PDSIZE
 40
0.0
  9
$PLINEWID
 40
0.0
  9
$COORDS
 70
     0
  9
$SPLFRAME
 70
     0
  9
$SPLINETYPE
 70
     6
  9
$SPLINESEGS
 70
     8
  9
$ATTDIA
 70
     0
  9
$ATTREQ
 70
     1
  9
$HANDLING
 70
     1
  9
$HANDSEED
  5
2F6
  9
$SURFTAB1
 70
     6
  9
$SURFTAB2
 70
     6
  9
$SURFTYPE
 70
     6
  9
$SURFU
 70
     6
  9
$SURFV
 70
     6
  9
$UCSNAME
  2

  9
$UCSORG
 10
0.0
 20
0.0
 30
0.0
  9
$UCSXDIR
 10
1.0
 20
0.0
 30
0.0
  9
$UCSYDIR
 10
0.0
 20
1.0
 30
0.0
  9
$PUCSNAME
  2

  9
$PUCSORG
 10
0.0
 20
0.0
 30
0.0
  9
$PUCSXDIR
 10
1.0
 20
0.0
 30
0.0
  9
$PUCSYDIR
 10
0.0
 20
1.0
 30
0.0
  9
$USERI1
 70
     0
  9
$USERI2
 70
     0
  9
$USERI3
 70
     0
  9
$USERI4
 70
     0
  9
$USERI5
 70
     0
  9
$USERR1
 40
0.0
  9
$USERR2
 40
0.0
  9
$USERR3
 40
0.0
  9
$USERR4
 40
0.0
  9
$USERR5
 40
0.0
  9
$WORLDVIEW
 70
     1
  9
$SHADEDGE
 70
     3
  9
$SHADEDIF
 70
    70
  9
$TILEMODE
 70
     1
  9
$MAXACTVP
 70
    16
  9
$PINSBASE
 10
0.0
 20
0.0
 30
0.0
  9
$PLIMCHECK
 70
     0
  9
$PEXTMIN
 10
1.000000E+20
 20
1.000000E+20
 30
1.000000E+20
  9
$PEXTMAX
 10
-1.000000E+20
 20
-1.000000E+20
 30
-1.000000E+20
  9
$PLIMMIN
 10
0.0
 20
0.0
  9
$PLIMMAX
 10
12.0
 20
9.0
  9
$UNITMODE
 70
     0
  9
$VISRETAIN
 70
     0
  9
$PLINEGEN
 70
     1
  9
$PSLTSCALE
 70
     0
  9
$TREEDEPTH
 70
  3020
  0
ENDSEC
  0
SECTION
  2
TABLES
  0
TABLE
  2
VPORT
 70
     1
  0
VPORT
  2
*ACTIVE
 70
     0
 10
0.0
 20
0.0
 11
1.0
 21
1.0
 12
6.591288
 22
4.579184
 13
0.0
 23
0.0
 14
1.0
 24
1.0
 15
0.0
 25
0.0
 16
0.0
 26
0.0
 36
1.0
 17
0.0
 27
0.0
 37
0.0
 40
9.158369
 41
0.688564
 42
50.0
 43
0.0
 44
0.0
 50
0.0
 51
0.0
 71
     0
 72
   100
 73
     1
 74
     1
 75
     0
 76
     0
 77
     0
 78
     0
  0
ENDTAB
  0
TABLE
  2
LTYPE
 70
     2
  0
LTYPE
  2
CONTINUOUS
 70
    64
  3
Solid line
 72
    65
 73
     0
 40
0.0
  0
LTYPE
  2
CENTER
 70
    64
  3
____ _ ____ _ ____ _ ____ _ ____ _ ____ _ ____
 72
    65
 73
     4
 40
2.0
 49
1.25
 49
-0.25
 49
0.25
 49
-0.25
  0
ENDTAB
  0
TABLE
  2
LAYER
 70
     1
  0
LAYER
  2
0
 70
     0
 62
     7
  6
CONTINUOUS
  0
ENDTAB
  0
TABLE
  2
STYLE
 70
     1
  0
STYLE
  2
STANDARD
 70
     0
 40
0.0
 41
1.0
 50
0.0
 71
     0
 42
0.0
  3
IsonormD
  4

  0
ENDTAB
  0
TABLE
  2
VIEW
 70
     0
  0
ENDTAB
  0
TABLE
  2
UCS
 70
     0
  0
ENDTAB
  0
TABLE
  2
APPID
 70
     2
  0
APPID
  2
ACAD
 70
     0
  0
APPID
  2
TopSolid_Draft
 70
     0
  0
ENDTAB
  0
TABLE
  2
DIMSTYLE
 70
     1
  0
DIMSTYLE
  2
STANDARD
 70
     0
  3

  4

  5

  6

  7

 40
1.0
 41
1.25
 42
1.0
 43
0.38
 44
0.75
 45
0.0
 46
0.0
 47
0.0
 48
0.0
 71
     0
 72
     0
 73
     0
 74
     0
 75
     0
 76
     0
 77
     1
 78
     0
140
2.5
141
0.09
142
0.0
143
25.4
144
1.0
145
0.0
146
0.8
147
1.25
170
     0
171
     2
172
     0
173
     0
174
     0
175
     0
176
     7
177
     7
178
     7
  0
ENDTAB
  0
ENDSEC
  0
SECTION
  2
BLOCKS
  0
BLOCK
  8
0
  5
25
  2
AID3
 70
     0
 10
0.0
 20
0.0
 30
0.0
  3
#draft view
  0
LINE
  8
0
  6
CONTINUOUS
 62
     7
  5
26
 10
179.437254
 20
263.005349
 30
0.0
 11
179.437254
 21
252.005349
 31
0.0
  0
LINE
  8
0
  6
CONTINUOUS
 62
     7
  5
27
 10
179.437254
 20
263.005349
 30
0.0
 11
183.437254
 21
263.005349
 31
0.0
  0
LINE
  8
0
  6
CONTINUOUS
 62
     7
  5
28
 10
183.437254
 20
263.005349
 30
0.0
 11
183.437254
 21
252.005349
 31
0.0
  0
LINE
  8
0
  6
CONTINUOUS
 62
     7
  5
29
 10
179.437254
 20
252.005349
 30
0.0
 11
183.437254
 21
252.005349
 31
0.0
  0
LINE
  8
0
  6
CONTINUOUS
 62
     7
  5
2A
 10
169.437254
 20
263.005349
 30
0.0
 11
169.437254
 21
252.005349
 31
0.0
  0
LINE
  8
0
  6
CONTINUOUS
 62
     7
  5
2B
 10
169.437254
 20
263.005349
 30
0.0
 11
179.437254
 21
263.005349
 31
0.0
  0
LINE
  8
0
  6
CONTINUOUS
 62
     7
  5
2C
 10
169.437254
 20
252.005349
 30
0.0
 11
179.437254
 21
252.005349
 31
0.0
  0
LINE
  8
0
  6
CONTINUOUS
 62
     7
  5
2D
 10
165.437254
 20
263.005349
 30
0.0
 11
165.437254
 21
252.005349
 31
0.0
  0
LINE
  8
0
  6
CONTINUOUS
 62
     7
  5
2E
 10
165.437254
 20
263.005349
 30
0.0
 11
169.437254
 21
263.005349
 31
0.0
  0
LINE
  8
0
  6
CONTINUOUS
 62
     7
  5
2F
 10
165.437254
 20
252.005349
 30
0.0
 11
169.437254
 21
252.005349
 31
0.0
  0
LINE
  8
0
  6
CONTINUOUS
 62
     7
  5
30
 10
158.937254
 20
42.005349
 30
0.0
 11
158.937254
 21
28.005349
 31
0.0
  0
LINE
  8
0
  6
CONTINUOUS
 62
     7
  5
31
 10
158.937254
 20
42.005349
 30
0.0
 11
162.937254
 21
42.005349
 31
0.0
  0
LINE
  8
0
  6
CONTINUOUS
 62
     7
  5
32
 10
162.937254
 20
42.005349
 30
0.0
 11
162.937254
 21
28.005349
 31
0.0
  0
LINE
  8
0
  6
CONTINUOUS
 62
     7
  5
33
 10
158.937254
 20
28.005349
 30
0.0
 11
162.937254
 21
28.005349
 31
0.0
  0
LINE
  8
0
  6
CONTINUOUS
 62
     7
  5
34
 10
208.937254
 20
42.005349
 30
0.0
 11
208.937254
 21
28.005349
 31
0.0
  0
LINE
  8
0
  6
CONTINUOUS
 62
     7
  5
35
 10
162.937254
 20
42.005349
 30
0.0
 11
208.937254
 21
42.005349
 31
0.0
  0
LINE
  8
0
  6
CONTINUOUS
 62
     7
  5
36
 10
162.937254
 20
28.005349
 30
0.0
 11
208.937254
 21
28.005349
 31
0.0
  0
LINE
  8
0
  6
CONTINUOUS
 62
     7
  5
37
 10
179.187254
 20
268.005349
 30
0.0
 11
170.687254
 21
268.005349
 31
0.0
  0
LINE
  8
0
  6
CONTINUOUS
 62
     7
  5
38
 10
197.487254
 20
45.205349
 30
0.0
 11
192.237254
 21
45.205349
 31
0.0
  0
LINE
  8
0
  6
CONTINUOUS
 62
     7
  5
39
 10
192.237254
 20
45.205349
 30
0.0
 11
186.987254
 21
45.205349
 31
0.0
  0
LINE
  8
0
  6
CONTINUOUS
 62
     7
  5
3A
 10
210.437254
 20
48.005349
 30
0.0
 11
210.437254
 21
158.005349
 31
0.0
  0
LINE
  8
0
  6
CONTINUOUS
 62
     7
  5
3B
 10
210.437254
 20
48.005349
 30
0.0
 11
169.937254
 21
48.005349
 31
0.0
  0
LINE
  8
0
  6
CONTINUOUS
 62
     7
  5
3C
 10
169.937254
 20
48.005349
 30
0.0
 11
169.937254
 21
158.005349
 31
0.0
  0
LINE
  8
0
  6
CONTINUOUS
 62
     7
  5
3D
 10
210.437254
 20
158.005349
 30
0.0
 11
169.937254
 21
158.005349
 31
0.0
  0
LINE
  8
0
  6
CONTINUOUS
 62
     7
  5
3E
 10
169.937254
 20
48.005349
 30
0.0
 11
160.437254
 21
48.005349
 31
0.0
  0
LINE
  8
0
  6
CONTINUOUS
 62
     7
  5
3F
 10
160.437254
 20
48.005349
 30
0.0
 11
160.437254
 21
158.005349
 31
0.0
  0
LINE
  8
0
  6
CONTINUOUS
 62
     7
  5
40
 10
169.937254
 20
158.005349
 30
0.0
 11
160.437254
 21
158.005349
 31
0.0
  0
LINE
  8
0
  6
CONTINUOUS
 62
     7
  5
41
 10
209.937254
 20
158.005349
 30
0.0
 11
209.937254
 21
204.005349
 31
0.0
  0
LINE
  8
0
  6
CONTINUOUS
 62
     7
  5
42
 10
194.937254
 20
158.005349
 30
0.0
 11
194.937254
 21
204.005349
 31
0.0
  0
LINE
  8
0
  6
CONTINUOUS
 62
     7
  5
43
 10
209.937254
 20
204.005349
 30
0.0
 11
194.937254
 21
204.005349
 31
0.0
  0
LINE
  8
0
  6
CONTINUOUS
 62
     7
  5
44
 10
203.937254
 20
208.405349
 30
0.0
 11
195.937254
 21
208.405349
 31
0.0
  0
LINE
  8
0
  6
CONTINUOUS
 62
     7
  5
45
 10
196.537254
 20
209.005349
 30
0.0
 11
203.337254
 21
209.005349
 31
0.0
  0
LINE
  8
0
  6
CONTINUOUS
 62
     7
  5
46
 10
198.937254
 20
209.505349
 30
0.0
 11
194.937254
 21
209.505349
 31
0.0
  0
LINE
  8
0
  6
CONTINUOUS
 62
     7
  5
47
 10
209.937254
 20
216.005349
 30
0.0
 11
194.937254
 21
216.005349
 31
0.0
  0
LINE
  8
0
  6
CONTINUOUS
 62
     7
  5
48
 10
209.937254
 20
211.805349
 30
0.0
 11
209.937254
 21
216.005349
 31
0.0
  0
LINE
  8
0
  6
CONTINUOUS
 62
     7
  5
49
 10
209.937254
 20
211.805349
 30
0.0
 11
198.937254
 21
211.805349
 31
0.0
  0
LINE
  8
0
  6
CONTINUOUS
 62
     7
  5
4A
 10
198.937254
 20
211.805349
 30
0.0
 11
198.937254
 21
209.505349
 31
0.0
  0
LINE
  8
0
  6
CONTINUOUS
 62
     7
  5
4B
 10
194.937254
 20
209.505349
 30
0.0
 11
194.937254
 21
216.005349
 31
0.0
  0
LINE
  8
0
  6
CONTINUOUS
 62
     7
  5
4C
 10
198.937254
 20
209.505349
 30
0.0
 11
198.937254
 21
209.005349
 31
0.0
  0
LINE
  8
0
  6
CONTINUOUS
 62
     7
  5
4D
 10
194.937254
 20
204.005349
 30
0.0
 11
194.937254
 21
209.505349
 31
0.0
  0
LINE
  8
0
  6
CONTINUOUS
 62
     7
  5
4E
 10
209.937254
 20
204.005349
 30
0.0
 11
209.937254
 21
211.805349
 31
0.0
  0
LINE
  8
0
  6
CONTINUOUS
 62
     9
  5
4F
 10
155.737254
 20
58.105349
 30
0.0
 11
151.487254
 21
58.105349
 31
0.0
  0
LINE
  8
0
  6
CONTINUOUS
 62
     7
  5
50
 10
155.737254
 20
64.605349
 30
0.0
 11
151.487254
 21
64.605349
 31
0.0
  0
LINE
  8
0
  6
CONTINUOUS
 62
     9
  5
51
 10
151.487254
 20
58.105349
 30
0.0
 11
147.237254
 21
58.105349
 31
0.0
  0
LINE
  8
0
  6
CONTINUOUS
 62
     7
  5
52
 10
151.487254
 20
64.605349
 30
0.0
 11
147.237254
 21
64.605349
 31
0.0
  0
LINE
  8
0
  6
CONTINUOUS
 62
     7
  5
53
 10
155.658209
 20
57.810349
 30
0.0
 11
147.316299
 21
57.810349
 31
0.0
  0
LINE
  8
0
  6
CONTINUOUS
 62
     7
  5
54
 10
155.066185
 20
56.405349
 30
0.0
 11
154.337254
 21
55.949455
 31
0.0
  0
LINE
  8
0
  6
CONTINUOUS
 62
     7
  5
55
 10
154.337254
 20
55.989549
 30
0.0
 11
153.537254
 21
55.569973
 31
0.0
  0
LINE
  8
0
  6
CONTINUOUS
 62
     7
  5
56
 10
153.537254
 20
55.100349
 30
0.0
 11
148.458209
 21
55.100349
 31
0.0
  0
LINE
  8
0
  6
CONTINUOUS
 62
     9
  5
57
 10
155.537254
 20
66.422849
 30
0.0
 11
147.437254
 21
66.422849
 31
0.0
  0
LINE
  8
0
  6
CONTINUOUS
 62
     7
  5
58
 10
155.334754
 20
66.625349
 30
0.0
 11
147.639754
 21
66.625349
 31
0.0
  0
LINE
  8
0
  6
CONTINUOUS
 62
     7
  5
59
 10
155.537254
 20
65.527849
 30
0.0
 11
147.437254
 21
65.527849
 31
0.0
  0
LINE
  8
0
  6
CONTINUOUS
 62
     7
  5
5A
 10
155.334754
 20
65.325349
 30
0.0
 11
147.639754
 21
65.325349
 31
0.0
  0
LINE
  8
0
  6
CONTINUOUS
 62
     7
  5
5B
 10
158.937254
 20
55.96945
 30
0.0
 11
158.735181
 21
55.114684
 31
0.0
  0
LINE
  8
0
  6
CONTINUOUS
 62
     7
  5
5C
 10
158.735181
 20
54.214881
 30
0.0
 11
158.937254
 21
52.505349
 31
0.0
  0
LINE
  8
0
  6
CONTINUOUS
 62
     7
  5
5D
 10
158.735181
 20
54.214881
 30
0.0
 11
158.735181
 21
55.114684
 31
0.0
  0
LINE
  8
0
  6
CONTINUOUS
 62
     7
  5
5E
 10
158.937254
 20
55.96945
 30
0.0
 11
158.937254
 21
52.505349
 31
0.0
  0
LINE
  8
0
  6
CONTINUOUS
 62
     7
  5
5F
 10
158.937254
 20
52.505349
 30
0.0
 11
158.735181
 21
50.795817
 31
0.0
  0
LINE
  8
0
  6
CONTINUOUS
 62
     7
  5
60
 10
158.735181
 20
49.896013
 30
0.0
 11
158.937254
 21
49.041247
 31
0.0
  0
LINE
  8
0
  6
CONTINUOUS
 62
     7
  5
61
 10
158.735181
 20
49.896013
 30
0.0
 11
158.735181
 21
50.795817
 31
0.0
  0
LINE
  8
0
  6
CONTINUOUS
 62
     7
  5
62
 10
158.937254
 20
52.505349
 30
0.0
 11
158.937254
 21
49.041247
 31
0.0
  0
LINE
  8
0
  6
CONTINUOUS
 62
     7
  5
63
 10
155.337254
 20
55.96945
 30
0.0
 11
155.539326
 21
55.114684
 31
0.0
  0
LINE
  8
0
  6
CONTINUOUS
 62
     7
  5
64
 10
155.539326
 20
54.214881
 30
0.0
 11
155.539326
 21
55.114684
 31
0.0
  0
LINE
  8
0
  6
CONTINUOUS
 62
     7
  5
65
 10
155.539326
 20
54.214881
 30
0.0
 11
155.337254
 21
52.505349
 31
0.0
  0
LINE
  8
0
  6
CONTINUOUS
 62
     7
  5
66
 10
155.337254
 20
55.96945
 30
0.0
 11
155.337254
 21
52.505349
 31
0.0
  0
LINE
  8
0
  6
CONTINUOUS
 62
     7
  5
67
 10
155.337254
 20
52.505349
 30
0.0
 11
155.539326
 21
50.795817
 31
0.0
  0
LINE
  8
0
  6
CONTINUOUS
 62
     7
  5
68
 10
155.539326
 20
49.896013
 30
0.0
 11
155.539326
 21
50.795817
 31
0.0
  0
LINE
  8
0
  6
CONTINUOUS
 62
     7
  5
69
 10
155.539326
 20
49.896013
 30
0.0
 11
155.337254
 21
49.041247
 31
0.0
  0
LINE
  8
0
  6
CONTINUOUS
 62
     7
  5
6A
 10
155.337254
 20
52.505349
 30
0.0
 11
155.337254
 21
49.041247
 31
0.0
  0
LINE
  8
0
  6
CONTINUOUS
 62
     7
  5
6B
 10
158.735181
 20
50.795817
 30
0.0
 11
155.539326
 21
50.795817
 31
0.0
  0
LINE
  8
0
  6
CONTINUOUS
 62
     7
  5
6C
 10
155.539326
 20
54.214881
 30
0.0
 11
158.735181
 21
54.214881
 31
0.0
  0
LINE
  8
0
  6
CONTINUOUS
 62
     7
  5
6D
 10
158.735181
 20
55.114684
 30
0.0
 11
155.539326
 21
55.114684
 31
0.0
  0
LINE
  8
0
  6
CONTINUOUS
 62
     7
  5
6E
 10
155.539326
 20
49.896013
 30
0.0
 11
158.735181
 21
49.896013
 31
0.0
  0
LINE
  8
0
  6
CONTINUOUS
 62
     7
  5
6F
 10
154.337254
 20
48.555349
 30
0.0
 11
154.337254
 21
55.989549
 31
0.0
  0
LINE
  8
0
  6
CONTINUOUS
 62
     7
  5
70
 10
153.537254
 20
55.569973
 30
0.0
 11
153.537254
 21
48.555349
 31
0.0
  0
LINE
  8
0
  6
CONTINUOUS
 62
     7
  5
71
 10
158.937254
 20
49.041247
 30
0.0
 11
158.735181
 21
48.186481
 31
0.0
  0
LINE
  8
0
  6
CONTINUOUS
 62
     7
  5
72
 10
158.735181
 20
48.186481
 30
0.0
 11
155.539326
 21
48.186481
 31
0.0
  0
LINE
  8
0
  6
CONTINUOUS
 62
     7
  5
73
 10
155.337254
 20
49.041247
 30
0.0
 11
155.539326
 21
48.186481
 31
0.0
  0
LINE
  8
0
  6
CONTINUOUS
 62
     7
  5
74
 10
158.735181
 20
56.824216
 30
0.0
 11
158.937254
 21
55.96945
 31
0.0
  0
LINE
  8
0
  6
CONTINUOUS
 62
     7
  5
75
 10
155.539326
 20
56.824216
 30
0.0
 11
155.337254
 21
55.96945
 31
0.0
  0
LINE
  8
0
  6
CONTINUOUS
 62
     7
  5
76
 10
155.539326
 20
56.824216
 30
0.0
 11
158.735181
 21
56.824216
 31
0.0
  0
LINE
  8
0
  6
CONTINUOUS
 62
     9
  5
77
 10
153.537254
 20
54.805349
 30
0.0
 11
148.537254
 21
54.805349
 31
0.0
  0
LINE
  8
0
  6
CONTINUOUS
 62
     9
  5
78
 10
149.737254
 20
52.505349
 30
0.0
 11
148.537254
 21
52.505349
 31
0.0
  0
LINE
  8
0
  6
CONTINUOUS
 62
     7
  5
79
 10
152.72469
 20
53.742786
 30
0.0
 11
153.537254
 21
54.555349
 31
0.0
  0
ARC
  8
0
  6
CONTINUOUS
 62
     7
  5
7A
 10
151.487248
 20
52.505335
 30
0.0
 40
1.750013
 50
45.000183
 51
89.999817
210
0.0
220
0.0
230
1.0
  0
POLYLINE
  8
0
  6
CONTINUOUS
 62
     7
  5
7B
 66
     1
 10
0.0
 20
0.0
 30
0.0
 40
0.5
 41
0.5
  0
VERTEX
  8
0
 62
     7
  5
7C
 10
149.737254
 20
52.505349
 30
0.0
 42
-0.148841
  0
VERTEX
  8
0
 62
     7
  5
7D
 10
150.034107
 20
53.480471
 30
0.0
  0
VERTEX
  8
0
 62
     7
  5
7E
 10
150.145003
 20
53.628227
 30
0.0
  0
VERTEX
  8
0
 62
     7
  5
7F
 10
150.272199
 20
53.764765
 30
0.0
 42
-0.194261
  0
VERTEX
  8
0
 62
     7
  5
80
 10
151.487254
 20
54.255349
 30
0.0
  0
SEQEND
  8
0
  5
81
  0
LINE
  8
0
  6
CONTINUOUS
 62
     9
  5
82
 10
151.487254
 20
50.755349
 30
0.0
 11
151.487254
 21
49.555349
 31
0.0
  0
ARC
  8
0
  6
CONTINUOUS
 62
     7
  5
83
 10
151.487161
 20
52.505311
 30
0.0
 40
1.750092
 50
0.001253
 51
44.998747
210
0.0
220
0.0
230
1.0
  0
POLYLINE
  8
0
  6
CONTINUOUS
 62
     7
  5
84
 66
     1
 10
0.0
 20
0.0
 30
0.0
 40
0.5
 41
0.5
  0
VERTEX
  8
0
 62
     7
  5
85
 10
151.487254
 20
50.755349
 30
0.0
 42
0.148818
  0
VERTEX
  8
0
 62
     7
  5
86
 10
152.462376
 20
51.052202
 30
0.0
  0
VERTEX
  8
0
 62
     7
  5
87
 10
152.611647
 20
51.16443
 30
0.0
  0
VERTEX
  8
0
 62
     7
  5
88
 10
152.748293
 20
51.292046
 30
0.0
 42
0.193915
  0
VERTEX
  8
0
 62
     7
  5
89
 10
153.237254
 20
52.505349
 30
0.0
  0
SEQEND
  8
0
  5
8A
  0
ARC
  8
0
  6
CONTINUOUS
 62
     7
  5
8B
 10
151.987258
 20
52.405346
 30
0.0
 40
0.599997
 50
270.000098
 51
0.000141
210
0.0
220
0.0
230
1.0
  0
LINE
  8
0
  6
CONTINUOUS
 62
     7
  5
8C
 10
151.763106
 20
51.805349
 30
0.0
 11
151.987259
 21
51.805349
 31
0.0
  0
LINE
  8
0
  6
CONTINUOUS
 62
     7
  5
8D
 10
151.390059
 20
52.605347
 30
0.0
 11
151.763106
 21
51.805349
 31
0.0
  0
LINE
  8
0
  6
CONTINUOUS
 62
     7
  5
8E
 10
152.387259
 20
53.205347
 30
0.0
 11
151.987255
 21
53.205347
 31
0.0
  0
ARC
  8
0
  6
CONTINUOUS
 62
     7
  5
8F
 10
152.387259
 20
53.00535
 30
0.0
 40
0.199997
 50
359.999835
 51
89.999878
210
0.0
220
0.0
230
1.0
  0
LINE
  8
0
  6
CONTINUOUS
 62
     7
  5
90
 10
152.587256
 20
52.405347
 30
0.0
 11
152.587256
 21
53.005349
 31
0.0
  0
LINE
  8
0
  6
CONTINUOUS
 62
     7
  5
91
 10
151.787255
 20
53.005348
 30
0.0
 11
151.787255
 21
52.805347
 31
0.0
  0
ARC
  8
0
  6
CONTINUOUS
 62
     7
  5
92
 10
151.587256
 20
52.805345
 30
0.0
 40
0.199998
 50
270.00048
 51
0.000523
210
0.0
220
0.0
230
1.0
  0
LINE
  8
0
  6
CONTINUOUS
 62
     7
  5
93
 10
151.587258
 20
52.605347
 30
0.0
 11
151.390059
 21
52.605347
 31
0.0
  0
ARC
  8
0
  6
CONTINUOUS
 62
     7
  5
94
 10
151.987254
 20
53.005347
 30
0.0
 40
0.2
 50
89.999692
 51
179.999735
210
0.0
220
0.0
230
1.0
  0
LINE
  8
0
  6
CONTINUOUS
 62
     7
  5
95
 10
150.387254
 20
52.00535
 30
0.0
 11
150.387254
 21
52.405349
 31
0.0
  0
ARC
  8
0
  6
CONTINUOUS
 62
     7
  5
96
 10
150.58679
 20
52.41898
 30
0.0
 40
0.200002
 50
111.277464
 51
183.908184
210
0.0
220
0.0
230
0.9999999999999999
  0
LINE
  8
0
  6
CONTINUOUS
 62
     7
  5
97
 10
150.514213
 20
52.605349
 30
0.0
 11
150.887261
 21
51.805349
 31
0.0
  0
LINE
  8
0
  6
CONTINUOUS
 62
     7
  5
98
 10
150.887261
 20
51.805349
 30
0.0
 11
150.587259
 21
51.805349
 31
0.0
  0
ARC
  8
0
  6
CONTINUOUS
 62
     7
  5
99
 10
150.587257
 20
52.005352
 30
0.0
 40
0.200003
 50
180.00048
 51
270.000523
210
0.0
220
0.0
230
1.0
  0
LINE
  8
0
  6
CONTINUOUS
 62
     7
  5
9A
 10
151.114213
 20
52.605349
 30
0.0
 11
151.487261
 21
51.805349
 31
0.0
  0
LINE
  8
0
  6
CONTINUOUS
 62
     7
  5
9B
 10
151.487261
 20
51.805349
 30
0.0
 11
151.163103
 21
51.805349
 31
0.0
  0
LINE
  8
0
  6
CONTINUOUS
 62
     7
  5
9C
 10
150.790059
 20
52.605349
 30
0.0
 11
151.114213
 21
52.605349
 31
0.0
  0
LINE
  8
0
  6
CONTINUOUS
 62
     7
  5
9D
 10
151.163103
 20
51.805349
 30
0.0
 11
150.790059
 21
52.605349
 31
0.0
  0
ARC
  8
0
  6
CONTINUOUS
 62
     7
  5
9E
 10
151.487254
 20
52.505349
 30
0.0
 40
1.75
 50
180.0
 51
270.0
210
0.0
220
0.0
230
1.0
  0
LINE
  8
0
  6
CONTINUOUS
 62
     7
  5
9F
 10
155.337254
 20
56.505349
 30
0.0
 11
155.337254
 21
55.96945
 31
0.0
  0
LINE
  8
0
  6
CONTINUOUS
 62
     7
  5
A0
 10
155.539326
 20
56.824216
 30
0.0
 11
155.539326
 21
56.855349
 31
0.0
  0
LINE
  8
0
  6
CONTINUOUS
 62
     7
  5
A1
 10
158.937254
 20
56.505349
 30
0.0
 11
158.937254
 21
55.96945
 31
0.0
  0
LINE
  8
0
  6
CONTINUOUS
 62
     7
  5
A2
 10
158.735181
 20
56.824216
 30
0.0
 11
158.735181
 21
56.855349
 31
0.0
  0
LINE
  8
0
  6
CONTINUOUS
 62
     7
  5
A3
 10
158.735181
 20
48.155349
 30
0.0
 11
158.735181
 21
48.186481
 31
0.0
  0
LINE
  8
0
  6
CONTINUOUS
 62
     7
  5
A4
 10
158.937254
 20
49.041247
 30
0.0
 11
158.937254
 21
48.505349
 31
0.0
  0
LINE
  8
0
  6
CONTINUOUS
 62
     7
  5
A5
 10
155.539326
 20
48.155349
 30
0.0
 11
155.539326
 21
48.186481
 31
0.0
  0
LINE
  8
0
  6
CONTINUOUS
 62
     7
  5
A6
 10
155.337254
 20
49.041247
 30
0.0
 11
155.337254
 21
48.505349
 31
0.0
  0
LINE
  8
0
  6
CONTINUOUS
 62
     7
  5
A7
 10
168.937254
 20
252.005349
 30
0.0
 11
168.937254
 21
158.005349
 31
0.0
  0
LINE
  8
0
  6
CONTINUOUS
 62
     7
  5
A8
 10
168.937254
 20
48.005349
 30
0.0
 11
168.937254
 21
42.005349
 31
0.0
  0
LINE
  8
0
  6
CONTINUOUS
 62
     7
  5
A9
 10
180.937254
 20
42.005349
 30
0.0
 11
180.937254
 21
48.005349
 31
0.0
  0
LINE
  8
0
  6
CONTINUOUS
 62
     7
  5
AA
 10
180.937254
 20
158.005349
 30
0.0
 11
180.937254
 21
252.005349
 31
0.0
  0
LINE
  8
0
  6
CONTINUOUS
 62
     7
  5
AB
 10
179.187254
 20
263.005349
 30
0.0
 11
179.187254
 21
268.005349
 31
0.0
  0
LINE
  8
0
  6
CONTINUOUS
 62
     7
  5
AC
 10
170.687254
 20
268.005349
 30
0.0
 11
170.687254
 21
263.005349
 31
0.0
  0
LINE
  8
0
  6
CONTINUOUS
 62
     7
  5
AD
 10
186.987254
 20
45.205349
 30
0.0
 11
186.987254
 21
42.005349
 31
0.0
  0
LINE
  8
0
  6
CONTINUOUS
 62
     7
  5
AE
 10
197.487254
 20
42.005349
 30
0.0
 11
197.487254
 21
45.205349
 31
0.0
  0
LINE
  8
0
  6
CONTINUOUS
 62
     7
  5
AF
 10
166.437254
 20
252.005349
 30
0.0
 11
166.437254
 21
158.005349
 31
0.0
  0
LINE
  8
0
  6
CONTINUOUS
 62
     7
  5
B0
 10
194.737254
 20
45.205349
 30
0.0
 11
194.737254
 21
48.005349
 31
0.0
  0
LINE
  8
0
  6
CONTINUOUS
 62
     7
  5
B1
 10
189.737254
 20
48.005349
 30
0.0
 11
189.737254
 21
45.205349
 31
0.0
  0
LINE
  8
0
  6
CONTINUOUS
 62
     7
  5
B2
 10
195.937254
 20
208.405349
 30
0.0
 11
195.937254
 21
204.005349
 31
0.0
  0
LINE
  8
0
  6
CONTINUOUS
 62
     7
  5
B3
 10
203.937254
 20
204.005349
 30
0.0
 11
203.937254
 21
208.405349
 31
0.0
  0
LINE
  8
0
  6
CONTINUOUS
 62
     7
  5
B4
 10
203.937254
 20
208.405349
 30
0.0
 11
203.337254
 21
209.005349
 31
0.0
  0
LINE
  8
0
  6
CONTINUOUS
 62
     7
  5
B5
 10
196.537254
 20
209.005349
 30
0.0
 11
195.937254
 21
208.405349
 31
0.0
  0
LINE
  8
0
  6
CONTINUOUS
 62
     7
  5
B6
 10
147.237254
 20
64.605349
 30
0.0
 11
147.237254
 21
58.105349
 31
0.0
  0
LINE
  8
0
  6
CONTINUOUS
 62
     7
  5
B7
 10
155.737254
 20
58.105349
 30
0.0
 11
155.737254
 21
64.605349
 31
0.0
  0
ARC
  8
0
  6
CONTINUOUS
 62
     7
  5
B8
 10
155.147254
 20
58.105349
 30
0.0
 40
0.59
 50
330.0
 51
0.0
210
0.0
220
0.0
230
1.0
  0
ARC
  8
0
  6
CONTINUOUS
 62
     7
  5
B9
 10
147.827254
 20
58.105349
 30
0.0
 40
0.59
 50
180.0
 51
210.0
210
0.0
220
0.0
230
1.0
  0
LINE
  8
0
  6
CONTINUOUS
 62
     7
  5
BA
 10
147.316299
 20
57.810349
 30
0.0
 11
148.458209
 21
55.100349
 31
0.0
  0
LINE
  8
0
  6
CONTINUOUS
 62
     7
  5
BB
 10
155.066007
 20
56.404927
 30
0.0
 11
155.066185
 21
56.405349
 31
0.0
  0
LINE
  8
0
  6
CONTINUOUS
 62
     7
  5
BC
 10
155.066185
 20
56.405349
 30
0.0
 11
155.658209
 21
57.810349
 31
0.0
  0
ARC
  8
0
  6
CONTINUOUS
 62
     7
  5
BD
 10
155.334754
 20
66.422849
 30
0.0
 40
0.2025
 50
0.0
 51
90.0
210
0.0
220
0.0
230
1.0
  0
ARC
  8
0
  6
CONTINUOUS
 62
     7
  5
BE
 10
147.639754
 20
66.422849
 30
0.0
 40
0.2025
 50
90.0
 51
180.0
210
0.0
220
0.0
230
1.0
  0
LINE
  8
0
  6
CONTINUOUS
 62
     7
  5
BF
 10
147.437254
 20
66.422849
 30
0.0
 11
147.437254
 21
65.527849
 31
0.0
  0
LINE
  8
0
  6
CONTINUOUS
 62
     7
  5
C0
 10
155.537254
 20
65.527849
 30
0.0
 11
155.537254
 21
66.422849
 31
0.0
  0
LINE
  8
0
  6
CONTINUOUS
 62
     7
  5
C1
 10
147.437254
 20
65.527849
 30
0.0
 11
147.639754
 21
65.325349
 31
0.0
  0
LINE
  8
0
  6
CONTINUOUS
 62
     7
  5
C2
 10
155.334754
 20
65.325349
 30
0.0
 11
155.537254
 21
65.527849
 31
0.0
  0
LINE
  8
0
  6
CONTINUOUS
 62
     7
  5
C3
 10
153.537254
 20
48.555349
 30
0.0
 11
154.337254
 21
48.555349
 31
0.0
  0
LINE
  8
0
  6
CONTINUOUS
 62
     7
  5
C4
 10
155.337254
 20
56.405349
 30
0.0
 11
155.066185
 21
56.405349
 31
0.0
  0
LINE
  8
0
  6
CONTINUOUS
 62
     7
  5
C5
 10
155.066185
 20
56.405349
 30
0.0
 11
155.065726
 21
56.405349
 31
0.0
  0
LINE
  8
0
  6
CONTINUOUS
 62
     7
  5
C6
 10
154.337254
 20
48.605349
 30
0.0
 11
155.337254
 21
48.605349
 31
0.0
  0
LINE
  8
0
  6
CONTINUOUS
 62
     7
  5
C7
 10
158.937254
 20
48.605349
 30
0.0
 11
160.437254
 21
48.605349
 31
0.0
  0
LINE
  8
0
  6
CONTINUOUS
 62
     7
  5
C8
 10
160.437254
 20
56.405349
 30
0.0
 11
158.937254
 21
56.405349
 31
0.0
  0
ARC
  8
0
  6
CONTINUOUS
 62
     7
  5
C9
 10
147.947254
 20
54.805349
 30
0.0
 40
0.59
 50
360.0
 51
30.0
210
0.0
220
0.0
230
1.0
  0
LINE
  8
0
  6
CONTINUOUS
 62
     7
  5
CA
 10
148.537254
 20
54.805349
 30
0.0
 11
148.537254
 21
52.505349
 31
0.0
  0
LINE
  8
0
  6
CONTINUOUS
 62
     7
  5
CB
 10
151.487254
 20
49.555349
 30
0.0
 11
153.537254
 21
49.555349
 31
0.0
  0
LINE
  8
0
  6
CONTINUOUS
 62
     7
  5
CC
 10
148.887254
 20
65.325349
 30
0.0
 11
148.887254
 21
64.605349
 31
0.0
  0
LINE
  8
0
  6
CONTINUOUS
 62
     7
  5
CD
 10
154.087254
 20
64.605349
 30
0.0
 11
154.087254
 21
65.325349
 31
0.0
  0
ARC
  8
0
  6
CONTINUOUS
 62
     7
  5
CE
 10
151.487254
 20
52.505349
 30
0.0
 40
2.95
 50
180.0
 51
270.0
210
0.0
220
0.0
230
1.0
  0
LINE
  8
0
  6
CONTINUOUS
 62
     7
  5
CF
 10
155.539326
 20
56.855349
 30
0.0
 11
155.337254
 21
56.505349
 31
0.0
  0
LINE
  8
0
  6
CONTINUOUS
 62
     7
  5
D0
 10
158.937254
 20
56.505349
 30
0.0
 11
158.735181
 21
56.855349
 31
0.0
  0
LINE
  8
0
  6
CONTINUOUS
 62
     7
  5
D1
 10
158.735181
 20
48.155349
 30
0.0
 11
158.937254
 21
48.505349
 31
0.0
  0
LINE
  8
0
  6
CONTINUOUS
 62
     7
  5
D2
 10
155.337254
 20
48.505349
 30
0.0
 11
155.539326
 21
48.155349
 31
0.0
  0
LINE
  8
0
  6
CONTINUOUS
 62
     7
  5
D3
 10
158.735181
 20
56.855349
 30
0.0
 11
155.539326
 21
56.855349
 31
0.0
  0
LINE
  8
0
  6
CONTINUOUS
 62
     7
  5
D4
 10
155.539326
 20
48.155349
 30
0.0
 11
158.735181
 21
48.155349
 31
0.0
  0
ENDBLK
  8
0
  5
D5
  0
BLOCK
  8
0
  5
D8
  2
AID333
 70
     0
 10
0.0
 20
0.0
 30
0.0
  3
#auxiliary draft view
  0
LINE
  8
0
  6
CONTINUOUS
 62
     7
  5
D9
 10
79.707707
 20
42.005349
 30
0.0
 11
79.707707
 21
28.005349
 31
0.0
  0
LINE
  8
0
  6
CONTINUOUS
 62
     7
  5
DA
 10
24.707707
 20
28.005349
 30
0.0
 11
79.707707
 21
28.005349
 31
0.0
  0
LINE
  8
0
  6
CONTINUOUS
 62
     7
  5
DB
 10
24.707707
 20
42.005349
 30
0.0
 11
79.707707
 21
42.005349
 31
0.0
  0
LINE
  8
0
  6
CONTINUOUS
 62
     7
  5
DC
 10
24.707707
 20
42.005349
 30
0.0
 11
24.707707
 21
28.005349
 31
0.0
  0
LINE
  8
0
  6
CONTINUOUS
 62
     7
  5
DD
 10
57.457707
 20
45.205349
 30
0.0
 11
46.957707
 21
45.205349
 31
0.0
  0
LINE
  8
0
  6
CONTINUOUS
 62
     7
  5
DE
 10
28.707707
 20
263.005349
 30
0.0
 11
28.707707
 21
252.005349
 31
0.0
  0
LINE
  8
0
  6
CONTINUOUS
 62
     9
  5
DF
 10
40.685989
 20
252.005349
 30
0.0
 11
40.685989
 21
263.005349
 31
0.0
  0
LINE
  8
0
  6
CONTINUOUS
 62
     7
  5
E0
 10
28.707707
 20
252.005349
 30
0.0
 11
40.685989
 21
252.005349
 31
0.0
  0
LINE
  8
0
  6
CONTINUOUS
 62
     7
  5
E1
 10
28.707707
 20
263.005349
 30
0.0
 11
40.685989
 21
263.005349
 31
0.0
  0
LINE
  8
0
  6
CONTINUOUS
 62
     7
  5
E2
 10
24.707707
 20
263.005349
 30
0.0
 11
24.707707
 21
252.005349
 31
0.0
  0
LINE
  8
0
  6
CONTINUOUS
 62
     7
  5
E3
 10
24.707707
 20
252.005349
 30
0.0
 11
28.707707
 21
252.005349
 31
0.0
  0
LINE
  8
0
  6
CONTINUOUS
 62
     7
  5
E4
 10
24.707707
 20
263.005349
 30
0.0
 11
28.707707
 21
263.005349
 31
0.0
  0
LINE
  8
0
  6
CONTINUOUS
 62
     9
  5
E5
 10
62.373929
 20
252.005349
 30
0.0
 11
62.373929
 21
263.005349
 31
0.0
  0
LINE
  8
0
  6
CONTINUOUS
 62
     9
  5
E6
 10
63.729426
 20
263.005349
 30
0.0
 11
63.729426
 21
252.005349
 31
0.0
  0
LINE
  8
0
  6
CONTINUOUS
 62
     7
  5
E7
 10
63.729426
 20
252.005349
 30
0.0
 11
62.373929
 21
252.005349
 31
0.0
  0
LINE
  8
0
  6
CONTINUOUS
 62
     7
  5
E8
 10
62.373929
 20
263.005349
 30
0.0
 11
63.729426
 21
263.005349
 31
0.0
  0
LINE
  8
0
  6
CONTINUOUS
 62
     7
  5
E9
 10
75.707707
 20
263.005349
 30
0.0
 11
75.707707
 21
252.005349
 31
0.0
  0
LINE
  8
0
  6
CONTINUOUS
 62
     7
  5
EA
 10
63.729426
 20
252.005349
 30
0.0
 11
75.707707
 21
252.005349
 31
0.0
  0
LINE
  8
0
  6
CONTINUOUS
 62
     7
  5
EB
 10
63.729426
 20
263.005349
 30
0.0
 11
75.707707
 21
263.005349
 31
0.0
  0
LINE
  8
0
  6
CONTINUOUS
 62
     9
  5
EC
 10
42.041485
 20
263.005349
 30
0.0
 11
42.041485
 21
252.005349
 31
0.0
  0
LINE
  8
0
  6
CONTINUOUS
 62
     7
  5
ED
 10
42.041485
 20
252.005349
 30
0.0
 11
40.685989
 21
252.005349
 31
0.0
  0
LINE
  8
0
  6
CONTINUOUS
 62
     7
  5
EE
 10
40.685989
 20
263.005349
 30
0.0
 11
42.041485
 21
263.005349
 31
0.0
  0
LINE
  8
0
  6
CONTINUOUS
 62
     7
  5
EF
 10
79.707707
 20
263.005349
 30
0.0
 11
79.707707
 21
252.005349
 31
0.0
  0
LINE
  8
0
  6
CONTINUOUS
 62
     7
  5
F0
 10
75.707707
 20
252.005349
 30
0.0
 11
79.707707
 21
252.005349
 31
0.0
  0
LINE
  8
0
  6
CONTINUOUS
 62
     7
  5
F1
 10
75.707707
 20
263.005349
 30
0.0
 11
79.707707
 21
263.005349
 31
0.0
  0
LINE
  8
0
  6
CONTINUOUS
 62
     7
  5
F2
 10
62.373929
 20
252.005349
 30
0.0
 11
42.041485
 21
252.005349
 31
0.0
  0
LINE
  8
0
  6
CONTINUOUS
 62
     7
  5
F3
 10
62.373929
 20
263.005349
 30
0.0
 11
42.041485
 21
263.005349
 31
0.0
  0
LINE
  8
0
  6
CONTINUOUS
 62
     7
  5
F4
 10
47.282707
 20
250.005349
 30
0.0
 11
41.132707
 21
250.005349
 31
0.0
  0
LINE
  8
0
  6
CONTINUOUS
 62
     7
  5
F5
 10
37.457707
 20
268.005349
 30
0.0
 11
28.957707
 21
268.005349
 31
0.0
  0
LINE
  8
0
  6
CONTINUOUS
 62
     7
  5
F6
 10
75.457707
 20
268.005349
 30
0.0
 11
66.957707
 21
268.005349
 31
0.0
  0
CIRCLE
  8
0
  6
CONTINUOUS
 62
     7
  5
F7
 10
26.207707
 20
77.005349
 30
0.0
 40
2.5
210
0.0
220
0.0
230
1.0
  0
CIRCLE
  8
0
  6
CONTINUOUS
 62
     7
  5
F8
 10
26.207707
 20
129.005349
 30
0.0
 40
2.5
210
0.0
220
0.0
230
1.0
  0
CIRCLE
  8
0
  6
CONTINUOUS
 62
     7
  5
F9
 10
78.207707
 20
77.005349
 30
0.0
 40
2.5
210
0.0
220
0.0
230
1.0
  0
CIRCLE
  8
0
  6
CONTINUOUS
 62
     7
  5
FA
 10
78.207707
 20
129.005349
 30
0.0
 40
2.5
210
0.0
220
0.0
230
1.0
  0
CIRCLE
  8
0
  6
CONTINUOUS
 62
     7
  5
FB
 10
26.207707
 20
103.005349
 30
0.0
 40
2.51
210
0.0
220
0.0
230
1.0
  0
CIRCLE
  8
0
  6
CONTINUOUS
 62
     7
  5
FC
 10
78.207707
 20
103.005349
 30
0.0
 40
2.51
210
0.0
220
0.0
230
1.0
  0
LINE
  8
0
  6
CONTINUOUS
 62
     7
  5
FD
 10
83.207707
 20
48.005349
 30
0.0
 11
83.207707
 21
158.005349
 31
0.0
  0
LINE
  8
0
  6
CONTINUOUS
 62
     7
  5
FE
 10
83.207707
 20
48.005349
 30
0.0
 11
21.207707
 21
48.005349
 31
0.0
  0
LINE
  8
0
  6
CONTINUOUS
 62
     7
  5
FF
 10
21.207707
 20
48.005349
 30
0.0
 11
21.207707
 21
158.005349
 31
0.0
  0
LINE
  8
0
  6
CONTINUOUS
 62
     7
  5
100
 10
83.207707
 20
158.005349
 30
0.0
 11
21.207707
 21
158.005349
 31
0.0
  0
CIRCLE
  8
0
  6
CONTINUOUS
 62
     7
  5
101
 10
26.207707
 20
129.005349
 30
0.0
 40
2.067
210
0.0
220
0.0
230
1.0
  0
CIRCLE
  8
0
  6
CONTINUOUS
 62
     7
  5
102
 10
26.207707
 20
77.005349
 30
0.0
 40
2.067
210
0.0
220
0.0
230
1.0
  0
CIRCLE
  8
0
  6
CONTINUOUS
 62
     7
  5
103
 10
78.207707
 20
129.005349
 30
0.0
 40
2.067
210
0.0
220
0.0
230
1.0
  0
CIRCLE
  8
0
  6
CONTINUOUS
 62
     7
  5
104
 10
78.207707
 20
77.005349
 30
0.0
 40
2.067
210
0.0
220
0.0
230
1.0
  0
LINE
  8
0
  6
CONTINUOUS
 62
     7
  5
105
 10
21.707707
 20
204.005349
 30
0.0
 11
24.907707
 21
204.005349
 31
0.0
  0
LINE
  8
0
  6
CONTINUOUS
 62
     7
  5
106
 10
24.907707
 20
204.005349
 30
0.0
 11
24.907707
 21
158.005349
 31
0.0
  0
LINE
  8
0
  6
CONTINUOUS
 62
     7
  5
107
 10
21.707707
 20
158.005349
 30
0.0
 11
21.707707
 21
204.005349
 31
0.0
  0
LINE
  8
0
  6
CONTINUOUS
 62
     7
  5
108
 10
27.407707
 20
158.005349
 30
0.0
 11
27.407707
 21
204.005349
 31
0.0
  0
LINE
  8
0
  6
CONTINUOUS
 62
     7
  5
109
 10
27.407707
 20
204.005349
 30
0.0
 11
31.007707
 21
204.005349
 31
0.0
  0
LINE
  8
0
  6
CONTINUOUS
 62
     7
  5
10A
 10
31.007707
 20
158.005349
 30
0.0
 11
31.007707
 21
204.005349
 31
0.0
  0
CIRCLE
  8
0
  6
CONTINUOUS
 62
     7
  5
10B
 10
36.207707
 20
165.005349
 30
0.0
 40
2.0
210
0.0
220
0.0
230
1.0
  0
CIRCLE
  8
0
  6
CONTINUOUS
 62
     7
  5
10C
 10
36.207707
 20
197.005349
 30
0.0
 40
2.0
210
0.0
220
0.0
230
1.0
  0
LINE
  8
0
  6
CONTINUOUS
 62
     7
  5
10D
 10
33.507707
 20
158.005349
 30
0.0
 11
33.507707
 21
211.805349
 31
0.0
  0
LINE
  8
0
  6
CONTINUOUS
 62
     7
  5
10E
 10
33.507707
 20
211.805349
 30
0.0
 11
37.707707
 21
216.005349
 31
0.0
  0
LINE
  8
0
  6
CONTINUOUS
 62
     7
  5
10F
 10
37.707707
 20
216.005349
 30
0.0
 11
38.907707
 21
216.005349
 31
0.0
  0
LINE
  8
0
  6
CONTINUOUS
 62
     7
  5
110
 10
38.907707
 20
158.005349
 30
0.0
 11
38.907707
 21
216.005349
 31
0.0
  0
LINE
  8
0
  6
CONTINUOUS
 62
     7
  5
111
 10
41.407707
 20
216.005349
 30
0.0
 11
63.007707
 21
216.005349
 31
0.0
  0
LINE
  8
0
  6
CONTINUOUS
 62
     7
  5
112
 10
63.007707
 20
158.005349
 30
0.0
 11
63.007707
 21
216.005349
 31
0.0
  0
LINE
  8
0
  6
CONTINUOUS
 62
     7
  5
113
 10
41.407707
 20
158.005349
 30
0.0
 11
41.407707
 21
216.005349
 31
0.0
  0
CIRCLE
  8
0
  6
CONTINUOUS
 62
     7
  5
114
 10
68.207707
 20
165.005349
 30
0.0
 40
2.0
210
0.0
220
0.0
230
1.0
  0
CIRCLE
  8
0
  6
CONTINUOUS
 62
     7
  5
115
 10
68.207707
 20
197.005349
 30
0.0
 40
2.0
210
0.0
220
0.0
230
1.0
  0
LINE
  8
0
  6
CONTINUOUS
 62
     7
  5
116
 10
65.507707
 20
216.005349
 30
0.0
 11
66.707707
 21
216.005349
 31
0.0
  0
LINE
  8
0
  6
CONTINUOUS
 62
     7
  5
117
 10
66.707707
 20
216.005349
 30
0.0
 11
70.907707
 21
211.805349
 31
0.0
  0
LINE
  8
0
  6
CONTINUOUS
 62
     7
  5
118
 10
70.907707
 20
158.005349
 30
0.0
 11
70.907707
 21
211.805349
 31
0.0
  0
LINE
  8
0
  6
CONTINUOUS
 62
     7
  5
119
 10
65.507707
 20
158.005349
 30
0.0
 11
65.507707
 21
216.005349
 31
0.0
  0
LINE
  8
0
  6
CONTINUOUS
 62
     7
  5
11A
 10
73.407707
 20
204.005349
 30
0.0
 11
77.007707
 21
204.005349
 31
0.0
  0
LINE
  8
0
  6
CONTINUOUS
 62
     7
  5
11B
 10
77.007707
 20
158.005349
 30
0.0
 11
77.007707
 21
204.005349
 31
0.0
  0
LINE
  8
0
  6
CONTINUOUS
 62
     7
  5
11C
 10
73.407707
 20
158.005349
 30
0.0
 11
73.407707
 21
204.005349
 31
0.0
  0
LINE
  8
0
  6
CONTINUOUS
 62
     7
  5
11D
 10
79.507707
 20
204.005349
 30
0.0
 11
82.707707
 21
204.005349
 31
0.0
  0
LINE
  8
0
  6
CONTINUOUS
 62
     7
  5
11E
 10
82.707707
 20
204.005349
 30
0.0
 11
82.707707
 21
158.005349
 31
0.0
  0
LINE
  8
0
  6
CONTINUOUS
 62
     7
  5
11F
 10
79.507707
 20
158.005349
 30
0.0
 11
79.507707
 21
204.005349
 31
0.0
  0
CIRCLE
  8
0
  6
CONTINUOUS
 62
     7
  5
120
 10
36.207707
 20
165.005349
 30
0.0
 40
1.621
210
0.0
220
0.0
230
1.0
  0
CIRCLE
  8
0
  6
CONTINUOUS
 62
     7
  5
121
 10
36.207707
 20
197.005349
 30
0.0
 40
1.621
210
0.0
220
0.0
230
1.0
  0
CIRCLE
  8
0
  6
CONTINUOUS
 62
     7
  5
122
 10
68.207707
 20
197.005349
 30
0.0
 40
1.621
210
0.0
220
0.0
230
1.0
  0
CIRCLE
  8
0
  6
CONTINUOUS
 62
     7
  5
123
 10
68.207707
 20
165.005349
 30
0.0
 40
1.621
210
0.0
220
0.0
230
1.0
  0
LINE
  8
0
  6
CONTINUOUS
 62
     7
  5
124
 10
27.407707
 20
204.005349
 30
0.0
 11
24.907707
 21
204.005349
 31
0.0
  0
LINE
  8
0
  6
CONTINUOUS
 62
     7
  5
125
 10
79.507707
 20
204.005349
 30
0.0
 11
77.007707
 21
204.005349
 31
0.0
  0
LINE
  8
0
  6
CONTINUOUS
 62
     7
  5
126
 10
30.207707
 20
208.405349
 30
0.0
 11
22.207707
 21
208.405349
 31
0.0
  0
LINE
  8
0
  6
CONTINUOUS
 62
     7
  5
127
 10
22.807707
 20
209.005349
 30
0.0
 11
29.607707
 21
209.005349
 31
0.0
  0
LINE
  8
0
  6
CONTINUOUS
 62
     7
  5
128
 10
82.207707
 20
208.405349
 30
0.0
 11
74.207707
 21
208.405349
 31
0.0
  0
LINE
  8
0
  6
CONTINUOUS
 62
     7
  5
129
 10
74.807707
 20
209.005349
 30
0.0
 11
81.607707
 21
209.005349
 31
0.0
  0
LINE
  8
0
  6
CONTINUOUS
 62
     7
  5
12A
 10
41.407707
 20
216.005349
 30
0.0
 11
38.907707
 21
216.005349
 31
0.0
  0
LINE
  8
0
  6
CONTINUOUS
 62
     7
  5
12B
 10
65.507707
 20
216.005349
 30
0.0
 11
63.007707
 21
216.005349
 31
0.0
  0
LINE
  8
0
  6
CONTINUOUS
 62
     7
  5
12C
 10
31.207707
 20
209.505349
 30
0.0
 11
31.207707
 21
204.005349
 31
0.0
  0
LINE
  8
0
  6
CONTINUOUS
 62
     7
  5
12D
 10
33.507707
 20
211.805349
 30
0.0
 11
31.207707
 21
209.505349
 31
0.0
  0
LINE
  8
0
  6
CONTINUOUS
 62
     7
  5
12E
 10
31.207707
 20
204.005349
 30
0.0
 11
31.007707
 21
204.005349
 31
0.0
  0
LINE
  8
0
  6
CONTINUOUS
 62
     7
  5
12F
 10
73.207707
 20
204.005349
 30
0.0
 11
73.207707
 21
209.505349
 31
0.0
  0
LINE
  8
0
  6
CONTINUOUS
 62
     7
  5
130
 10
73.207707
 20
209.505349
 30
0.0
 11
70.907707
 21
211.805349
 31
0.0
  0
LINE
  8
0
  6
CONTINUOUS
 62
     7
  5
131
 10
73.407707
 20
204.005349
 30
0.0
 11
73.207707
 21
204.005349
 31
0.0
  0
LINE
  8
0
  6
CONTINUOUS
 62
     7
  5
132
 10
46.957707
 20
45.205349
 30
0.0
 11
46.957707
 21
42.005349
 31
0.0
  0
LINE
  8
0
  6
CONTINUOUS
 62
     7
  5
133
 10
57.457707
 20
42.005349
 30
0.0
 11
57.457707
 21
45.205349
 31
0.0
  0
LINE
  8
0
  6
CONTINUOUS
 62
     7
  5
134
 10
54.707707
 20
45.205349
 30
0.0
 11
54.707707
 21
48.005349
 31
0.0
  0
LINE
  8
0
  6
CONTINUOUS
 62
     7
  5
135
 10
49.707707
 20
48.005349
 30
0.0
 11
49.707707
 21
45.205349
 31
0.0
  0
LINE
  8
0
  6
CONTINUOUS
 62
     7
  5
136
 10
27.207707
 20
252.005349
 30
0.0
 11
27.207707
 21
209.005349
 31
0.0
  0
LINE
  8
0
  6
CONTINUOUS
 62
     7
  5
137
 10
27.207707
 20
48.005349
 30
0.0
 11
27.207707
 21
42.005349
 31
0.0
  0
LINE
  8
0
  6
CONTINUOUS
 62
     7
  5
138
 10
39.207707
 20
42.005349
 30
0.0
 11
39.207707
 21
48.005349
 31
0.0
  0
LINE
  8
0
  6
CONTINUOUS
 62
     7
  5
139
 10
39.207707
 20
216.005349
 30
0.0
 11
39.207707
 21
252.005349
 31
0.0
  0
LINE
  8
0
  6
CONTINUOUS
 62
     7
  5
13A
 10
65.207707
 20
252.005349
 30
0.0
 11
65.207707
 21
216.005349
 31
0.0
  0
LINE
  8
0
  6
CONTINUOUS
 62
     7
  5
13B
 10
65.207707
 20
48.005349
 30
0.0
 11
65.207707
 21
42.005349
 31
0.0
  0
LINE
  8
0
  6
CONTINUOUS
 62
     7
  5
13C
 10
77.207707
 20
42.005349
 30
0.0
 11
77.207707
 21
48.005349
 31
0.0
  0
LINE
  8
0
  6
CONTINUOUS
 62
     7
  5
13D
 10
77.207707
 20
209.005349
 30
0.0
 11
77.207707
 21
252.005349
 31
0.0
  0
LINE
  8
0
  6
CONTINUOUS
 62
     7
  5
13E
 10
46.207707
 20
48.005349
 30
0.0
 11
46.207707
 21
42.005349
 31
0.0
  0
LINE
  8
0
  6
CONTINUOUS
 62
     7
  5
13F
 10
58.207707
 20
42.005349
 30
0.0
 11
58.207707
 21
48.005349
 31
0.0
  0
LINE
  8
0
  6
CONTINUOUS
 62
     7
  5
140
 10
47.282707
 20
250.005349
 30
0.0
 11
47.282707
 21
252.005349
 31
0.0
  0
LINE
  8
0
  6
CONTINUOUS
 62
     7
  5
141
 10
41.132707
 20
252.005349
 30
0.0
 11
41.132707
 21
250.005349
 31
0.0
  0
LINE
  8
0
  6
CONTINUOUS
 62
     7
  5
142
 10
37.457707
 20
263.005349
 30
0.0
 11
37.457707
 21
268.005349
 31
0.0
  0
LINE
  8
0
  6
CONTINUOUS
 62
     7
  5
143
 10
28.957707
 20
268.005349
 30
0.0
 11
28.957707
 21
263.005349
 31
0.0
  0
LINE
  8
0
  6
CONTINUOUS
 62
     7
  5
144
 10
75.457707
 20
263.005349
 30
0.0
 11
75.457707
 21
268.005349
 31
0.0
  0
LINE
  8
0
  6
CONTINUOUS
 62
     7
  5
145
 10
66.957707
 20
268.005349
 30
0.0
 11
66.957707
 21
263.005349
 31
0.0
  0
LINE
  8
0
  6
CONTINUOUS
 62
     7
  5
146
 10
56.207707
 20
216.005349
 30
0.0
 11
56.207707
 21
252.005349
 31
0.0
  0
LINE
  8
0
  6
CONTINUOUS
 62
     7
  5
147
 10
48.207707
 20
252.005349
 30
0.0
 11
48.207707
 21
216.005349
 31
0.0
  0
LINE
  8
0
  6
CONTINUOUS
 62
     7
  5
148
 10
22.207707
 20
208.405349
 30
0.0
 11
22.207707
 21
204.005349
 31
0.0
  0
LINE
  8
0
  6
CONTINUOUS
 62
     7
  5
149
 10
30.207707
 20
204.005349
 30
0.0
 11
30.207707
 21
208.405349
 31
0.0
  0
LINE
  8
0
  6
CONTINUOUS
 62
     7
  5
14A
 10
30.207707
 20
208.405349
 30
0.0
 11
29.607707
 21
209.005349
 31
0.0
  0
LINE
  8
0
  6
CONTINUOUS
 62
     7
  5
14B
 10
22.807707
 20
209.005349
 30
0.0
 11
22.207707
 21
208.405349
 31
0.0
  0
LINE
  8
0
  6
CONTINUOUS
 62
     7
  5
14C
 10
74.207707
 20
208.405349
 30
0.0
 11
74.207707
 21
204.005349
 31
0.0
  0
LINE
  8
0
  6
CONTINUOUS
 62
     7
  5
14D
 10
82.207707
 20
204.005349
 30
0.0
 11
82.207707
 21
208.405349
 31
0.0
  0
LINE
  8
0
  6
CONTINUOUS
 62
     7
  5
14E
 10
82.207707
 20
208.405349
 30
0.0
 11
81.607707
 21
209.005349
 31
0.0
  0
LINE
  8
0
  6
CONTINUOUS
 62
     7
  5
14F
 10
74.807707
 20
209.005349
 30
0.0
 11
74.207707
 21
208.405349
 31
0.0
  0
ENDBLK
  8
0
  5
150
  0
BLOCK
  8
0
  5
153
  2
AID575
 70
     0
 10
0.0
 20
0.0
 30
0.0
  3
#auxiliary draft view
  0
LINE
  8
0
  6
CONTINUOUS
 62
     7
  5
154
 10
298.784787
 20
42.005349
 30
0.0
 11
298.784787
 21
28.005349
 31
0.0
  0
LINE
  8
0
  6
CONTINUOUS
 62
     7
  5
155
 10
345.784787
 20
42.005349
 30
0.0
 11
345.784787
 21
28.005349
 31
0.0
  0
LINE
  8
0
  6
CONTINUOUS
 62
     7
  5
156
 10
298.784787
 20
28.005349
 30
0.0
 11
345.784787
 21
28.005349
 31
0.0
  0
LINE
  8
0
  6
CONTINUOUS
 62
     7
  5
157
 10
298.784787
 20
42.005349
 30
0.0
 11
345.784787
 21
42.005349
 31
0.0
  0
LINE
  8
0
  6
CONTINUOUS
 62
     7
  5
158
 10
349.784787
 20
42.005349
 30
0.0
 11
349.784787
 21
28.005349
 31
0.0
  0
LINE
  8
0
  6
CONTINUOUS
 62
     7
  5
159
 10
345.784787
 20
28.005349
 30
0.0
 11
349.784787
 21
28.005349
 31
0.0
  0
LINE
  8
0
  6
CONTINUOUS
 62
     7
  5
15A
 10
345.784787
 20
42.005349
 30
0.0
 11
349.784787
 21
42.005349
 31
0.0
  0
LINE
  8
0
  6
CONTINUOUS
 62
     7
  5
15B
 10
294.784787
 20
42.005349
 30
0.0
 11
294.784787
 21
28.005349
 31
0.0
  0
LINE
  8
0
  6
CONTINUOUS
 62
     7
  5
15C
 10
294.784787
 20
28.005349
 30
0.0
 11
298.784787
 21
28.005349
 31
0.0
  0
LINE
  8
0
  6
CONTINUOUS
 62
     7
  5
15D
 10
294.784787
 20
42.005349
 30
0.0
 11
298.784787
 21
42.005349
 31
0.0
  0
LINE
  8
0
  6
CONTINUOUS
 62
     7
  5
15E
 10
298.784787
 20
263.005349
 30
0.0
 11
298.784787
 21
252.005349
 31
0.0
  0
LINE
  8
0
  6
CONTINUOUS
 62
     7
  5
15F
 10
298.784787
 20
263.005349
 30
0.0
 11
345.784787
 21
263.005349
 31
0.0
  0
LINE
  8
0
  6
CONTINUOUS
 62
     7
  5
160
 10
345.784787
 20
263.005349
 30
0.0
 11
345.784787
 21
252.005349
 31
0.0
  0
LINE
  8
0
  6
CONTINUOUS
 62
     7
  5
161
 10
298.784787
 20
252.005349
 30
0.0
 11
345.784787
 21
252.005349
 31
0.0
  0
LINE
  8
0
  6
CONTINUOUS
 62
     7
  5
162
 10
345.784787
 20
263.005349
 30
0.0
 11
349.784787
 21
263.005349
 31
0.0
  0
LINE
  8
0
  6
CONTINUOUS
 62
     7
  5
163
 10
349.784787
 20
263.005349
 30
0.0
 11
349.784787
 21
252.005349
 31
0.0
  0
LINE
  8
0
  6
CONTINUOUS
 62
     7
  5
164
 10
345.784787
 20
252.005349
 30
0.0
 11
349.784787
 21
252.005349
 31
0.0
  0
LINE
  8
0
  6
CONTINUOUS
 62
     7
  5
165
 10
294.784787
 20
263.005349
 30
0.0
 11
294.784787
 21
252.005349
 31
0.0
  0
LINE
  8
0
  6
CONTINUOUS
 62
     7
  5
166
 10
294.784787
 20
263.005349
 30
0.0
 11
298.784787
 21
263.005349
 31
0.0
  0
LINE
  8
0
  6
CONTINUOUS
 62
     7
  5
167
 10
294.784787
 20
252.005349
 30
0.0
 11
298.784787
 21
252.005349
 31
0.0
  0
LINE
  8
0
  6
CONTINUOUS
 62
     7
  5
168
 10
345.534787
 20
268.005349
 30
0.0
 11
337.034787
 21
268.005349
 31
0.0
  0
LINE
  8
0
  6
CONTINUOUS
 62
     7
  5
169
 10
307.534787
 20
268.005349
 30
0.0
 11
299.034787
 21
268.005349
 31
0.0
  0
LINE
  8
0
  6
CONTINUOUS
 62
     7
  5
16A
 10
333.359787
 20
250.005349
 30
0.0
 11
332.45914
 21
250.005349
 31
0.0
  0
LINE
  8
0
  6
CONTINUOUS
 62
     7
  5
16B
 10
332.45914
 20
250.005349
 30
0.0
 11
327.209787
 21
250.005349
 31
0.0
  0
LINE
  8
0
  6
CONTINUOUS
 62
     9
  5
16C
 10
326.534787
 20
58.105349
 30
0.0
 11
318.034787
 21
58.105349
 31
0.0
  0
LINE
  8
0
  6
CONTINUOUS
 62
     7
  5
16D
 10
326.534787
 20
64.605349
 30
0.0
 11
318.034787
 21
64.605349
 31
0.0
  0
LINE
  8
0
  6
CONTINUOUS
 62
     7
  5
16E
 10
326.455741
 20
57.810349
 30
0.0
 11
318.113832
 21
57.810349
 31
0.0
  0
LINE
  8
0
  6
CONTINUOUS
 62
     7
  5
16F
 10
325.313832
 20
55.100349
 30
0.0
 11
319.255741
 21
55.100349
 31
0.0
  0
LINE
  8
0
  6
CONTINUOUS
 62
     7
  5
170
 10
326.334787
 20
65.527849
 30
0.0
 11
318.234787
 21
65.527849
 31
0.0
  0
LINE
  8
0
  6
CONTINUOUS
 62
     9
  5
171
 10
326.334787
 20
66.422849
 30
0.0
 11
318.234787
 21
66.422849
 31
0.0
  0
LINE
  8
0
  6
CONTINUOUS
 62
     7
  5
172
 10
326.132287
 20
65.325349
 30
0.0
 11
318.437287
 21
65.325349
 31
0.0
  0
LINE
  8
0
  6
CONTINUOUS
 62
     7
  5
173
 10
326.132287
 20
66.625349
 30
0.0
 11
318.437287
 21
66.625349
 31
0.0
  0
LINE
  8
0
  6
CONTINUOUS
 62
     9
  5
174
 10
325.234787
 20
54.805349
 30
0.0
 11
319.334787
 21
54.805349
 31
0.0
  0
LINE
  8
0
  6
CONTINUOUS
 62
     9
  5
175
 10
324.659655
 20
52.505349
 30
0.0
 11
319.334787
 21
52.505349
 31
0.0
  0
LINE
  8
0
  6
CONTINUOUS
 62
     7
  5
176
 10
324.659655
 20
50.755349
 30
0.0
 11
324.659655
 21
52.505349
 31
0.0
  0
ARC
  8
0
  6
CONTINUOUS
 62
     7
  5
177
 10
322.284787
 20
52.505349
 30
0.0
 40
2.95
 50
180.0
 51
323.614132
210
0.0
220
0.0
230
1.0
  0
ARC
  8
0
  6
CONTINUOUS
 62
     7
  5
178
 10
328.184627
 20
52.316386
 30
0.0
 40
3.530033
 50
146.682641
 51
176.931491
210
0.0
220
0.0
230
1.0
  0
ARC
  8
0
  6
CONTINUOUS
 62
     7
  5
179
 10
322.284527
 20
52.505292
 30
0.0
 40
2.95026
 50
0.001108
 51
24.800031
210
0.0
220
0.0
230
1.0
  0
ARC
  8
0
  6
CONTINUOUS
 62
     7
  5
17A
 10
322.284787
 20
52.505349
 30
0.0
 40
2.95
 50
323.614132
 51
0.0
210
0.0
220
0.0
230
1.0
  0
LINE
  8
0
  6
CONTINUOUS
 62
     7
  5
17B
 10
324.834787
 20
52.605349
 30
0.0
 11
324.661836
 21
52.605349
 31
0.0
  0
LINE
  8
0
  6
CONTINUOUS
 62
     7
  5
17C
 10
324.834787
 20
52.405349
 30
0.0
 11
324.659655
 21
52.405349
 31
0.0
  0
LINE
  8
0
  6
CONTINUOUS
 62
     7
  5
17D
 10
324.834787
 20
52.605349
 30
0.0
 11
324.834787
 21
52.405349
 31
0.0
  0
LINE
  8
0
  6
CONTINUOUS
 62
     9
  5
17E
 10
324.834787
 20
52.00535
 30
0.0
 11
324.659655
 21
52.005349
 31
0.0
  0
LINE
  8
0
  6
CONTINUOUS
 62
     7
  5
17F
 10
324.834787
 20
51.805349
 30
0.0
 11
324.659655
 21
51.805349
 31
0.0
  0
LINE
  8
0
  6
CONTINUOUS
 62
     7
  5
180
 10
324.834787
 20
52.00535
 30
0.0
 11
324.834787
 21
51.805349
 31
0.0
  0
LINE
  8
0
  6
CONTINUOUS
 62
     7
  5
181
 10
324.834787
 20
52.00535
 30
0.0
 11
324.834787
 21
52.405349
 31
0.0
  0
LINE
  8
0
  6
CONTINUOUS
 62
     9
  5
182
 10
324.834787
 20
52.805347
 30
0.0
 11
324.678537
 21
52.805349
 31
0.0
  0
LINE
  8
0
  6
CONTINUOUS
 62
     7
  5
183
 10
324.834787
 20
52.805347
 30
0.0
 11
324.834787
 21
52.605347
 31
0.0
  0
LINE
  8
0
  6
CONTINUOUS
 62
     7
  5
184
 10
324.834787
 20
53.205347
 30
0.0
 11
324.760701
 21
53.205347
 31
0.0
  0
LINE
  8
0
  6
CONTINUOUS
 62
     9
  5
185
 10
324.834787
 20
53.005348
 30
0.0
 11
324.71181
 21
53.005349
 31
0.0
  0
LINE
  8
0
  6
CONTINUOUS
 62
     7
  5
186
 10
324.834787
 20
53.205347
 30
0.0
 11
324.834787
 21
53.005348
 31
0.0
  0
LINE
  8
0
  6
CONTINUOUS
 62
     7
  5
187
 10
324.834787
 20
53.005348
 30
0.0
 11
324.834787
 21
52.805347
 31
0.0
  0
ARC
  8
0
  6
CONTINUOUS
 62
     7
  5
188
 10
322.284787
 20
52.505349
 30
0.0
 40
3.95
 50
139.633225
 51
40.366775
210
0.0
220
0.0
230
1.0
  0
ARC
  8
0
  6
CONTINUOUS
 62
     7
  5
189
 10
322.284787
 20
52.505349
 30
0.0
 40
4.0
 50
300.0
 51
360.0
210
0.0
220
0.0
230
1.0
  0
LINE
  8
0
  6
CONTINUOUS
 62
     7
  5
18A
 10
326.284787
 20
52.505349
 30
0.0
 11
326.284787
 21
50.795817
 31
0.0
  0
ARC
  8
0
  6
CONTINUOUS
 62
     7
  5
18B
 10
322.284787
 20
52.505349
 30
0.0
 40
4.35
 50
323.141041
 51
336.858959
210
0.0
220
0.0
230
1.0
  0
LINE
  8
0
  6
CONTINUOUS
 62
     7
  5
18C
 10
325.765285
 20
49.896013
 30
0.0
 11
324.284787
 21
49.041247
 31
0.0
  0
ARC
  8
0
  6
CONTINUOUS
 62
     7
  5
18D
 10
322.284787
 20
52.505349
 30
0.0
 40
4.0
 50
240.0
 51
300.0
210
0.0
220
0.0
230
1.0
  0
LINE
  8
0
  6
CONTINUOUS
 62
     7
  5
18E
 10
324.284787
 20
49.041247
 30
0.0
 11
322.804288
 21
48.186481
 31
0.0
  0
ARC
  8
0
  6
CONTINUOUS
 62
     7
  5
18F
 10
322.284787
 20
52.505349
 30
0.0
 40
4.35
 50
263.141041
 51
276.858959
210
0.0
220
0.0
230
1.0
  0
LINE
  8
0
  6
CONTINUOUS
 62
     7
  5
190
 10
321.765285
 20
48.186481
 30
0.0
 11
320.284787
 21
49.041247
 31
0.0
  0
ARC
  8
0
  6
CONTINUOUS
 62
     7
  5
191
 10
322.284787
 20
52.505349
 30
0.0
 40
4.35
 50
203.141041
 51
216.858959
210
0.0
220
0.0
230
1.0
  0
LINE
  8
0
  6
CONTINUOUS
 62
     7
  5
192
 10
318.284787
 20
50.795817
 30
0.0
 11
318.284787
 21
52.505349
 31
0.0
  0
ARC
  8
0
  6
CONTINUOUS
 62
     7
  5
193
 10
322.284787
 20
52.505349
 30
0.0
 40
4.0
 50
180.0
 51
240.0
210
0.0
220
0.0
230
1.0
  0
LINE
  8
0
  6
CONTINUOUS
 62
     7
  5
194
 10
320.284787
 20
49.041247
 30
0.0
 11
318.804288
 21
49.896013
 31
0.0
  0
ARC
  8
0
  6
CONTINUOUS
 62
     7
  5
195
 10
322.284787
 20
52.505349
 30
0.0
 40
4.0
 50
139.331722
 51
180.0
210
0.0
220
0.0
230
1.0
  0
ARC
  8
0
  6
CONTINUOUS
 62
     7
  5
196
 10
322.284787
 20
52.505349
 30
0.0
 40
4.0
 50
0.0
 51
40.668278
210
0.0
220
0.0
230
1.0
  0
ARC
  8
0
  6
CONTINUOUS
 62
     7
  5
197
 10
322.284787
 20
52.505349
 30
0.0
 40
4.35
 50
143.141041
 51
156.858959
210
0.0
220
0.0
230
1.0
  0
LINE
  8
0
  6
CONTINUOUS
 62
     7
  5
198
 10
318.804288
 20
55.114684
 30
0.0
 11
319.162523
 21
55.321511
 31
0.0
  0
LINE
  8
0
  6
CONTINUOUS
 62
     7
  5
199
 10
318.284787
 20
52.505349
 30
0.0
 11
318.284787
 21
54.214881
 31
0.0
  0
ARC
  8
0
  6
CONTINUOUS
 62
     7
  5
19A
 10
322.284787
 20
52.505349
 30
0.0
 40
4.35
 50
23.141041
 51
36.858959
210
0.0
220
0.0
230
1.0
  0
LINE
  8
0
  6
CONTINUOUS
 62
     7
  5
19B
 10
326.284787
 20
54.214881
 30
0.0
 11
326.284787
 21
52.505349
 31
0.0
  0
LINE
  8
0
  6
CONTINUOUS
 62
     7
  5
19C
 10
325.407074
 20
55.321497
 30
0.0
 11
325.765285
 21
55.114684
 31
0.0
  0
LINE
  8
0
  6
CONTINUOUS
 62
     7
  5
19D
 10
343.784787
 20
48.005349
 30
0.0
 11
343.784787
 21
158.005349
 31
0.0
  0
LINE
  8
0
  6
CONTINUOUS
 62
     7
  5
19E
 10
343.784787
 20
48.005349
 30
0.0
 11
300.784787
 21
48.005349
 31
0.0
  0
LINE
  8
0
  6
CONTINUOUS
 62
     7
  5
19F
 10
300.784787
 20
48.005349
 30
0.0
 11
300.784787
 21
158.005349
 31
0.0
  0
LINE
  8
0
  6
CONTINUOUS
 62
     7
  5
1A0
 10
343.784787
 20
158.005349
 30
0.0
 11
300.784787
 21
158.005349
 31
0.0
  0
LINE
  8
0
  6
CONTINUOUS
 62
     7
  5
1A1
 10
353.284787
 20
48.005349
 30
0.0
 11
353.284787
 21
158.005349
 31
0.0
  0
LINE
  8
0
  6
CONTINUOUS
 62
     7
  5
1A2
 10
353.284787
 20
48.005349
 30
0.0
 11
343.784787
 21
48.005349
 31
0.0
  0
LINE
  8
0
  6
CONTINUOUS
 62
     7
  5
1A3
 10
353.284787
 20
158.005349
 30
0.0
 11
343.784787
 21
158.005349
 31
0.0
  0
LINE
  8
0
  6
CONTINUOUS
 62
     7
  5
1A4
 10
291.284787
 20
48.005349
 30
0.0
 11
291.284787
 21
158.005349
 31
0.0
  0
LINE
  8
0
  6
CONTINUOUS
 62
     7
  5
1A5
 10
300.784787
 20
48.005349
 30
0.0
 11
291.284787
 21
48.005349
 31
0.0
  0
LINE
  8
0
  6
CONTINUOUS
 62
     7
  5
1A6
 10
300.784787
 20
158.005349
 30
0.0
 11
291.284787
 21
158.005349
 31
0.0
  0
LINE
  8
0
  6
CONTINUOUS
 62
     7
  5
1A7
 10
311.106236
 20
216.005349
 30
0.0
 11
311.106236
 21
158.005349
 31
0.0
  0
LINE
  8
0
  6
CONTINUOUS
 62
     7
  5
1A8
 10
317.234787
 20
216.005349
 30
0.0
 11
311.106236
 21
216.005349
 31
0.0
  0
LINE
  8
0
  6
CONTINUOUS
 62
     7
  5
1A9
 10
317.234787
 20
158.005349
 30
0.0
 11
317.234787
 21
216.005349
 31
0.0
  0
LINE
  8
0
  6
CONTINUOUS
 62
     7
  5
1AA
 10
327.334787
 20
158.005349
 30
0.0
 11
327.334787
 21
216.005349
 31
0.0
  0
LINE
  8
0
  6
CONTINUOUS
 62
     7
  5
1AB
 10
333.463337
 20
216.005349
 30
0.0
 11
327.334787
 21
216.005349
 31
0.0
  0
LINE
  8
0
  6
CONTINUOUS
 62
     7
  5
1AC
 10
333.463337
 20
158.005349
 30
0.0
 11
333.463337
 21
216.005349
 31
0.0
  0
LINE
  8
0
  6
CONTINUOUS
 62
     7
  5
1AD
 10
291.784787
 20
204.005349
 30
0.0
 11
291.784787
 21
158.005349
 31
0.0
  0
LINE
  8
0
  6
CONTINUOUS
 62
     7
  5
1AE
 10
311.106236
 20
216.005349
 30
0.0
 11
309.284787
 21
216.005349
 31
0.0
  0
LINE
  8
0
  6
CONTINUOUS
 62
     7
  5
1AF
 10
297.284787
 20
204.005349
 30
0.0
 11
291.784787
 21
204.005349
 31
0.0
  0
LINE
  8
0
  6
CONTINUOUS
 62
     7
  5
1B0
 10
352.784787
 20
204.005349
 30
0.0
 11
347.284787
 21
204.005349
 31
0.0
  0
LINE
  8
0
  6
CONTINUOUS
 62
     7
  5
1B1
 10
352.784787
 20
158.005349
 30
0.0
 11
352.784787
 21
204.005349
 31
0.0
  0
LINE
  8
0
  6
CONTINUOUS
 62
     7
  5
1B2
 10
335.284787
 20
216.005349
 30
0.0
 11
333.463337
 21
216.005349
 31
0.0
  0
LINE
  8
0
  6
CONTINUOUS
 62
     7
  5
1B3
 10
297.284787
 20
208.405349
 30
0.0
 11
296.284787
 21
208.405349
 31
0.0
  0
LINE
  8
0
  6
CONTINUOUS
 62
     7
  5
1B4
 10
296.284787
 20
208.405349
 30
0.0
 11
292.284787
 21
208.405349
 31
0.0
  0
LINE
  8
0
  6
CONTINUOUS
 62
     7
  5
1B5
 10
352.284787
 20
208.405349
 30
0.0
 11
348.284787
 21
208.405349
 31
0.0
  0
LINE
  8
0
  6
CONTINUOUS
 62
     7
  5
1B6
 10
348.284787
 20
208.405349
 30
0.0
 11
347.284787
 21
208.405349
 31
0.0
  0
LINE
  8
0
  6
CONTINUOUS
 62
     7
  5
1B7
 10
292.884787
 20
209.005349
 30
0.0
 11
297.284787
 21
209.005349
 31
0.0
  0
LINE
  8
0
  6
CONTINUOUS
 62
     7
  5
1B8
 10
347.284787
 20
209.005349
 30
0.0
 11
351.684787
 21
209.005349
 31
0.0
  0
LINE
  8
0
  6
CONTINUOUS
 62
     7
  5
1B9
 10
317.234787
 20
216.005349
 30
0.0
 11
318.284787
 21
216.005349
 31
0.0
  0
LINE
  8
0
  6
CONTINUOUS
 62
     7
  5
1BA
 10
326.284787
 20
216.005349
 30
0.0
 11
327.334787
 21
216.005349
 31
0.0
  0
LINE
  8
0
  6
CONTINUOUS
 62
     7
  5
1BB
 10
326.284787
 20
158.005349
 30
0.0
 11
326.284787
 21
252.005349
 31
0.0
  0
LINE
  8
0
  6
CONTINUOUS
 62
     7
  5
1BC
 10
318.284787
 20
252.005349
 30
0.0
 11
318.284787
 21
158.005349
 31
0.0
  0
LINE
  8
0
  6
CONTINUOUS
 62
     7
  5
1BD
 10
316.284787
 20
48.005349
 30
0.0
 11
316.284787
 21
42.005349
 31
0.0
  0
LINE
  8
0
  6
CONTINUOUS
 62
     7
  5
1BE
 10
328.284787
 20
42.005349
 30
0.0
 11
328.284787
 21
48.005349
 31
0.0
  0
LINE
  8
0
  6
CONTINUOUS
 62
     7
  5
1BF
 10
335.284787
 20
252.005349
 30
0.0
 11
335.284787
 21
158.005349
 31
0.0
  0
LINE
  8
0
  6
CONTINUOUS
 62
     7
  5
1C0
 10
335.284787
 20
48.005349
 30
0.0
 11
335.284787
 21
42.005349
 31
0.0
  0
LINE
  8
0
  6
CONTINUOUS
 62
     7
  5
1C1
 10
347.284787
 20
42.005349
 30
0.0
 11
347.284787
 21
48.005349
 31
0.0
  0
LINE
  8
0
  6
CONTINUOUS
 62
     7
  5
1C2
 10
347.284787
 20
158.005349
 30
0.0
 11
347.284787
 21
252.005349
 31
0.0
  0
LINE
  8
0
  6
CONTINUOUS
 62
     7
  5
1C3
 10
297.284787
 20
252.005349
 30
0.0
 11
297.284787
 21
158.005349
 31
0.0
  0
LINE
  8
0
  6
CONTINUOUS
 62
     7
  5
1C4
 10
297.284787
 20
48.005349
 30
0.0
 11
297.284787
 21
42.005349
 31
0.0
  0
LINE
  8
0
  6
CONTINUOUS
 62
     7
  5
1C5
 10
309.284787
 20
42.005349
 30
0.0
 11
309.284787
 21
48.005349
 31
0.0
  0
LINE
  8
0
  6
CONTINUOUS
 62
     7
  5
1C6
 10
309.284787
 20
158.005349
 30
0.0
 11
309.284787
 21
252.005349
 31
0.0
  0
LINE
  8
0
  6
CONTINUOUS
 62
     7
  5
1C7
 10
345.534787
 20
263.005349
 30
0.0
 11
345.534787
 21
268.005349
 31
0.0
  0
LINE
  8
0
  6
CONTINUOUS
 62
     7
  5
1C8
 10
337.034787
 20
268.005349
 30
0.0
 11
337.034787
 21
263.005349
 31
0.0
  0
LINE
  8
0
  6
CONTINUOUS
 62
     7
  5
1C9
 10
307.534787
 20
263.005349
 30
0.0
 11
307.534787
 21
268.005349
 31
0.0
  0
LINE
  8
0
  6
CONTINUOUS
 62
     7
  5
1CA
 10
299.034787
 20
268.005349
 30
0.0
 11
299.034787
 21
263.005349
 31
0.0
  0
LINE
  8
0
  6
CONTINUOUS
 62
     7
  5
1CB
 10
333.359787
 20
250.005349
 30
0.0
 11
333.359787
 21
252.005349
 31
0.0
  0
LINE
  8
0
  6
CONTINUOUS
 62
     7
  5
1CC
 10
327.209787
 20
252.005349
 30
0.0
 11
327.209787
 21
250.005349
 31
0.0
  0
LINE
  8
0
  6
CONTINUOUS
 62
     7
  5
1CD
 10
318.034787
 20
64.605349
 30
0.0
 11
318.034787
 21
58.105349
 31
0.0
  0
LINE
  8
0
  6
CONTINUOUS
 62
     7
  5
1CE
 10
326.534787
 20
58.105349
 30
0.0
 11
326.534787
 21
64.605349
 31
0.0
  0
ARC
  8
0
  6
CONTINUOUS
 62
     7
  5
1CF
 10
325.944787
 20
58.105349
 30
0.0
 40
0.59
 50
330.0
 51
0.0
210
0.0
220
0.0
230
1.0
  0
ARC
  8
0
  6
CONTINUOUS
 62
     7
  5
1D0
 10
318.624787
 20
58.105349
 30
0.0
 40
0.59
 50
180.0
 51
210.0
210
0.0
220
0.0
230
1.0
  0
LINE
  8
0
  6
CONTINUOUS
 62
     7
  5
1D1
 10
318.113832
 20
57.810349
 30
0.0
 11
319.255741
 21
55.100349
 31
0.0
  0
LINE
  8
0
  6
CONTINUOUS
 62
     7
  5
1D2
 10
325.313832
 20
55.100349
 30
0.0
 11
326.455741
 21
57.810349
 31
0.0
  0
LINE
  8
0
  6
CONTINUOUS
 62
     7
  5
1D3
 10
318.234787
 20
66.422849
 30
0.0
 11
318.234787
 21
65.527849
 31
0.0
  0
LINE
  8
0
  6
CONTINUOUS
 62
     7
  5
1D4
 10
326.334787
 20
65.527849
 30
0.0
 11
326.334787
 21
66.422849
 31
0.0
  0
LINE
  8
0
  6
CONTINUOUS
 62
     7
  5
1D5
 10
318.234787
 20
65.527849
 30
0.0
 11
318.437287
 21
65.325349
 31
0.0
  0
LINE
  8
0
  6
CONTINUOUS
 62
     7
  5
1D6
 10
326.132287
 20
65.325349
 30
0.0
 11
326.334787
 21
65.527849
 31
0.0
  0
ARC
  8
0
  6
CONTINUOUS
 62
     7
  5
1D7
 10
326.132287
 20
66.422849
 30
0.0
 40
0.2025
 50
0.0
 51
90.0
210
0.0
220
0.0
230
1.0
  0
ARC
  8
0
  6
CONTINUOUS
 62
     7
  5
1D8
 10
318.437287
 20
66.422849
 30
0.0
 40
0.2025
 50
90.0
 51
180.0
210
0.0
220
0.0
230
1.0
  0
ARC
  8
0
  6
CONTINUOUS
 62
     7
  5
1D9
 10
325.824787
 20
54.805349
 30
0.0
 40
0.59
 50
150.0
 51
180.0
210
0.0
220
0.0
230
1.0
  0
ARC
  8
0
  6
CONTINUOUS
 62
     7
  5
1DA
 10
318.744787
 20
54.805349
 30
0.0
 40
0.59
 50
360.0
 51
30.0
210
0.0
220
0.0
230
1.0
  0
LINE
  8
0
  6
CONTINUOUS
 62
     7
  5
1DB
 10
319.334787
 20
54.805349
 30
0.0
 11
319.334787
 21
52.505349
 31
0.0
  0
LINE
  8
0
  6
CONTINUOUS
 62
     7
  5
1DC
 10
325.234787
 20
54.255349
 30
0.0
 11
325.234787
 21
54.805349
 31
0.0
  0
LINE
  8
0
  6
CONTINUOUS
 62
     7
  5
1DD
 10
319.684787
 20
65.325349
 30
0.0
 11
319.684787
 21
64.605349
 31
0.0
  0
LINE
  8
0
  6
CONTINUOUS
 62
     7
  5
1DE
 10
324.884787
 20
64.605349
 30
0.0
 11
324.884787
 21
65.325349
 31
0.0
  0
LINE
  8
0
  6
CONTINUOUS
 62
     7
  5
1DF
 10
292.284787
 20
208.405349
 30
0.0
 11
292.284787
 21
204.005349
 31
0.0
  0
LINE
  8
0
  6
CONTINUOUS
 62
     7
  5
1E0
 10
352.284787
 20
204.005349
 30
0.0
 11
352.284787
 21
208.405349
 31
0.0
  0
LINE
  8
0
  6
CONTINUOUS
 62
     7
  5
1E1
 10
292.884787
 20
209.005349
 30
0.0
 11
292.284787
 21
208.405349
 31
0.0
  0
LINE
  8
0
  6
CONTINUOUS
 62
     7
  5
1E2
 10
352.284787
 20
208.405349
 30
0.0
 11
351.684787
 21
209.005349
 31
0.0
  0
ENDBLK
  8
0
  5
1E3
  0
BLOCK
  8
0
  5
1E6
  2
AID865
 70
     0
 10
0.0
 20
0.0
 30
0.0
  3
#auxiliary draft view
  0
CIRCLE
  8
0
  6
CONTINUOUS
 62
     7
  5
1E7
 10
162.937254
 20
350.810482
 30
0.0
 40
2.01
210
0.0
220
0.0
230
1.0
  0
CIRCLE
  8
0
  6
CONTINUOUS
 62
     7
  5
1E8
 10
204.937254
 20
350.810482
 30
0.0
 40
2.01
210
0.0
220
0.0
230
1.0
  0
CIRCLE
  8
0
  6
CONTINUOUS
 62
     7
  5
1E9
 10
162.937254
 20
370.810482
 30
0.0
 40
2.1
210
0.0
220
0.0
230
1.0
  0
CIRCLE
  8
0
  6
CONTINUOUS
 62
     7
  5
1EA
 10
162.937254
 20
330.810482
 30
0.0
 40
2.1
210
0.0
220
0.0
230
1.0
  0
CIRCLE
  8
0
  6
CONTINUOUS
 62
     7
  5
1EB
 10
204.937254
 20
370.810482
 30
0.0
 40
2.1
210
0.0
220
0.0
230
1.0
  0
CIRCLE
  8
0
  6
CONTINUOUS
 62
     7
  5
1EC
 10
204.937254
 20
330.810482
 30
0.0
 40
2.1
210
0.0
220
0.0
230
1.0
  0
LINE
  8
0
  6
CONTINUOUS
 62
     7
  5
1ED
 10
158.937254
 20
327.310482
 30
0.0
 11
158.937254
 21
374.310482
 31
0.0
  0
LINE
  8
0
  6
CONTINUOUS
 62
     7
  5
1EE
 10
158.937254
 20
374.310482
 30
0.0
 11
162.937254
 21
378.310482
 31
0.0
  0
LINE
  8
0
  6
CONTINUOUS
 62
     7
  5
1EF
 10
162.937254
 20
378.310482
 30
0.0
 11
208.937254
 21
378.310482
 31
0.0
  0
LINE
  8
0
  6
CONTINUOUS
 62
     7
  5
1F0
 10
208.937254
 20
378.310482
 30
0.0
 11
208.937254
 21
323.310482
 31
0.0
  0
LINE
  8
0
  6
CONTINUOUS
 62
     7
  5
1F1
 10
208.937254
 20
323.310482
 30
0.0
 11
162.937254
 21
323.310482
 31
0.0
  0
LINE
  8
0
  6
CONTINUOUS
 62
     7
  5
1F2
 10
162.937254
 20
323.310482
 30
0.0
 11
158.937254
 21
327.310482
 31
0.0
  0
LINE
  8
0
  6
CONTINUOUS
 62
     7
  5
1F3
 10
169.937254
 20
319.810482
 30
0.0
 11
210.437254
 21
319.810482
 31
0.0
  0
LINE
  8
0
  6
CONTINUOUS
 62
     7
  5
1F4
 10
166.437254
 20
323.310482
 30
0.0
 11
169.937254
 21
319.810482
 31
0.0
  0
LINE
  8
0
  6
CONTINUOUS
 62
     7
  5
1F5
 10
169.937254
 20
381.810482
 30
0.0
 11
166.437254
 21
378.310482
 31
0.0
  0
LINE
  8
0
  6
CONTINUOUS
 62
     7
  5
1F6
 10
210.437254
 20
319.810482
 30
0.0
 11
210.437254
 21
381.810482
 31
0.0
  0
LINE
  8
0
  6
CONTINUOUS
 62
     7
  5
1F7
 10
210.437254
 20
381.810482
 30
0.0
 11
169.937254
 21
381.810482
 31
0.0
  0
LINE
  8
0
  6
CONTINUOUS
 62
     7
  5
1F8
 10
158.735181
 20
351.329983
 30
0.0
 11
155.539326
 21
351.329983
 31
0.0
  0
LINE
  8
0
  6
CONTINUOUS
 62
     7
  5
1F9
 10
158.735181
 20
350.29098
 30
0.0
 11
158.735181
 21
351.329983
 31
0.0
  0
LINE
  8
0
  6
CONTINUOUS
 62
     7
  5
1FA
 10
155.539326
 20
350.29098
 30
0.0
 11
158.735181
 21
350.29098
 31
0.0
  0
LINE
  8
0
  6
CONTINUOUS
 62
     7
  5
1FB
 10
155.539326
 20
350.29098
 30
0.0
 11
155.539326
 21
351.329983
 31
0.0
  0
LINE
  8
0
  6
CONTINUOUS
 62
     7
  5
1FC
 10
155.337254
 20
352.810482
 30
0.0
 11
155.337254
 21
348.810482
 31
0.0
  0
LINE
  8
0
  6
CONTINUOUS
 62
     7
  5
1FD
 10
155.337254
 20
352.810482
 30
0.0
 11
155.539326
 21
351.329983
 31
0.0
  0
LINE
  8
0
  6
CONTINUOUS
 62
     7
  5
1FE
 10
155.539326
 20
350.29098
 30
0.0
 11
155.337254
 21
348.810482
 31
0.0
  0
LINE
  8
0
  6
CONTINUOUS
 62
     7
  5
1FF
 10
158.937254
 20
352.810482
 30
0.0
 11
158.735181
 21
351.329983
 31
0.0
  0
LINE
  8
0
  6
CONTINUOUS
 62
     7
  5
200
 10
158.735181
 20
350.29098
 30
0.0
 11
158.937254
 21
348.810482
 31
0.0
  0
LINE
  8
0
  6
CONTINUOUS
 62
     7
  5
201
 10
158.937254
 20
348.810482
 30
0.0
 11
158.735181
 21
347.329983
 31
0.0
  0
LINE
  8
0
  6
CONTINUOUS
 62
     7
  5
202
 10
158.735181
 20
347.329983
 30
0.0
 11
155.539326
 21
347.329983
 31
0.0
  0
LINE
  8
0
  6
CONTINUOUS
 62
     7
  5
203
 10
155.337254
 20
348.810482
 30
0.0
 11
155.539326
 21
347.329983
 31
0.0
  0
LINE
  8
0
  6
CONTINUOUS
 62
     7
  5
204
 10
158.735181
 20
354.29098
 30
0.0
 11
158.937254
 21
352.810482
 31
0.0
  0
LINE
  8
0
  6
CONTINUOUS
 62
     7
  5
205
 10
155.539326
 20
354.29098
 30
0.0
 11
155.337254
 21
352.810482
 31
0.0
  0
LINE
  8
0
  6
CONTINUOUS
 62
     7
  5
206
 10
155.539326
 20
354.29098
 30
0.0
 11
158.735181
 21
354.29098
 31
0.0
  0
LINE
  8
0
  6
CONTINUOUS
 62
     7
  5
207
 10
154.337254
 20
346.860482
 30
0.0
 11
154.337254
 21
354.760482
 31
0.0
  0
LINE
  8
0
  6
CONTINUOUS
 62
     7
  5
208
 10
153.537254
 20
354.760482
 30
0.0
 11
153.537254
 21
346.860482
 31
0.0
  0
LINE
  8
0
  6
CONTINUOUS
 62
     7
  5
209
 10
155.539326
 20
346.810482
 30
0.0
 11
155.539326
 21
347.329983
 31
0.0
  0
LINE
  8
0
  6
CONTINUOUS
 62
     7
  5
20A
 10
155.539326
 20
346.810482
 30
0.0
 11
155.337254
 21
346.810482
 31
0.0
  0
LINE
  8
0
  6
CONTINUOUS
 62
     7
  5
20B
 10
155.337254
 20
348.810482
 30
0.0
 11
155.337254
 21
346.810482
 31
0.0
  0
LINE
  8
0
  6
CONTINUOUS
 62
     7
  5
20C
 10
158.735181
 20
346.810482
 30
0.0
 11
158.937254
 21
346.810482
 31
0.0
  0
LINE
  8
0
  6
CONTINUOUS
 62
     7
  5
20D
 10
158.735181
 20
346.810482
 30
0.0
 11
158.735181
 21
347.329983
 31
0.0
  0
LINE
  8
0
  6
CONTINUOUS
 62
     7
  5
20E
 10
155.337254
 20
354.810482
 30
0.0
 11
155.539326
 21
354.810482
 31
0.0
  0
LINE
  8
0
  6
CONTINUOUS
 62
     7
  5
20F
 10
155.539326
 20
354.29098
 30
0.0
 11
155.539326
 21
354.810482
 31
0.0
  0
LINE
  8
0
  6
CONTINUOUS
 62
     7
  5
210
 10
155.337254
 20
354.810482
 30
0.0
 11
155.337254
 21
352.810482
 31
0.0
  0
LINE
  8
0
  6
CONTINUOUS
 62
     7
  5
211
 10
158.937254
 20
354.810482
 30
0.0
 11
158.735181
 21
354.810482
 31
0.0
  0
LINE
  8
0
  6
CONTINUOUS
 62
     7
  5
212
 10
158.735181
 20
354.29098
 30
0.0
 11
158.735181
 21
354.810482
 31
0.0
  0
ARC
  8
0
  6
CONTINUOUS
 62
     7
  5
213
 10
151.487254
 20
350.810482
 30
0.0
 40
2.95
 50
126.385868
 51
270.0
210
0.0
220
0.0
230
1.0
  0
LINE
  8
0
  6
CONTINUOUS
 62
     7
  5
214
 10
151.487254
 20
353.18535
 30
0.0
 11
149.737254
 21
353.18535
 31
0.0
  0
LINE
  8
0
  6
CONTINUOUS
 62
     9
  5
215
 10
151.487254
 20
353.18535
 30
0.0
 11
151.487254
 21
347.860482
 31
0.0
  0
ARC
  8
0
  6
CONTINUOUS
 62
     7
  5
216
 10
151.298291
 20
356.710322
 30
0.0
 40
3.530033
 50
273.068509
 51
303.317359
210
0.0
220
0.0
230
1.0
  0
LINE
  8
0
  6
CONTINUOUS
 62
     7
  5
217
 10
155.539326
 20
346.810482
 30
0.0
 11
158.735181
 21
346.810482
 31
0.0
  0
LINE
  8
0
  6
CONTINUOUS
 62
     7
  5
218
 10
158.735181
 20
354.810482
 30
0.0
 11
155.539326
 21
354.810482
 31
0.0
  0
ARC
  8
0
  6
CONTINUOUS
 62
     7
  5
219
 10
151.487254
 20
350.810482
 30
0.0
 40
2.95
 50
90.0
 51
126.385868
210
0.0
220
0.0
230
1.0
  0
ARC
  8
0
  6
CONTINUOUS
 62
     7
  5
21A
 10
151.487254
 20
350.810482
 30
0.0
 40
2.95
 50
65.198861
 51
90.0
210
0.0
220
0.0
230
1.0
  0
LINE
  8
0
  6
CONTINUOUS
 62
     7
  5
21B
 10
150.387254
 20
353.360482
 30
0.0
 11
150.387254
 21
353.18535
 31
0.0
  0
LINE
  8
0
  6
CONTINUOUS
 62
     7
  5
21C
 10
150.387254
 20
353.360482
 30
0.0
 11
150.587259
 21
353.360482
 31
0.0
  0
LINE
  8
0
  6
CONTINUOUS
 62
     9
  5
21D
 10
150.587259
 20
353.360482
 30
0.0
 11
150.587261
 21
353.18535
 31
0.0
  0
LINE
  8
0
  6
CONTINUOUS
 62
     9
  5
21E
 10
151.987259
 20
353.360482
 30
0.0
 11
151.987261
 21
353.237521
 31
0.0
  0
LINE
  8
0
  6
CONTINUOUS
 62
     7
  5
21F
 10
151.987259
 20
353.360482
 30
0.0
 11
152.415905
 21
353.360482
 31
0.0
  0
LINE
  8
0
  6
CONTINUOUS
 62
     7
  5
220
 10
151.763106
 20
353.360482
 30
0.0
 11
151.763106
 21
353.201479
 31
0.0
  0
LINE
  8
0
  6
CONTINUOUS
 62
     7
  5
221
 10
151.763106
 20
353.360482
 30
0.0
 11
151.987259
 21
353.360482
 31
0.0
  0
LINE
  8
0
  6
CONTINUOUS
 62
     7
  5
222
 10
151.163103
 20
353.360482
 30
0.0
 11
151.163103
 21
353.18535
 31
0.0
  0
LINE
  8
0
  6
CONTINUOUS
 62
     7
  5
223
 10
151.487261
 20
353.360482
 30
0.0
 11
151.163103
 21
353.360482
 31
0.0
  0
LINE
  8
0
  6
CONTINUOUS
 62
     7
  5
224
 10
151.487261
 20
353.360482
 30
0.0
 11
151.487257
 21
353.18535
 31
0.0
  0
LINE
  8
0
  6
CONTINUOUS
 62
     7
  5
225
 10
151.163103
 20
353.360482
 30
0.0
 11
150.887261
 21
353.360482
 31
0.0
  0
LINE
  8
0
  6
CONTINUOUS
 62
     7
  5
226
 10
150.887261
 20
353.360482
 30
0.0
 11
150.887261
 21
353.18535
 31
0.0
  0
LINE
  8
0
  6
CONTINUOUS
 62
     7
  5
227
 10
150.887261
 20
353.360482
 30
0.0
 11
150.587259
 21
353.360482
 31
0.0
  0
LINE
  8
0
  6
CONTINUOUS
 62
     7
  5
228
 10
151.487261
 20
353.360482
 30
0.0
 11
151.763106
 21
353.360482
 31
0.0
  0
LINE
  8
0
  6
CONTINUOUS
 62
     7
  5
229
 10
150.386788
 20
353.360482
 30
0.0
 11
150.387254
 21
353.360482
 31
0.0
  0
ARC
  8
0
  6
CONTINUOUS
 62
     7
  5
22A
 10
151.487254
 20
350.810482
 30
0.0
 40
3.029045
 50
63.982285
 51
283.118101
210
0.0
220
0.0
230
1.0
  0
ARC
  8
0
  6
CONTINUOUS
 62
     7
  5
22B
 10
151.487254
 20
350.810482
 30
0.0
 40
4.170955
 50
270.0
 51
299.438835
210
0.0
220
0.0
230
1.0
  0
ARC
  8
0
  6
CONTINUOUS
 62
     7
  5
22C
 10
151.487254
 20
350.810482
 30
0.0
 40
4.170955
 50
60.561165
 51
270.0
210
0.0
220
0.0
230
1.0
  0
ARC
  8
0
  6
CONTINUOUS
 62
     7
  5
22D
 10
151.487254
 20
350.810482
 30
0.0
 40
4.25
 50
90.0
 51
298.839189
210
0.0
220
0.0
230
1.0
  0
ARC
  8
0
  6
CONTINUOUS
 62
     7
  5
22E
 10
151.487254
 20
350.810482
 30
0.0
 40
4.25
 50
61.160811
 51
90.0
210
0.0
220
0.0
230
1.0
  0
LINE
  8
0
  6
CONTINUOUS
 62
     7
  5
22F
 10
154.337254
 20
354.760482
 30
0.0
 11
153.537254
 21
354.760482
 31
0.0
  0
LINE
  8
0
  6
CONTINUOUS
 62
     7
  5
230
 10
153.537254
 20
346.860482
 30
0.0
 11
154.337254
 21
346.860482
 31
0.0
  0
LINE
  8
0
  6
CONTINUOUS
 62
     7
  5
231
 10
155.337254
 20
354.710482
 30
0.0
 11
154.337254
 21
354.710482
 31
0.0
  0
LINE
  8
0
  6
CONTINUOUS
 62
     7
  5
232
 10
154.337254
 20
346.910482
 30
0.0
 11
155.337254
 21
346.910482
 31
0.0
  0
LINE
  8
0
  6
CONTINUOUS
 62
     7
  5
233
 10
151.487254
 20
347.860482
 30
0.0
 11
153.537254
 21
347.860482
 31
0.0
  0
LINE
  8
0
  6
CONTINUOUS
 62
     7
  5
234
 10
153.537254
 20
353.760482
 30
0.0
 11
153.237254
 21
353.760482
 31
0.0
  0
LINE
  8
0
  6
CONTINUOUS
 62
     7
  5
235
 10
150.386788
 20
353.360482
 30
0.0
 11
150.386788
 21
353.18535
 31
0.0
  0
ENDBLK
  8
0
  5
236
  0
BLOCK
  8
0
  5
239
  2
AID1027
 70
     0
 10
0.0
 20
0.0
 30
0.0
  3
#auxiliary draft view
  0
LINE
  8
0
  6
CONTINUOUS
 62
     7
  5
23A
 10
173.782553
 20
-70.853317
 30
0.0
 11
172.627852
 21
-68.853317
 31
0.0
  0
LINE
  8
0
  6
CONTINUOUS
 62
     7
  5
23B
 10
173.782553
 20
-66.853317
 30
0.0
 11
176.091954
 21
-66.853317
 31
0.0
  0
LINE
  8
0
  6
CONTINUOUS
 62
     7
  5
23C
 10
172.627852
 20
-68.853317
 30
0.0
 11
173.782553
 21
-66.853317
 31
0.0
  0
CIRCLE
  8
0
  6
CONTINUOUS
 62
     7
  5
23D
 10
174.937254
 20
-68.853317
 30
0.0
 40
4.25
210
0.0
220
0.0
230
1.0
  0
LINE
  8
0
  6
CONTINUOUS
 62
     7
  5
23E
 10
176.091954
 20
-66.853317
 30
0.0
 11
177.246655
 21
-68.853317
 31
0.0
  0
LINE
  8
0
  6
CONTINUOUS
 62
     7
  5
23F
 10
177.246655
 20
-68.853317
 30
0.0
 11
176.091954
 21
-70.853317
 31
0.0
  0
LINE
  8
0
  6
CONTINUOUS
 62
     7
  5
240
 10
176.091954
 20
-70.853317
 30
0.0
 11
173.782553
 21
-70.853317
 31
0.0
  0
LINE
  8
0
  6
CONTINUOUS
 62
     7
  5
241
 10
173.782553
 20
-32.853317
 30
0.0
 11
172.627852
 21
-30.853317
 31
0.0
  0
LINE
  8
0
  6
CONTINUOUS
 62
     7
  5
242
 10
176.091954
 20
-32.853317
 30
0.0
 11
173.782553
 21
-32.853317
 31
0.0
  0
LINE
  8
0
  6
CONTINUOUS
 62
     7
  5
243
 10
177.246655
 20
-30.853317
 30
0.0
 11
176.091954
 21
-32.853317
 31
0.0
  0
LINE
  8
0
  6
CONTINUOUS
 62
     7
  5
244
 10
176.091954
 20
-28.853317
 30
0.0
 11
177.246655
 21
-30.853317
 31
0.0
  0
LINE
  8
0
  6
CONTINUOUS
 62
     7
  5
245
 10
173.782553
 20
-28.853317
 30
0.0
 11
176.091954
 21
-28.853317
 31
0.0
  0
LINE
  8
0
  6
CONTINUOUS
 62
     7
  5
246
 10
172.627852
 20
-30.853317
 30
0.0
 11
173.782553
 21
-28.853317
 31
0.0
  0
CIRCLE
  8
0
  6
CONTINUOUS
 62
     7
  5
247
 10
174.937254
 20
-30.853317
 30
0.0
 40
4.25
210
0.0
220
0.0
230
1.0
  0
ARC
  8
0
  6
CONTINUOUS
 62
     7
  5
248
 10
181.437254
 20
-61.375036
 30
0.0
 40
2.0
 50
0.0
 51
42.667925
210
0.0
220
0.0
230
1.0
  0
LINE
  8
0
  6
CONTINUOUS
 62
     7
  5
249
 10
183.437254
 20
-73.353317
 30
0.0
 11
183.437254
 21
-61.375036
 31
0.0
  0
LINE
  8
0
  6
CONTINUOUS
 62
     7
  5
24A
 10
179.437254
 20
-77.353317
 30
0.0
 11
183.437254
 21
-73.353317
 31
0.0
  0
LINE
  8
0
  6
CONTINUOUS
 62
     7
  5
24B
 10
169.437254
 20
-77.353317
 30
0.0
 11
179.437254
 21
-77.353317
 31
0.0
  0
LINE
  8
0
  6
CONTINUOUS
 62
     7
  5
24C
 10
165.437254
 20
-73.353317
 30
0.0
 11
169.437254
 21
-77.353317
 31
0.0
  0
LINE
  8
0
  6
CONTINUOUS
 62
     7
  5
24D
 10
165.437254
 20
-26.353317
 30
0.0
 11
165.437254
 21
-73.353317
 31
0.0
  0
LINE
  8
0
  6
CONTINUOUS
 62
     7
  5
24E
 10
169.437254
 20
-22.353317
 30
0.0
 11
165.437254
 21
-26.353317
 31
0.0
  0
LINE
  8
0
  6
CONTINUOUS
 62
     7
  5
24F
 10
179.437254
 20
-22.353317
 30
0.0
 11
169.437254
 21
-22.353317
 31
0.0
  0
LINE
  8
0
  6
CONTINUOUS
 62
     7
  5
250
 10
183.437254
 20
-38.331599
 30
0.0
 11
183.437254
 21
-26.353317
 31
0.0
  0
ARC
  8
0
  6
CONTINUOUS
 62
     7
  5
251
 10
181.437254
 20
-38.331599
 30
0.0
 40
2.0
 50
317.332075
 51
0.0
210
0.0
220
0.0
230
1.0
  0
ARC
  8
0
  6
CONTINUOUS
 62
     7
  5
252
 10
193.937254
 20
-49.853317
 30
0.0
 40
15.0
 50
137.332075
 51
222.667925
210
0.0
220
0.0
230
1.0
  0
LINE
  8
0
  6
CONTINUOUS
 62
     7
  5
253
 10
183.437254
 20
-26.353317
 30
0.0
 11
179.437254
 21
-22.353317
 31
0.0
  0
CIRCLE
  8
0
  6
CONTINUOUS
 62
     7
  5
254
 10
192.237254
 20
-49.853317
 30
0.0
 40
2.067
210
0.0
220
0.0
230
1.0
  0
CIRCLE
  8
0
  6
CONTINUOUS
 62
     7
  5
255
 10
192.237254
 20
-49.853317
 30
0.0
 40
2.5
210
0.0
220
0.0
230
1.0
  0
CIRCLE
  8
0
  6
CONTINUOUS
 62
     7
  5
256
 10
192.237254
 20
-49.853317
 30
0.0
 40
5.25
210
0.0
220
0.0
230
1.0
  0
LINE
  8
0
  6
CONTINUOUS
 62
     7
  5
257
 10
166.437254
 20
-22.353317
 30
0.0
 11
162.937254
 21
-22.353317
 31
0.0
  0
LINE
  8
0
  6
CONTINUOUS
 62
     7
  5
258
 10
158.937254
 20
-26.353317
 30
0.0
 11
158.937254
 21
-45.853317
 31
0.0
  0
LINE
  8
0
  6
CONTINUOUS
 62
     7
  5
259
 10
158.937254
 20
-53.853317
 30
0.0
 11
158.937254
 21
-73.353317
 31
0.0
  0
LINE
  8
0
  6
CONTINUOUS
 62
     7
  5
25A
 10
162.937254
 20
-77.353317
 30
0.0
 11
166.437254
 21
-77.353317
 31
0.0
  0
LINE
  8
0
  6
CONTINUOUS
 62
     7
  5
25B
 10
162.937254
 20
-22.353317
 30
0.0
 11
158.937254
 21
-26.353317
 31
0.0
  0
LINE
  8
0
  6
CONTINUOUS
 62
     7
  5
25C
 10
158.937254
 20
-73.353317
 30
0.0
 11
162.937254
 21
-77.353317
 31
0.0
  0
LINE
  8
0
  6
CONTINUOUS
 62
     7
  5
25D
 10
198.937254
 20
-68.553317
 30
0.0
 11
198.937254
 21
-70.853317
 31
0.0
  0
LINE
  8
0
  6
CONTINUOUS
 62
     7
  5
25E
 10
198.937254
 20
-70.853317
 30
0.0
 11
194.937254
 21
-70.853317
 31
0.0
  0
LINE
  8
0
  6
CONTINUOUS
 62
     7
  5
25F
 10
209.937254
 20
-64.353317
 30
0.0
 11
194.937254
 21
-64.353317
 31
0.0
  0
LINE
  8
0
  6
CONTINUOUS
 62
     7
  5
260
 10
209.937254
 20
-68.553317
 30
0.0
 11
209.937254
 21
-64.353317
 31
0.0
  0
LINE
  8
0
  6
CONTINUOUS
 62
     7
  5
261
 10
209.937254
 20
-68.553317
 30
0.0
 11
198.937254
 21
-68.553317
 31
0.0
  0
LINE
  8
0
  6
CONTINUOUS
 62
     7
  5
262
 10
194.937254
 20
-70.853317
 30
0.0
 11
194.937254
 21
-64.353317
 31
0.0
  0
LINE
  8
0
  6
CONTINUOUS
 62
     7
  5
263
 10
209.937254
 20
-35.353317
 30
0.0
 11
194.937254
 21
-35.353317
 31
0.0
  0
LINE
  8
0
  6
CONTINUOUS
 62
     7
  5
264
 10
198.937254
 20
-28.853317
 30
0.0
 11
194.937254
 21
-28.853317
 31
0.0
  0
LINE
  8
0
  6
CONTINUOUS
 62
     7
  5
265
 10
198.937254
 20
-28.853317
 30
0.0
 11
198.937254
 21
-31.153317
 31
0.0
  0
LINE
  8
0
  6
CONTINUOUS
 62
     7
  5
266
 10
198.937254
 20
-31.153317
 30
0.0
 11
209.937254
 21
-31.153317
 31
0.0
  0
LINE
  8
0
  6
CONTINUOUS
 62
     7
  5
267
 10
194.937254
 20
-35.353317
 30
0.0
 11
194.937254
 21
-28.853317
 31
0.0
  0
LINE
  8
0
  6
CONTINUOUS
 62
     7
  5
268
 10
209.937254
 20
-35.353317
 30
0.0
 11
209.937254
 21
-31.153317
 31
0.0
  0
LINE
  8
0
  6
CONTINUOUS
 62
     7
  5
269
 10
201.937254
 20
-36.553317
 30
0.0
 11
201.937254
 21
-39.053317
 31
0.0
  0
LINE
  8
0
  6
CONTINUOUS
 62
     7
  5
26A
 10
209.937254
 20
-60.653317
 30
0.0
 11
201.937254
 21
-60.653317
 31
0.0
  0
LINE
  8
0
  6
CONTINUOUS
 62
     7
  5
26B
 10
201.937254
 20
-60.653317
 30
0.0
 11
201.937254
 21
-63.153317
 31
0.0
  0
LINE
  8
0
  6
CONTINUOUS
 62
     7
  5
26C
 10
201.937254
 20
-63.153317
 30
0.0
 11
209.937254
 21
-63.153317
 31
0.0
  0
LINE
  8
0
  6
CONTINUOUS
 62
     7
  5
26D
 10
209.937254
 20
-64.353317
 30
0.0
 11
209.937254
 21
-63.153317
 31
0.0
  0
LINE
  8
0
  6
CONTINUOUS
 62
     7
  5
26E
 10
207.137254
 20
-44.803317
 30
0.0
 11
207.137254
 21
-54.903317
 31
0.0
  0
LINE
  8
0
  6
CONTINUOUS
 62
     7
  5
26F
 10
202.569122
 20
-44.803317
 30
0.0
 11
207.137254
 21
-44.803317
 31
0.0
  0
LINE
  8
0
  6
CONTINUOUS
 62
     7
  5
270
 10
209.937254
 20
-36.553317
 30
0.0
 11
201.937254
 21
-36.553317
 31
0.0
  0
ARC
  8
0
  6
CONTINUOUS
 62
     7
  5
271
 10
192.237254
 20
-49.853317
 30
0.0
 40
11.5
 50
26.048413
 51
76.421191
210
0.0
220
0.0
230
0.9999999999999999
  0
ARC
  8
0
  6
CONTINUOUS
 62
     7
  5
272
 10
192.237254
 20
-49.853317
 30
0.0
 40
11.5
 50
283.578809
 51
333.951587
210
0.0
220
0.0
230
1.0
  0
LINE
  8
0
  6
CONTINUOUS
 62
     7
  5
273
 10
194.937254
 20
-38.674767
 30
0.0
 11
194.937254
 21
-35.353317
 31
0.0
  0
LINE
  8
0
  6
CONTINUOUS
 62
     7
  5
274
 10
201.937254
 20
-39.053317
 30
0.0
 11
209.937254
 21
-39.053317
 31
0.0
  0
LINE
  8
0
  6
CONTINUOUS
 62
     7
  5
275
 10
209.937254
 20
-36.553317
 30
0.0
 11
209.937254
 21
-35.353317
 31
0.0
  0
LINE
  8
0
  6
CONTINUOUS
 62
     7
  5
276
 10
209.937254
 20
-60.653317
 30
0.0
 11
209.937254
 21
-39.053317
 31
0.0
  0
LINE
  8
0
  6
CONTINUOUS
 62
     7
  5
277
 10
207.137254
 20
-54.903317
 30
0.0
 11
202.569122
 21
-54.903317
 31
0.0
  0
LINE
  8
0
  6
CONTINUOUS
 62
     7
  5
278
 10
194.937254
 20
-64.353317
 30
0.0
 11
194.937254
 21
-61.031868
 31
0.0
  0
CIRCLE
  8
0
  6
CONTINUOUS
 62
     7
  5
279
 10
199.937254
 20
-75.853317
 30
0.0
 40
3.4
210
0.0
220
0.0
230
1.0
  0
CIRCLE
  8
0
  6
CONTINUOUS
 62
     7
  5
27A
 10
199.937254
 20
-75.853317
 30
0.0
 40
4.0
210
0.0
220
0.0
230
1.0
  0
CIRCLE
  8
0
  6
CONTINUOUS
 62
     7
  5
27B
 10
199.937254
 20
-23.853317
 30
0.0
 40
3.4
210
0.0
220
0.0
230
1.0
  0
CIRCLE
  8
0
  6
CONTINUOUS
 62
     7
  5
27C
 10
199.937254
 20
-23.853317
 30
0.0
 40
4.0
210
0.0
220
0.0
230
1.0
  0
LINE
  8
0
  6
CONTINUOUS
 62
     7
  5
27D
 10
209.937254
 20
-19.353317
 30
0.0
 11
194.937254
 21
-19.353317
 31
0.0
  0
LINE
  8
0
  6
CONTINUOUS
 62
     7
  5
27E
 10
209.937254
 20
-22.553317
 30
0.0
 11
209.937254
 21
-19.353317
 31
0.0
  0
LINE
  8
0
  6
CONTINUOUS
 62
     7
  5
27F
 10
209.937254
 20
-28.653317
 30
0.0
 11
209.937254
 21
-25.053317
 31
0.0
  0
LINE
  8
0
  6
CONTINUOUS
 62
     7
  5
280
 10
209.937254
 20
-28.653317
 30
0.0
 11
198.937254
 21
-28.653317
 31
0.0
  0
LINE
  8
0
  6
CONTINUOUS
 62
     7
  5
281
 10
204.437254
 20
-25.053317
 30
0.0
 11
209.937254
 21
-25.053317
 31
0.0
  0
LINE
  8
0
  6
CONTINUOUS
 62
     7
  5
282
 10
204.437254
 20
-22.553317
 30
0.0
 11
204.437254
 21
-25.053317
 31
0.0
  0
LINE
  8
0
  6
CONTINUOUS
 62
     7
  5
283
 10
209.937254
 20
-22.553317
 30
0.0
 11
204.437254
 21
-22.553317
 31
0.0
  0
LINE
  8
0
  6
CONTINUOUS
 62
     7
  5
284
 10
198.937254
 20
-28.653317
 30
0.0
 11
198.937254
 21
-28.853317
 31
0.0
  0
LINE
  8
0
  6
CONTINUOUS
 62
     7
  5
285
 10
194.937254
 20
-28.853317
 30
0.0
 11
194.937254
 21
-19.353317
 31
0.0
  0
LINE
  8
0
  6
CONTINUOUS
 62
     7
  5
286
 10
209.937254
 20
-74.653317
 30
0.0
 11
209.937254
 21
-71.053317
 31
0.0
  0
LINE
  8
0
  6
CONTINUOUS
 62
     7
  5
287
 10
209.937254
 20
-80.353317
 30
0.0
 11
209.937254
 21
-77.153317
 31
0.0
  0
LINE
  8
0
  6
CONTINUOUS
 62
     7
  5
288
 10
209.937254
 20
-80.353317
 30
0.0
 11
194.937254
 21
-80.353317
 31
0.0
  0
LINE
  8
0
  6
CONTINUOUS
 62
     7
  5
289
 10
204.437254
 20
-77.153317
 30
0.0
 11
209.937254
 21
-77.153317
 31
0.0
  0
LINE
  8
0
  6
CONTINUOUS
 62
     7
  5
28A
 10
209.937254
 20
-74.653317
 30
0.0
 11
204.437254
 21
-74.653317
 31
0.0
  0
LINE
  8
0
  6
CONTINUOUS
 62
     7
  5
28B
 10
198.937254
 20
-71.053317
 30
0.0
 11
209.937254
 21
-71.053317
 31
0.0
  0
LINE
  8
0
  6
CONTINUOUS
 62
     7
  5
28C
 10
204.437254
 20
-74.653317
 30
0.0
 11
204.437254
 21
-77.153317
 31
0.0
  0
LINE
  8
0
  6
CONTINUOUS
 62
     7
  5
28D
 10
198.937254
 20
-70.853317
 30
0.0
 11
198.937254
 21
-71.053317
 31
0.0
  0
LINE
  8
0
  6
CONTINUOUS
 62
     7
  5
28E
 10
194.937254
 20
-80.353317
 30
0.0
 11
194.937254
 21
-70.853317
 31
0.0
  0
ARC
  8
0
  6
CONTINUOUS
 62
     7
  5
28F
 10
202.837254
 20
-48.553317
 30
0.0
 40
5.0
 50
30.683417
 51
48.590378
210
0.0
220
0.0
230
1.0
  0
ARC
  8
0
  6
CONTINUOUS
 62
     7
  5
290
 10
202.837254
 20
-51.153317
 30
0.0
 40
5.0
 50
311.409622
 51
329.316583
210
0.0
220
0.0
230
1.0
  0
ARC
  8
0
  6
CONTINUOUS
 62
     7
  5
291
 10
170.437254
 20
-49.853317
 30
0.0
 40
6.0
 50
146.44269
 51
213.55731
210
0.0
220
0.0
230
1.0
  0
LINE
  8
0
  6
CONTINUOUS
 62
     7
  5
292
 10
169.937254
 20
-80.853317
 30
0.0
 11
160.437254
 21
-71.353317
 31
0.0
  0
LINE
  8
0
  6
CONTINUOUS
 62
     7
  5
293
 10
160.437254
 20
-71.353317
 30
0.0
 11
160.437254
 21
-28.353317
 31
0.0
  0
LINE
  8
0
  6
CONTINUOUS
 62
     7
  5
294
 10
160.437254
 20
-28.353317
 30
0.0
 11
169.937254
 21
-18.853317
 31
0.0
  0
LINE
  8
0
  6
CONTINUOUS
 62
     7
  5
295
 10
169.937254
 20
-18.853317
 30
0.0
 11
210.437254
 21
-18.853317
 31
0.0
  0
LINE
  8
0
  6
CONTINUOUS
 62
     7
  5
296
 10
210.437254
 20
-18.853317
 30
0.0
 11
210.437254
 21
-80.853317
 31
0.0
  0
LINE
  8
0
  6
CONTINUOUS
 62
     7
  5
297
 10
210.437254
 20
-80.853317
 30
0.0
 11
169.937254
 21
-80.853317
 31
0.0
  0
ARC
  8
0
  6
CONTINUOUS
 62
     7
  5
298
 10
192.237254
 20
-49.853317
 30
0.0
 40
11.5
 50
76.421191
 51
283.578809
210
0.0
220
0.0
230
1.0
  0
CIRCLE
  8
0
  6
CONTINUOUS
 62
     7
  5
299
 10
192.237254
 20
-49.853317
 30
0.0
 40
9.0
210
0.0
220
0.0
230
1.0
  0
CIRCLE
  8
0
  6
CONTINUOUS
 62
     7
  5
29A
 10
151.487254
 20
-49.853317
 30
0.0
 40
2.0
210
0.0
220
0.0
230
1.0
  0
CIRCLE
  8
0
  6
CONTINUOUS
 62
     9
  5
29B
 10
151.487254
 20
-49.853317
 30
0.0
 40
3.8475
210
0.0
220
0.0
230
1.0
  0
ARC
  8
0
  6
CONTINUOUS
 62
     7
  5
29C
 10
151.487254
 20
-49.853317
 30
0.0
 40
4.05
 50
90.0
 51
360.0
210
0.0
220
0.0
230
1.0
  0
ARC
  8
0
  6
CONTINUOUS
 62
     7
  5
29D
 10
151.487254
 20
-49.853317
 30
0.0
 40
4.05
 50
360.0
 51
90.0
210
0.0
220
0.0
230
1.0
  0
CIRCLE
  8
0
  6
CONTINUOUS
 62
     7
  5
29E
 10
151.487254
 20
-49.853317
 30
0.0
 40
4.25
210
0.0
220
0.0
230
1.0
  0
LINE
  8
0
  6
CONTINUOUS
 62
     7
  5
29F
 10
158.735181
 20
-49.333816
 30
0.0
 11
155.705383
 21
-49.333816
 31
0.0
  0
LINE
  8
0
  6
CONTINUOUS
 62
     7
  5
2A0
 10
158.735181
 20
-50.372819
 30
0.0
 11
158.735181
 21
-49.333816
 31
0.0
  0
LINE
  8
0
  6
CONTINUOUS
 62
     7
  5
2A1
 10
155.705383
 20
-50.372819
 30
0.0
 11
158.735181
 21
-50.372819
 31
0.0
  0
LINE
  8
0
  6
CONTINUOUS
 62
     7
  5
2A2
 10
155.341618
 20
-51.640249
 30
0.0
 11
155.337254
 21
-51.853317
 31
0.0
  0
LINE
  8
0
  6
CONTINUOUS
 62
     7
  5
2A3
 10
155.337254
 20
-47.853317
 30
0.0
 11
155.337254
 21
-48.053317
 31
0.0
  0
LINE
  8
0
  6
CONTINUOUS
 62
     7
  5
2A4
 10
155.337254
 20
-51.653317
 30
0.0
 11
155.337254
 21
-51.853317
 31
0.0
  0
LINE
  8
0
  6
CONTINUOUS
 62
     7
  5
2A5
 10
155.337254
 20
-47.853317
 30
0.0
 11
155.341621
 21
-48.06646
 31
0.0
  0
LINE
  8
0
  6
CONTINUOUS
 62
     7
  5
2A6
 10
158.735181
 20
-50.372819
 30
0.0
 11
158.937254
 21
-51.853317
 31
0.0
  0
LINE
  8
0
  6
CONTINUOUS
 62
     7
  5
2A7
 10
158.937254
 20
-47.853317
 30
0.0
 11
158.735181
 21
-49.333816
 31
0.0
  0
LINE
  8
0
  6
CONTINUOUS
 62
     7
  5
2A8
 10
158.937254
 20
-47.853317
 30
0.0
 11
158.937254
 21
-51.853317
 31
0.0
  0
LINE
  8
0
  6
CONTINUOUS
 62
     7
  5
2A9
 10
158.735181
 20
-46.372819
 30
0.0
 11
158.937254
 21
-47.853317
 31
0.0
  0
LINE
  8
0
  6
CONTINUOUS
 62
     7
  5
2AA
 10
155.539326
 20
-46.372819
 30
0.0
 11
155.337254
 21
-47.853317
 31
0.0
  0
LINE
  8
0
  6
CONTINUOUS
 62
     7
  5
2AB
 10
155.539326
 20
-46.372819
 30
0.0
 11
158.735181
 21
-46.372819
 31
0.0
  0
LINE
  8
0
  6
CONTINUOUS
 62
     7
  5
2AC
 10
158.937254
 20
-51.853317
 30
0.0
 11
158.735181
 21
-53.333816
 31
0.0
  0
LINE
  8
0
  6
CONTINUOUS
 62
     7
  5
2AD
 10
158.735181
 20
-53.333816
 30
0.0
 11
155.539326
 21
-53.333816
 31
0.0
  0
LINE
  8
0
  6
CONTINUOUS
 62
     7
  5
2AE
 10
155.337254
 20
-51.853317
 30
0.0
 11
155.539326
 21
-53.333816
 31
0.0
  0
LINE
  8
0
  6
CONTINUOUS
 62
     7
  5
2AF
 10
154.337254
 20
-53.803317
 30
0.0
 11
154.337254
 21
-53.006094
 31
0.0
  0
LINE
  8
0
  6
CONTINUOUS
 62
     7
  5
2B0
 10
153.537254
 20
-45.903317
 30
0.0
 11
153.537254
 21
-46.130415
 31
0.0
  0
LINE
  8
0
  6
CONTINUOUS
 62
     7
  5
2B1
 10
153.537254
 20
-53.576219
 30
0.0
 11
153.537254
 21
-53.803317
 31
0.0
  0
LINE
  8
0
  6
CONTINUOUS
 62
     7
  5
2B2
 10
154.337254
 20
-46.700541
 30
0.0
 11
154.337254
 21
-45.903317
 31
0.0
  0
LINE
  8
0
  6
CONTINUOUS
 62
     7
  5
2B3
 10
158.735181
 20
-53.853317
 30
0.0
 11
158.937254
 21
-53.853317
 31
0.0
  0
LINE
  8
0
  6
CONTINUOUS
 62
     7
  5
2B4
 10
158.735181
 20
-53.853317
 30
0.0
 11
158.735181
 21
-53.333816
 31
0.0
  0
LINE
  8
0
  6
CONTINUOUS
 62
     7
  5
2B5
 10
158.937254
 20
-51.853317
 30
0.0
 11
158.937254
 21
-53.853317
 31
0.0
  0
LINE
  8
0
  6
CONTINUOUS
 62
     7
  5
2B6
 10
155.539326
 20
-46.372819
 30
0.0
 11
155.539326
 21
-45.853317
 31
0.0
  0
LINE
  8
0
  6
CONTINUOUS
 62
     7
  5
2B7
 10
155.337254
 20
-45.853317
 30
0.0
 11
155.539326
 21
-45.853317
 31
0.0
  0
LINE
  8
0
  6
CONTINUOUS
 62
     7
  5
2B8
 10
155.337254
 20
-45.853317
 30
0.0
 11
155.337254
 21
-47.853317
 31
0.0
  0
LINE
  8
0
  6
CONTINUOUS
 62
     7
  5
2B9
 10
158.735181
 20
-46.372819
 30
0.0
 11
158.735181
 21
-45.853317
 31
0.0
  0
LINE
  8
0
  6
CONTINUOUS
 62
     7
  5
2BA
 10
158.937254
 20
-45.853317
 30
0.0
 11
158.735181
 21
-45.853317
 31
0.0
  0
LINE
  8
0
  6
CONTINUOUS
 62
     7
  5
2BB
 10
158.937254
 20
-45.853317
 30
0.0
 11
158.937254
 21
-47.853317
 31
0.0
  0
LINE
  8
0
  6
CONTINUOUS
 62
     7
  5
2BC
 10
155.539326
 20
-53.853317
 30
0.0
 11
155.539326
 21
-53.333816
 31
0.0
  0
LINE
  8
0
  6
CONTINUOUS
 62
     7
  5
2BD
 10
155.539326
 20
-53.853317
 30
0.0
 11
155.337254
 21
-53.853317
 31
0.0
  0
LINE
  8
0
  6
CONTINUOUS
 62
     7
  5
2BE
 10
155.337254
 20
-51.853317
 30
0.0
 11
155.337254
 21
-53.853317
 31
0.0
  0
LINE
  8
0
  6
CONTINUOUS
 62
     7
  5
2BF
 10
158.735181
 20
-45.853317
 30
0.0
 11
155.539326
 21
-45.853317
 31
0.0
  0
LINE
  8
0
  6
CONTINUOUS
 62
     7
  5
2C0
 10
155.539326
 20
-53.853317
 30
0.0
 11
158.735181
 21
-53.853317
 31
0.0
  0
LINE
  8
0
  6
CONTINUOUS
 62
     7
  5
2C1
 10
155.337254
 20
-45.953317
 30
0.0
 11
154.337254
 21
-45.953317
 31
0.0
  0
LINE
  8
0
  6
CONTINUOUS
 62
     7
  5
2C2
 10
154.337254
 20
-53.753317
 30
0.0
 11
155.337254
 21
-53.753317
 31
0.0
  0
LINE
  8
0
  6
CONTINUOUS
 62
     7
  5
2C3
 10
158.937254
 20
-53.753317
 30
0.0
 11
160.437254
 21
-53.753317
 31
0.0
  0
LINE
  8
0
  6
CONTINUOUS
 62
     7
  5
2C4
 10
160.437254
 20
-45.953317
 30
0.0
 11
158.937254
 21
-45.953317
 31
0.0
  0
LINE
  8
0
  6
CONTINUOUS
 62
     7
  5
2C5
 10
154.337254
 20
-45.903317
 30
0.0
 11
153.537254
 21
-45.903317
 31
0.0
  0
LINE
  8
0
  6
CONTINUOUS
 62
     7
  5
2C6
 10
153.537254
 20
-53.803317
 30
0.0
 11
154.337254
 21
-53.803317
 31
0.0
  0
ENDBLK
  8
0
  5
2C7
  0
ENDSEC
  0
SECTION
  2
ENTITIES
  0
INSERT
  8
0
  5
D6
  2
AID3
 10
0.0
 20
0.0
 30
0.0
  0
INSERT
  8
0
  5
151
  2
AID333
 10
0.0
 20
0.0
 30
0.0
  0
INSERT
  8
0
  5
1E4
  2
AID575
 10
0.0
 20
0.0
 30
0.0
  0
INSERT
  8
0
  5
237
  2
AID865
 10
0.0
 20
0.0
 30
0.0
  0
INSERT
  8
0
  5
2C8
  2
AID1027
 10
0.0
 20
0.0
 30
0.0
  0
LINE
  8
0
  6
CENTER
 62
     1
  5
2CA
 10
157.837254
 20
330.810482
 30
0.0
 11
168.037254
 21
330.810482
 31
0.0
  0
LINE
  8
0
  6
CENTER
 62
     1
  5
2CB
 10
162.937254
 20
325.710482
 30
0.0
 11
162.937254
 21
335.910482
 31
0.0
  0
LINE
  8
0
  6
CENTER
 62
     1
  5
2CC
 10
162.937254
 20
345.800482
 30
0.0
 11
162.937254
 21
355.820482
 31
0.0
  0
LINE
  8
0
  6
CENTER
 62
     1
  5
2CD
 10
157.837254
 20
370.810482
 30
0.0
 11
168.037254
 21
370.810482
 31
0.0
  0
LINE
  8
0
  6
CENTER
 62
     1
  5
2CE
 10
162.937254
 20
365.710482
 30
0.0
 11
162.937254
 21
375.910482
 31
0.0
  0
LINE
  8
0
  6
CENTER
 62
     1
  5
2CF
 10
199.837254
 20
330.810482
 30
0.0
 11
210.037254
 21
330.810482
 31
0.0
  0
LINE
  8
0
  6
CENTER
 62
     1
  5
2D0
 10
204.937254
 20
325.710482
 30
0.0
 11
204.937254
 21
335.910482
 31
0.0
  0
LINE
  8
0
  6
CENTER
 62
     1
  5
2D1
 10
204.937254
 20
345.800482
 30
0.0
 11
204.937254
 21
355.820482
 31
0.0
  0
LINE
  8
0
  6
CENTER
 62
     1
  5
2D2
 10
199.837254
 20
370.810482
 30
0.0
 11
210.037254
 21
370.810482
 31
0.0
  0
LINE
  8
0
  6
CENTER
 62
     1
  5
2D3
 10
204.937254
 20
365.710482
 30
0.0
 11
204.937254
 21
375.910482
 31
0.0
  0
LINE
  8
0
  6
CENTER
 62
     1
  5
2D4
 10
20.707707
 20
77.005349
 30
0.0
 11
31.707707
 21
77.005349
 31
0.0
  0
LINE
  8
0
  6
CENTER
 62
     1
  5
2D5
 10
26.207707
 20
71.505349
 30
0.0
 11
26.207707
 21
82.505349
 31
0.0
  0
LINE
  8
0
  6
CENTER
 62
     1
  5
2D6
 10
26.207707
 20
97.495349
 30
0.0
 11
26.207707
 21
108.515349
 31
0.0
  0
LINE
  8
0
  6
CENTER
 62
     1
  5
2D7
 10
20.707707
 20
129.005349
 30
0.0
 11
31.707707
 21
129.005349
 31
0.0
  0
LINE
  8
0
  6
CENTER
 62
     1
  5
2D8
 10
26.207707
 20
123.505349
 30
0.0
 11
26.207707
 21
134.505349
 31
0.0
  0
LINE
  8
0
  6
CENTER
 62
     1
  5
2D9
 10
31.207707
 20
165.005349
 30
0.0
 11
41.207707
 21
165.005349
 31
0.0
  0
LINE
  8
0
  6
CENTER
 62
     1
  5
2DA
 10
36.207707
 20
160.005349
 30
0.0
 11
36.207707
 21
170.005349
 31
0.0
  0
LINE
  8
0
  6
CENTER
 62
     1
  5
2DB
 10
31.207707
 20
197.005349
 30
0.0
 11
41.207707
 21
197.005349
 31
0.0
  0
LINE
  8
0
  6
CENTER
 62
     1
  5
2DC
 10
36.207707
 20
192.005349
 30
0.0
 11
36.207707
 21
202.005349
 31
0.0
  0
LINE
  8
0
  6
CENTER
 62
     1
  5
2DD
 10
63.207707
 20
165.005349
 30
0.0
 11
73.207707
 21
165.005349
 31
0.0
  0
LINE
  8
0
  6
CENTER
 62
     1
  5
2DE
 10
68.207707
 20
160.005349
 30
0.0
 11
68.207707
 21
170.005349
 31
0.0
  0
LINE
  8
0
  6
CENTER
 62
     1
  5
2DF
 10
63.207707
 20
197.005349
 30
0.0
 11
73.207707
 21
197.005349
 31
0.0
  0
LINE
  8
0
  6
CENTER
 62
     1
  5
2E0
 10
68.207707
 20
192.005349
 30
0.0
 11
68.207707
 21
202.005349
 31
0.0
  0
LINE
  8
0
  6
CENTER
 62
     1
  5
2E1
 10
72.707707
 20
77.005349
 30
0.0
 11
83.707707
 21
77.005349
 31
0.0
  0
LINE
  8
0
  6
CENTER
 62
     1
  5
2E2
 10
78.207707
 20
71.505349
 30
0.0
 11
78.207707
 21
82.505349
 31
0.0
  0
LINE
  8
0
  6
CENTER
 62
     1
  5
2E3
 10
78.207707
 20
97.495349
 30
0.0
 11
78.207707
 21
108.515349
 31
0.0
  0
LINE
  8
0
  6
CENTER
 62
     1
  5
2E4
 10
72.707707
 20
129.005349
 30
0.0
 11
83.707707
 21
129.005349
 31
0.0
  0
LINE
  8
0
  6
CENTER
 62
     1
  5
2E5
 10
78.207707
 20
123.505349
 30
0.0
 11
78.207707
 21
134.505349
 31
0.0
  0
LINE
  8
0
  6
CENTER
 62
     1
  5
2E6
 10
213.437254
 20
103.005349
 30
0.0
 11
202.437254
 21
103.005349
 31
0.0
  0
LINE
  8
0
  6
CENTER
 62
     1
  5
2E7
 10
192.237254
 20
55.772349
 30
0.0
 11
192.237254
 21
39.005349
 31
0.0
  0
LINE
  8
0
  6
CENTER
 62
     1
  5
2E8
 10
322.284787
 20
52.100349
 30
0.0
 11
322.284787
 21
69.422849
 31
0.0
  0
LINE
  8
0
  6
CENTER
 62
     1
  5
2E9
 10
322.284787
 20
24.005349
 30
0.0
 11
322.284787
 21
51.005349
 31
0.0
  0
LINE
  8
0
  6
CENTER
 62
     1
  5
2EA
 10
167.687254
 20
-68.853317
 30
0.0
 11
182.187254
 21
-68.853317
 31
0.0
  0
LINE
  8
0
  6
CENTER
 62
     1
  5
2EB
 10
174.937254
 20
-76.103317
 30
0.0
 11
174.937254
 21
-61.603317
 31
0.0
  0
LINE
  8
0
  6
CENTER
 62
     1
  5
2EC
 10
167.687254
 20
-30.853317
 30
0.0
 11
182.187254
 21
-30.853317
 31
0.0
  0
LINE
  8
0
  6
CENTER
 62
     1
  5
2ED
 10
174.937254
 20
-38.103317
 30
0.0
 11
174.937254
 21
-23.603317
 31
0.0
  0
LINE
  8
0
  6
CENTER
 62
     1
  5
2EE
 10
180.237254
 20
-49.853317
 30
0.0
 11
214.237254
 21
-49.853317
 31
0.0
  0
LINE
  8
0
  6
CENTER
 62
     1
  5
2EF
 10
192.237254
 20
-61.853317
 30
0.0
 11
192.237254
 21
-37.853317
 31
0.0
  0
LINE
  8
0
  6
CENTER
 62
     1
  5
2F0
 10
144.237254
 20
-49.853317
 30
0.0
 11
174.437254
 21
-49.853317
 31
0.0
  0
LINE
  8
0
  6
CENTER
 62
     1
  5
2F1
 10
20.697707
 20
103.005349
 30
0.0
 11
83.717707
 21
103.005349
 31
0.0
  0
LINE
  8
0
  6
CENTER
 62
     1
  5
2F2
 10
52.207707
 20
255.005349
 30
0.0
 11
52.207707
 21
25.005349
 31
0.0
  0
LINE
  8
0
  6
CENTER
 62
     1
  5
2F3
 10
148.487254
 20
350.810482
 30
0.0
 11
209.947254
 21
350.810482
 31
0.0
  0
ENDSEC
  0
EOF
