  0
SECTION
  2
HEADER
  9
$ACADVER
  1
AC1009
  9
$DWGCODEPAGE
  3
ansi_1252
  9
$INSBASE
 10
0.0
 20
0.0
 30
0.0
  9
$EXTMIN
 10
0.0
 20
-71.027384
 30
0.0
  9
$EXTMAX
 10
342.40256
 20
372.906842
 30
5.0
  9
$LIMMIN
 10
0.0
 20
-71.027384
  9
$LIMMAX
 10
342.40256
 20
372.906842
  9
$ORTHOMODE
 70
     0
  9
$REGENMODE
 70
     1
  9
$FILLMODE
 70
     1
  9
$QTEXTMODE
 70
     0
  9
$MIRRTEXT
 70
     1
  9
$DRAGMODE
 70
     2
  9
$LTSCALE
 40
10.0
  9
$OSMODE
 70
     0
  9
$ATTMODE
 70
     1
  9
$TEXTSIZE
 40
0.2
  9
$TRACEWID
 40
0.05
  9
$TEXTSTYLE
  7
STANDARD
  9
$CLAYER
  8
0
  9
$CELTYPE
  6
CONTINUOUS
  9
$CECOLOR
 62
   256
  9
$DIMSCALE
 40
1.0
  9
$DIMASZ
 40
1.25
  9
$DIMEXO
 40
1.0
  9
$DIMDLI
 40
0.38
  9
$DIMRND
 40
0.0
  9
$DIMDLE
 40
0.0
  9
$DIMEXE
 40
0.75
  9
$DIMTP
 40
0.0
  9
$DIMTM
 40
0.0
  9
$DIMTXT
 40
2.5
  9
$DIMCEN
 40
0.09
  9
$DIMTSZ
 40
0.0
  9
$DIMTOL
 70
     0
  9
$DIMLIM
 70
     0
  9
$DIMTIH
 70
     0
  9
$DIMTOH
 70
     0
  9
$DIMSE1
 70
     0
  9
$DIMSE2
 70
     0
  9
$DIMTAD
 70
     1
  9
$DIMZIN
 70
     0
  9
$DIMBLK
  1

  9
$DIMASO
 70
     1
  9
$DIMSHO
 70
     1
  9
$DIMPOST
  1

  9
$DIMAPOST
  1

  9
$DIMALT
 70
     0
  9
$DIMALTD
 70
     2
  9
$DIMALTF
 40
25.4
  9
$DIMLFAC
 40
1.0
  9
$DIMTOFL
 70
     0
  9
$DIMTVP
 40
0.0
  9
$DIMTIX
 70
     0
  9
$DIMSOXD
 70
     0
  9
$DIMSAH
 70
     0
  9
$DIMBLK1
  1

  9
$DIMBLK2
  1

  9
$DIMSTYLE
  2
STANDARD
  9
$DIMCLRD
 70
     7
  9
$DIMCLRE
 70
     7
  9
$DIMCLRT
 70
     7
  9
$DIMTFAC
 40
0.8
  9
$DIMGAP
 40
1.25
  9
$LUNITS
 70
     2
  9
$LUPREC
 70
     4
  9
$AXISMODE
 70
     0
  9
$AXISUNIT
 10
0.0
 20
0.0
  9
$SKETCHINC
 40
0.1
  9
$FILLETRAD
 40
0.0
  9
$AUNITS
 70
     0
  9
$AUPREC
 70
     0
  9
$MENU
  1
acad
  9
$ELEVATION
 40
0.0
  9
$PELEVATION
 40
0.0
  9
$THICKNESS
 40
0.0
  9
$LIMCHECK
 70
     0
  9
$BLIPMODE
 70
     1
  9
$CHAMFERA
 40
0.0
  9
$CHAMFERB
 40
0.0
  9
$SKPOLY
 70
     0
  9
$TDCREATE
 40
2454748.486365741
  9
$TDUPDATE
 40
2454748.402361111
  9
$TDINDWG
 40
0.0000000000
  9
$TDUSRTIMER
 40
0.0000000000
  9
$USRTIMER
 70
     1
  9
$ANGBASE
 50
0.0
  9
$ANGDIR
 70
     0
  9
$PDMODE
 70
     0
  9
$PDSIZE
 40
0.0
  9
$PLINEWID
 40
0.0
  9
$COORDS
 70
     0
  9
$SPLFRAME
 70
     0
  9
$SPLINETYPE
 70
     6
  9
$SPLINESEGS
 70
     8
  9
$ATTDIA
 70
     0
  9
$ATTREQ
 70
     1
  9
$HANDLING
 70
     1
  9
$HANDSEED
  5
254
  9
$SURFTAB1
 70
     6
  9
$SURFTAB2
 70
     6
  9
$SURFTYPE
 70
     6
  9
$SURFU
 70
     6
  9
$SURFV
 70
     6
  9
$UCSNAME
  2

  9
$UCSORG
 10
0.0
 20
0.0
 30
0.0
  9
$UCSXDIR
 10
1.0
 20
0.0
 30
0.0
  9
$UCSYDIR
 10
0.0
 20
1.0
 30
0.0
  9
$PUCSNAME
  2

  9
$PUCSORG
 10
0.0
 20
0.0
 30
0.0
  9
$PUCSXDIR
 10
1.0
 20
0.0
 30
0.0
  9
$PUCSYDIR
 10
0.0
 20
1.0
 30
0.0
  9
$USERI1
 70
     0
  9
$USERI2
 70
     0
  9
$USERI3
 70
     0
  9
$USERI4
 70
     0
  9
$USERI5
 70
     0
  9
$USERR1
 40
0.0
  9
$USERR2
 40
0.0
  9
$USERR3
 40
0.0
  9
$USERR4
 40
0.0
  9
$USERR5
 40
0.0
  9
$WORLDVIEW
 70
     1
  9
$SHADEDGE
 70
     3
  9
$SHADEDIF
 70
    70
  9
$TILEMODE
 70
     1
  9
$MAXACTVP
 70
    16
  9
$PINSBASE
 10
0.0
 20
0.0
 30
0.0
  9
$PLIMCHECK
 70
     0
  9
$PEXTMIN
 10
1.000000E+20
 20
1.000000E+20
 30
1.000000E+20
  9
$PEXTMAX
 10
-1.000000E+20
 20
-1.000000E+20
 30
-1.000000E+20
  9
$PLIMMIN
 10
0.0
 20
0.0
  9
$PLIMMAX
 10
12.0
 20
9.0
  9
$UNITMODE
 70
     0
  9
$VISRETAIN
 70
     0
  9
$PLINEGEN
 70
     1
  9
$PSLTSCALE
 70
     0
  9
$TREEDEPTH
 70
  3020
  0
ENDSEC
  0
SECTION
  2
TABLES
  0
TABLE
  2
VPORT
 70
     1
  0
VPORT
  2
*ACTIVE
 70
     0
 10
0.0
 20
0.0
 11
1.0
 21
1.0
 12
6.591288
 22
4.579184
 13
0.0
 23
0.0
 14
1.0
 24
1.0
 15
0.0
 25
0.0
 16
0.0
 26
0.0
 36
1.0
 17
0.0
 27
0.0
 37
0.0
 40
9.158369
 41
0.688564
 42
50.0
 43
0.0
 44
0.0
 50
0.0
 51
0.0
 71
     0
 72
   100
 73
     1
 74
     1
 75
     0
 76
     0
 77
     0
 78
     0
  0
ENDTAB
  0
TABLE
  2
LTYPE
 70
     2
  0
LTYPE
  2
CONTINUOUS
 70
    64
  3
Solid line
 72
    65
 73
     0
 40
0.0
  0
LTYPE
  2
CENTER
 70
    64
  3
____ _ ____ _ ____ _ ____ _ ____ _ ____ _ ____
 72
    65
 73
     4
 40
2.0
 49
1.25
 49
-0.25
 49
0.25
 49
-0.25
  0
ENDTAB
  0
TABLE
  2
LAYER
 70
     1
  0
LAYER
  2
0
 70
     0
 62
     7
  6
CONTINUOUS
  0
ENDTAB
  0
TABLE
  2
STYLE
 70
     1
  0
STYLE
  2
STANDARD
 70
     0
 40
0.0
 41
1.0
 50
0.0
 71
     0
 42
0.0
  3
IsonormD
  4

  0
ENDTAB
  0
TABLE
  2
VIEW
 70
     0
  0
ENDTAB
  0
TABLE
  2
UCS
 70
     0
  0
ENDTAB
  0
TABLE
  2
APPID
 70
     2
  0
APPID
  2
ACAD
 70
     0
  0
APPID
  2
TopSolid_Draft
 70
     0
  0
ENDTAB
  0
TABLE
  2
DIMSTYLE
 70
     1
  0
DIMSTYLE
  2
STANDARD
 70
     0
  3

  4

  5

  6

  7

 40
1.0
 41
1.25
 42
1.0
 43
0.38
 44
0.75
 45
0.0
 46
0.0
 47
0.0
 48
0.0
 71
     0
 72
     0
 73
     0
 74
     0
 75
     0
 76
     0
 77
     1
 78
     0
140
2.5
141
0.09
142
0.0
143
25.4
144
1.0
145
0.0
146
0.8
147
1.25
170
     0
171
     2
172
     0
173
     0
174
     0
175
     0
176
     7
177
     7
178
     7
  0
ENDTAB
  0
ENDSEC
  0
SECTION
  2
BLOCKS
  0
BLOCK
  8
0
  5
25
  2
AID3
 70
     0
 10
0.0
 20
0.0
 30
0.0
  3
#draft view
  0
LINE
  8
0
  6
CONTINUOUS
 62
     7
  5
26
 10
200.212413
 20
251.441109
 30
0.0
 11
200.212413
 21
240.441109
 31
0.0
  0
LINE
  8
0
  6
CONTINUOUS
 62
     7
  5
27
 10
200.212413
 20
251.441109
 30
0.0
 11
204.212413
 21
251.441109
 31
0.0
  0
LINE
  8
0
  6
CONTINUOUS
 62
     7
  5
28
 10
204.212413
 20
251.441109
 30
0.0
 11
204.212413
 21
240.441109
 31
0.0
  0
LINE
  8
0
  6
CONTINUOUS
 62
     7
  5
29
 10
200.212413
 20
240.441109
 30
0.0
 11
204.212413
 21
240.441109
 31
0.0
  0
LINE
  8
0
  6
CONTINUOUS
 62
     7
  5
2A
 10
186.212413
 20
251.441109
 30
0.0
 11
186.212413
 21
240.441109
 31
0.0
  0
LINE
  8
0
  6
CONTINUOUS
 62
     7
  5
2B
 10
186.212413
 20
251.441109
 30
0.0
 11
190.212413
 21
251.441109
 31
0.0
  0
LINE
  8
0
  6
CONTINUOUS
 62
     7
  5
2C
 10
190.212413
 20
251.441109
 30
0.0
 11
190.212413
 21
240.441109
 31
0.0
  0
LINE
  8
0
  6
CONTINUOUS
 62
     7
  5
2D
 10
186.212413
 20
240.441109
 30
0.0
 11
190.212413
 21
240.441109
 31
0.0
  0
LINE
  8
0
  6
CONTINUOUS
 62
     7
  5
2E
 10
190.212413
 20
251.441109
 30
0.0
 11
200.212413
 21
251.441109
 31
0.0
  0
LINE
  8
0
  6
CONTINUOUS
 62
     7
  5
2F
 10
190.212413
 20
240.441109
 30
0.0
 11
200.212413
 21
240.441109
 31
0.0
  0
LINE
  8
0
  6
CONTINUOUS
 62
     7
  5
30
 10
179.712413
 20
65.441109
 30
0.0
 11
179.712413
 21
51.441109
 31
0.0
  0
LINE
  8
0
  6
CONTINUOUS
 62
     7
  5
31
 10
179.712413
 20
65.441109
 30
0.0
 11
183.712413
 21
65.441109
 31
0.0
  0
LINE
  8
0
  6
CONTINUOUS
 62
     7
  5
32
 10
183.712413
 20
65.441109
 30
0.0
 11
183.712413
 21
51.441109
 31
0.0
  0
LINE
  8
0
  6
CONTINUOUS
 62
     7
  5
33
 10
179.712413
 20
51.441109
 30
0.0
 11
183.712413
 21
51.441109
 31
0.0
  0
LINE
  8
0
  6
CONTINUOUS
 62
     7
  5
34
 10
183.712413
 20
65.441109
 30
0.0
 11
229.712413
 21
65.441109
 31
0.0
  0
LINE
  8
0
  6
CONTINUOUS
 62
     7
  5
35
 10
229.712413
 20
65.441109
 30
0.0
 11
229.712413
 21
51.441109
 31
0.0
  0
LINE
  8
0
  6
CONTINUOUS
 62
     7
  5
36
 10
183.712413
 20
51.441109
 30
0.0
 11
229.712413
 21
51.441109
 31
0.0
  0
LINE
  8
0
  6
CONTINUOUS
 62
     7
  5
37
 10
199.962413
 20
256.441109
 30
0.0
 11
191.462413
 21
256.441109
 31
0.0
  0
LINE
  8
0
  6
CONTINUOUS
 62
     7
  5
38
 10
218.262413
 20
68.641109
 30
0.0
 11
213.012413
 21
68.641109
 31
0.0
  0
LINE
  8
0
  6
CONTINUOUS
 62
     7
  5
39
 10
213.012413
 20
68.641109
 30
0.0
 11
207.762413
 21
68.641109
 31
0.0
  0
LINE
  8
0
  6
CONTINUOUS
 62
     7
  5
3A
 10
231.212413
 20
71.441109
 30
0.0
 11
231.212413
 21
181.441109
 31
0.0
  0
LINE
  8
0
  6
CONTINUOUS
 62
     7
  5
3B
 10
231.212413
 20
71.441109
 30
0.0
 11
190.712413
 21
71.441109
 31
0.0
  0
LINE
  8
0
  6
CONTINUOUS
 62
     7
  5
3C
 10
190.712413
 20
71.441109
 30
0.0
 11
190.712413
 21
181.441109
 31
0.0
  0
LINE
  8
0
  6
CONTINUOUS
 62
     7
  5
3D
 10
231.212413
 20
181.441109
 30
0.0
 11
190.712413
 21
181.441109
 31
0.0
  0
LINE
  8
0
  6
CONTINUOUS
 62
     7
  5
3E
 10
190.712413
 20
71.441109
 30
0.0
 11
181.212413
 21
71.441109
 31
0.0
  0
LINE
  8
0
  6
CONTINUOUS
 62
     7
  5
3F
 10
181.212413
 20
71.441109
 30
0.0
 11
181.212413
 21
181.441109
 31
0.0
  0
LINE
  8
0
  6
CONTINUOUS
 62
     7
  5
40
 10
190.712413
 20
181.441109
 30
0.0
 11
181.212413
 21
181.441109
 31
0.0
  0
LINE
  8
0
  6
CONTINUOUS
 62
     9
  5
41
 10
176.512413
 20
81.541109
 30
0.0
 11
172.262413
 21
81.541109
 31
0.0
  0
LINE
  8
0
  6
CONTINUOUS
 62
     7
  5
42
 10
176.512413
 20
88.041109
 30
0.0
 11
172.262413
 21
88.041109
 31
0.0
  0
LINE
  8
0
  6
CONTINUOUS
 62
     9
  5
43
 10
172.262413
 20
81.541109
 30
0.0
 11
168.012413
 21
81.541109
 31
0.0
  0
LINE
  8
0
  6
CONTINUOUS
 62
     7
  5
44
 10
172.262413
 20
88.041109
 30
0.0
 11
168.012413
 21
88.041109
 31
0.0
  0
LINE
  8
0
  6
CONTINUOUS
 62
     7
  5
45
 10
176.433368
 20
81.246109
 30
0.0
 11
168.091458
 21
81.246109
 31
0.0
  0
LINE
  8
0
  6
CONTINUOUS
 62
     7
  5
46
 10
175.841345
 20
79.841109
 30
0.0
 11
175.112413
 21
79.385215
 31
0.0
  0
LINE
  8
0
  6
CONTINUOUS
 62
     7
  5
47
 10
175.112413
 20
79.425309
 30
0.0
 11
174.312413
 21
79.005733
 31
0.0
  0
LINE
  8
0
  6
CONTINUOUS
 62
     7
  5
48
 10
174.312413
 20
78.536109
 30
0.0
 11
169.233368
 21
78.536109
 31
0.0
  0
LINE
  8
0
  6
CONTINUOUS
 62
     7
  5
49
 10
176.312413
 20
88.963609
 30
0.0
 11
168.212413
 21
88.963609
 31
0.0
  0
LINE
  8
0
  6
CONTINUOUS
 62
     9
  5
4A
 10
176.312413
 20
89.858609
 30
0.0
 11
168.212413
 21
89.858609
 31
0.0
  0
LINE
  8
0
  6
CONTINUOUS
 62
     7
  5
4B
 10
176.109913
 20
88.761109
 30
0.0
 11
168.414913
 21
88.761109
 31
0.0
  0
LINE
  8
0
  6
CONTINUOUS
 62
     7
  5
4C
 10
176.109913
 20
90.061109
 30
0.0
 11
168.414913
 21
90.061109
 31
0.0
  0
LINE
  8
0
  6
CONTINUOUS
 62
     7
  5
4D
 10
179.712413
 20
79.40521
 30
0.0
 11
179.510341
 21
78.550444
 31
0.0
  0
LINE
  8
0
  6
CONTINUOUS
 62
     7
  5
4E
 10
179.712413
 20
79.40521
 30
0.0
 11
179.712413
 21
75.941109
 31
0.0
  0
LINE
  8
0
  6
CONTINUOUS
 62
     7
  5
4F
 10
179.510341
 20
77.650641
 30
0.0
 11
179.712413
 21
75.941109
 31
0.0
  0
LINE
  8
0
  6
CONTINUOUS
 62
     7
  5
50
 10
179.510341
 20
77.650641
 30
0.0
 11
179.510341
 21
78.550444
 31
0.0
  0
LINE
  8
0
  6
CONTINUOUS
 62
     7
  5
51
 10
179.712413
 20
75.941109
 30
0.0
 11
179.510341
 21
74.231577
 31
0.0
  0
LINE
  8
0
  6
CONTINUOUS
 62
     7
  5
52
 10
179.510341
 20
73.331773
 30
0.0
 11
179.712413
 21
72.477007
 31
0.0
  0
LINE
  8
0
  6
CONTINUOUS
 62
     7
  5
53
 10
179.510341
 20
73.331773
 30
0.0
 11
179.510341
 21
74.231577
 31
0.0
  0
LINE
  8
0
  6
CONTINUOUS
 62
     7
  5
54
 10
179.712413
 20
75.941109
 30
0.0
 11
179.712413
 21
72.477007
 31
0.0
  0
LINE
  8
0
  6
CONTINUOUS
 62
     7
  5
55
 10
176.112413
 20
79.40521
 30
0.0
 11
176.314486
 21
78.550444
 31
0.0
  0
LINE
  8
0
  6
CONTINUOUS
 62
     7
  5
56
 10
176.314486
 20
77.650641
 30
0.0
 11
176.314486
 21
78.550444
 31
0.0
  0
LINE
  8
0
  6
CONTINUOUS
 62
     7
  5
57
 10
176.314486
 20
77.650641
 30
0.0
 11
176.112413
 21
75.941109
 31
0.0
  0
LINE
  8
0
  6
CONTINUOUS
 62
     7
  5
58
 10
176.112413
 20
79.40521
 30
0.0
 11
176.112413
 21
75.941109
 31
0.0
  0
LINE
  8
0
  6
CONTINUOUS
 62
     7
  5
59
 10
176.112413
 20
75.941109
 30
0.0
 11
176.314486
 21
74.231577
 31
0.0
  0
LINE
  8
0
  6
CONTINUOUS
 62
     7
  5
5A
 10
176.314486
 20
73.331773
 30
0.0
 11
176.314486
 21
74.231577
 31
0.0
  0
LINE
  8
0
  6
CONTINUOUS
 62
     7
  5
5B
 10
176.314486
 20
73.331773
 30
0.0
 11
176.112413
 21
72.477007
 31
0.0
  0
LINE
  8
0
  6
CONTINUOUS
 62
     7
  5
5C
 10
176.112413
 20
75.941109
 30
0.0
 11
176.112413
 21
72.477007
 31
0.0
  0
LINE
  8
0
  6
CONTINUOUS
 62
     7
  5
5D
 10
179.510341
 20
74.231577
 30
0.0
 11
176.314486
 21
74.231577
 31
0.0
  0
LINE
  8
0
  6
CONTINUOUS
 62
     7
  5
5E
 10
176.314486
 20
77.650641
 30
0.0
 11
179.510341
 21
77.650641
 31
0.0
  0
LINE
  8
0
  6
CONTINUOUS
 62
     7
  5
5F
 10
179.510341
 20
78.550444
 30
0.0
 11
176.314486
 21
78.550444
 31
0.0
  0
LINE
  8
0
  6
CONTINUOUS
 62
     7
  5
60
 10
176.314486
 20
73.331773
 30
0.0
 11
179.510341
 21
73.331773
 31
0.0
  0
LINE
  8
0
  6
CONTINUOUS
 62
     7
  5
61
 10
175.112413
 20
71.991109
 30
0.0
 11
175.112413
 21
79.425309
 31
0.0
  0
LINE
  8
0
  6
CONTINUOUS
 62
     7
  5
62
 10
174.312413
 20
79.005733
 30
0.0
 11
174.312413
 21
71.991109
 31
0.0
  0
LINE
  8
0
  6
CONTINUOUS
 62
     7
  5
63
 10
179.712413
 20
72.477007
 30
0.0
 11
179.510341
 21
71.622241
 31
0.0
  0
LINE
  8
0
  6
CONTINUOUS
 62
     7
  5
64
 10
179.510341
 20
71.622241
 30
0.0
 11
176.314486
 21
71.622241
 31
0.0
  0
LINE
  8
0
  6
CONTINUOUS
 62
     7
  5
65
 10
176.112413
 20
72.477007
 30
0.0
 11
176.314486
 21
71.622241
 31
0.0
  0
LINE
  8
0
  6
CONTINUOUS
 62
     7
  5
66
 10
179.510341
 20
80.259976
 30
0.0
 11
179.712413
 21
79.40521
 31
0.0
  0
LINE
  8
0
  6
CONTINUOUS
 62
     7
  5
67
 10
176.314486
 20
80.259976
 30
0.0
 11
176.112413
 21
79.40521
 31
0.0
  0
LINE
  8
0
  6
CONTINUOUS
 62
     7
  5
68
 10
176.314486
 20
80.259976
 30
0.0
 11
179.510341
 21
80.259976
 31
0.0
  0
LINE
  8
0
  6
CONTINUOUS
 62
     9
  5
69
 10
174.312413
 20
78.241109
 30
0.0
 11
169.312413
 21
78.241109
 31
0.0
  0
LINE
  8
0
  6
CONTINUOUS
 62
     9
  5
6A
 10
170.512413
 20
75.941109
 30
0.0
 11
169.312413
 21
75.941109
 31
0.0
  0
LINE
  8
0
  6
CONTINUOUS
 62
     7
  5
6B
 10
173.49985
 20
77.178546
 30
0.0
 11
174.312413
 21
77.991109
 31
0.0
  0
POLYLINE
  8
0
  6
CONTINUOUS
 62
     7
  5
6C
 66
     1
 10
0.0
 20
0.0
 30
0.0
 40
0.5
 41
0.5
  0
VERTEX
  8
0
 62
     7
  5
6D
 10
170.512413
 20
75.941109
 30
0.0
 42
-0.148818
  0
VERTEX
  8
0
 62
     7
  5
6E
 10
170.809267
 20
76.916231
 30
0.0
  0
VERTEX
  8
0
 62
     7
  5
6F
 10
170.921495
 20
77.065502
 30
0.0
  0
VERTEX
  8
0
 62
     7
  5
70
 10
171.049111
 20
77.202148
 30
0.0
 42
-0.193915
  0
VERTEX
  8
0
 62
     7
  5
71
 10
172.262413
 20
77.691109
 30
0.0
  0
SEQEND
  8
0
  5
72
  0
ARC
  8
0
  6
CONTINUOUS
 62
     7
  5
73
 10
172.262375
 20
75.941016
 30
0.0
 40
1.750092
 50
45.001253
 51
89.998747
210
0.0
220
0.0
230
1.0
  0
LINE
  8
0
  6
CONTINUOUS
 62
     9
  5
74
 10
172.262413
 20
74.191109
 30
0.0
 11
172.262413
 21
72.991109
 31
0.0
  0
ARC
  8
0
  6
CONTINUOUS
 62
     7
  5
75
 10
172.262321
 20
75.941071
 30
0.0
 40
1.750092
 50
0.001253
 51
44.998747
210
0.0
220
0.0
230
1.0
  0
POLYLINE
  8
0
  6
CONTINUOUS
 62
     7
  5
76
 66
     1
 10
0.0
 20
0.0
 30
0.0
 40
0.5
 41
0.5
  0
VERTEX
  8
0
 62
     7
  5
77
 10
172.262413
 20
74.191109
 30
0.0
 42
0.148818
  0
VERTEX
  8
0
 62
     7
  5
78
 10
173.237536
 20
74.487962
 30
0.0
  0
VERTEX
  8
0
 62
     7
  5
79
 10
173.386807
 20
74.60019
 30
0.0
  0
VERTEX
  8
0
 62
     7
  5
7A
 10
173.523453
 20
74.727806
 30
0.0
 42
0.193915
  0
VERTEX
  8
0
 62
     7
  5
7B
 10
174.012413
 20
75.941109
 30
0.0
  0
SEQEND
  8
0
  5
7C
  0
ARC
  8
0
  6
CONTINUOUS
 62
     7
  5
7D
 10
172.262413
 20
75.941109
 30
0.0
 40
1.75
 50
180.0
 51
270.0
210
0.0
220
0.0
230
1.0
  0
LINE
  8
0
  6
CONTINUOUS
 62
     7
  5
7E
 10
176.112413
 20
79.941109
 30
0.0
 11
176.112413
 21
79.40521
 31
0.0
  0
LINE
  8
0
  6
CONTINUOUS
 62
     7
  5
7F
 10
176.314486
 20
80.259976
 30
0.0
 11
176.314486
 21
80.291109
 31
0.0
  0
LINE
  8
0
  6
CONTINUOUS
 62
     7
  5
80
 10
179.712413
 20
79.941109
 30
0.0
 11
179.712413
 21
79.40521
 31
0.0
  0
LINE
  8
0
  6
CONTINUOUS
 62
     7
  5
81
 10
179.510341
 20
80.259976
 30
0.0
 11
179.510341
 21
80.291109
 31
0.0
  0
LINE
  8
0
  6
CONTINUOUS
 62
     7
  5
82
 10
179.510341
 20
71.591109
 30
0.0
 11
179.510341
 21
71.622241
 31
0.0
  0
LINE
  8
0
  6
CONTINUOUS
 62
     7
  5
83
 10
179.712413
 20
72.477007
 30
0.0
 11
179.712413
 21
71.941109
 31
0.0
  0
LINE
  8
0
  6
CONTINUOUS
 62
     7
  5
84
 10
176.314486
 20
71.591109
 30
0.0
 11
176.314486
 21
71.622241
 31
0.0
  0
LINE
  8
0
  6
CONTINUOUS
 62
     7
  5
85
 10
176.112413
 20
72.477007
 30
0.0
 11
176.112413
 21
71.941109
 31
0.0
  0
LINE
  8
0
  6
CONTINUOUS
 62
     7
  5
86
 10
189.712413
 20
240.441109
 30
0.0
 11
189.712413
 21
181.441109
 31
0.0
  0
LINE
  8
0
  6
CONTINUOUS
 62
     7
  5
87
 10
189.712413
 20
71.441109
 30
0.0
 11
189.712413
 21
65.441109
 31
0.0
  0
LINE
  8
0
  6
CONTINUOUS
 62
     7
  5
88
 10
201.712413
 20
65.441109
 30
0.0
 11
201.712413
 21
71.441109
 31
0.0
  0
LINE
  8
0
  6
CONTINUOUS
 62
     7
  5
89
 10
201.712413
 20
181.441109
 30
0.0
 11
201.712413
 21
240.441109
 31
0.0
  0
LINE
  8
0
  6
CONTINUOUS
 62
     7
  5
8A
 10
199.962413
 20
251.441109
 30
0.0
 11
199.962413
 21
256.441109
 31
0.0
  0
LINE
  8
0
  6
CONTINUOUS
 62
     7
  5
8B
 10
191.462413
 20
256.441109
 30
0.0
 11
191.462413
 21
251.441109
 31
0.0
  0
LINE
  8
0
  6
CONTINUOUS
 62
     7
  5
8C
 10
207.762413
 20
68.641109
 30
0.0
 11
207.762413
 21
65.441109
 31
0.0
  0
LINE
  8
0
  6
CONTINUOUS
 62
     7
  5
8D
 10
218.262413
 20
65.441109
 30
0.0
 11
218.262413
 21
68.641109
 31
0.0
  0
LINE
  8
0
  6
CONTINUOUS
 62
     7
  5
8E
 10
187.212413
 20
240.441109
 30
0.0
 11
187.212413
 21
181.441109
 31
0.0
  0
LINE
  8
0
  6
CONTINUOUS
 62
     7
  5
8F
 10
215.512413
 20
68.641109
 30
0.0
 11
215.512413
 21
71.441109
 31
0.0
  0
LINE
  8
0
  6
CONTINUOUS
 62
     7
  5
90
 10
210.512413
 20
71.441109
 30
0.0
 11
210.512413
 21
68.641109
 31
0.0
  0
LINE
  8
0
  6
CONTINUOUS
 62
     7
  5
91
 10
168.012413
 20
88.041109
 30
0.0
 11
168.012413
 21
81.541109
 31
0.0
  0
LINE
  8
0
  6
CONTINUOUS
 62
     7
  5
92
 10
176.512413
 20
81.541109
 30
0.0
 11
176.512413
 21
88.041109
 31
0.0
  0
ARC
  8
0
  6
CONTINUOUS
 62
     7
  5
93
 10
175.922413
 20
81.541109
 30
0.0
 40
0.59
 50
330.0
 51
0.0
210
0.0
220
0.0
230
1.0
  0
ARC
  8
0
  6
CONTINUOUS
 62
     7
  5
94
 10
168.602413
 20
81.541109
 30
0.0
 40
0.59
 50
180.0
 51
210.0
210
0.0
220
0.0
230
1.0
  0
LINE
  8
0
  6
CONTINUOUS
 62
     7
  5
95
 10
168.091458
 20
81.246109
 30
0.0
 11
169.233368
 21
78.536109
 31
0.0
  0
LINE
  8
0
  6
CONTINUOUS
 62
     7
  5
96
 10
175.841169
 20
79.840691
 30
0.0
 11
175.841345
 21
79.841109
 31
0.0
  0
LINE
  8
0
  6
CONTINUOUS
 62
     7
  5
97
 10
175.841345
 20
79.841109
 30
0.0
 11
176.433368
 21
81.246109
 31
0.0
  0
LINE
  8
0
  6
CONTINUOUS
 62
     7
  5
98
 10
168.212413
 20
89.858609
 30
0.0
 11
168.212413
 21
88.963609
 31
0.0
  0
LINE
  8
0
  6
CONTINUOUS
 62
     7
  5
99
 10
176.312413
 20
88.963609
 30
0.0
 11
176.312413
 21
89.858609
 31
0.0
  0
LINE
  8
0
  6
CONTINUOUS
 62
     7
  5
9A
 10
168.212413
 20
88.963609
 30
0.0
 11
168.414913
 21
88.761109
 31
0.0
  0
LINE
  8
0
  6
CONTINUOUS
 62
     7
  5
9B
 10
176.109913
 20
88.761109
 30
0.0
 11
176.312413
 21
88.963609
 31
0.0
  0
ARC
  8
0
  6
CONTINUOUS
 62
     7
  5
9C
 10
176.109913
 20
89.858609
 30
0.0
 40
0.2025
 50
0.0
 51
90.0
210
0.0
220
0.0
230
1.0
  0
ARC
  8
0
  6
CONTINUOUS
 62
     7
  5
9D
 10
168.414913
 20
89.858609
 30
0.0
 40
0.2025
 50
90.0
 51
180.0
210
0.0
220
0.0
230
1.0
  0
LINE
  8
0
  6
CONTINUOUS
 62
     7
  5
9E
 10
174.312413
 20
71.991109
 30
0.0
 11
175.112413
 21
71.991109
 31
0.0
  0
LINE
  8
0
  6
CONTINUOUS
 62
     7
  5
9F
 10
176.112413
 20
79.841109
 30
0.0
 11
175.841345
 21
79.841109
 31
0.0
  0
LINE
  8
0
  6
CONTINUOUS
 62
     7
  5
A0
 10
175.841345
 20
79.841109
 30
0.0
 11
175.840891
 21
79.841109
 31
0.0
  0
LINE
  8
0
  6
CONTINUOUS
 62
     7
  5
A1
 10
175.112413
 20
72.041109
 30
0.0
 11
176.112413
 21
72.041109
 31
0.0
  0
LINE
  8
0
  6
CONTINUOUS
 62
     7
  5
A2
 10
179.712413
 20
72.041109
 30
0.0
 11
181.212413
 21
72.041109
 31
0.0
  0
LINE
  8
0
  6
CONTINUOUS
 62
     7
  5
A3
 10
181.212413
 20
79.841109
 30
0.0
 11
179.712413
 21
79.841109
 31
0.0
  0
ARC
  8
0
  6
CONTINUOUS
 62
     7
  5
A4
 10
168.722413
 20
78.241109
 30
0.0
 40
0.59
 50
360.0
 51
30.0
210
0.0
220
0.0
230
1.0
  0
LINE
  8
0
  6
CONTINUOUS
 62
     7
  5
A5
 10
169.312413
 20
78.241109
 30
0.0
 11
169.312413
 21
75.941109
 31
0.0
  0
LINE
  8
0
  6
CONTINUOUS
 62
     7
  5
A6
 10
172.262413
 20
72.991109
 30
0.0
 11
174.312413
 21
72.991109
 31
0.0
  0
LINE
  8
0
  6
CONTINUOUS
 62
     7
  5
A7
 10
169.662413
 20
88.761109
 30
0.0
 11
169.662413
 21
88.041109
 31
0.0
  0
LINE
  8
0
  6
CONTINUOUS
 62
     7
  5
A8
 10
174.862413
 20
88.041109
 30
0.0
 11
174.862413
 21
88.761109
 31
0.0
  0
ARC
  8
0
  6
CONTINUOUS
 62
     7
  5
A9
 10
172.262413
 20
75.941109
 30
0.0
 40
2.95
 50
180.0
 51
270.0
210
0.0
220
0.0
230
1.0
  0
LINE
  8
0
  6
CONTINUOUS
 62
     7
  5
AA
 10
176.314486
 20
80.291109
 30
0.0
 11
176.112413
 21
79.941109
 31
0.0
  0
LINE
  8
0
  6
CONTINUOUS
 62
     7
  5
AB
 10
179.712413
 20
79.941109
 30
0.0
 11
179.510341
 21
80.291109
 31
0.0
  0
LINE
  8
0
  6
CONTINUOUS
 62
     7
  5
AC
 10
179.510341
 20
71.591109
 30
0.0
 11
179.712413
 21
71.941109
 31
0.0
  0
LINE
  8
0
  6
CONTINUOUS
 62
     7
  5
AD
 10
176.112413
 20
71.941109
 30
0.0
 11
176.314486
 21
71.591109
 31
0.0
  0
LINE
  8
0
  6
CONTINUOUS
 62
     7
  5
AE
 10
179.510341
 20
80.291109
 30
0.0
 11
176.314486
 21
80.291109
 31
0.0
  0
LINE
  8
0
  6
CONTINUOUS
 62
     7
  5
AF
 10
176.314486
 20
71.591109
 30
0.0
 11
179.510341
 21
71.591109
 31
0.0
  0
ENDBLK
  8
0
  5
B0
  0
BLOCK
  8
0
  5
B3
  2
AID297
 70
     0
 10
0.0
 20
0.0
 30
0.0
  3
#auxiliary draft view
  0
LINE
  8
0
  6
CONTINUOUS
 62
     7
  5
B4
 10
121.258027
 20
65.441109
 30
0.0
 11
121.258027
 21
51.441109
 31
0.0
  0
LINE
  8
0
  6
CONTINUOUS
 62
     7
  5
B5
 10
66.258027
 20
65.441109
 30
0.0
 11
66.258027
 21
51.441109
 31
0.0
  0
LINE
  8
0
  6
CONTINUOUS
 62
     7
  5
B6
 10
66.258027
 20
65.441109
 30
0.0
 11
121.258027
 21
65.441109
 31
0.0
  0
LINE
  8
0
  6
CONTINUOUS
 62
     7
  5
B7
 10
66.258027
 20
51.441109
 30
0.0
 11
121.258027
 21
51.441109
 31
0.0
  0
LINE
  8
0
  6
CONTINUOUS
 62
     7
  5
B8
 10
99.008027
 20
68.641109
 30
0.0
 11
88.508027
 21
68.641109
 31
0.0
  0
LINE
  8
0
  6
CONTINUOUS
 62
     7
  5
B9
 10
66.258027
 20
251.441109
 30
0.0
 11
66.258027
 21
240.441109
 31
0.0
  0
LINE
  8
0
  6
CONTINUOUS
 62
     7
  5
BA
 10
70.258027
 20
251.441109
 30
0.0
 11
70.258027
 21
240.441109
 31
0.0
  0
LINE
  8
0
  6
CONTINUOUS
 62
     7
  5
BB
 10
66.258027
 20
251.441109
 30
0.0
 11
70.258027
 21
251.441109
 31
0.0
  0
LINE
  8
0
  6
CONTINUOUS
 62
     7
  5
BC
 10
66.258027
 20
240.441109
 30
0.0
 11
70.258027
 21
240.441109
 31
0.0
  0
LINE
  8
0
  6
CONTINUOUS
 62
     9
  5
BD
 10
82.236308
 20
240.441109
 30
0.0
 11
82.236308
 21
251.441109
 31
0.0
  0
LINE
  8
0
  6
CONTINUOUS
 62
     7
  5
BE
 10
70.258027
 20
251.441109
 30
0.0
 11
82.236308
 21
251.441109
 31
0.0
  0
LINE
  8
0
  6
CONTINUOUS
 62
     7
  5
BF
 10
70.258027
 20
240.441109
 30
0.0
 11
82.236308
 21
240.441109
 31
0.0
  0
LINE
  8
0
  6
CONTINUOUS
 62
     9
  5
C0
 10
83.591805
 20
251.441109
 30
0.0
 11
83.591805
 21
240.441109
 31
0.0
  0
LINE
  8
0
  6
CONTINUOUS
 62
     7
  5
C1
 10
82.236308
 20
251.441109
 30
0.0
 11
83.591805
 21
251.441109
 31
0.0
  0
LINE
  8
0
  6
CONTINUOUS
 62
     7
  5
C2
 10
83.591805
 20
240.441109
 30
0.0
 11
82.236308
 21
240.441109
 31
0.0
  0
LINE
  8
0
  6
CONTINUOUS
 62
     7
  5
C3
 10
117.258027
 20
251.441109
 30
0.0
 11
117.258027
 21
240.441109
 31
0.0
  0
LINE
  8
0
  6
CONTINUOUS
 62
     9
  5
C4
 10
105.279746
 20
251.441109
 30
0.0
 11
105.279746
 21
240.441109
 31
0.0
  0
LINE
  8
0
  6
CONTINUOUS
 62
     7
  5
C5
 10
105.279746
 20
251.441109
 30
0.0
 11
117.258027
 21
251.441109
 31
0.0
  0
LINE
  8
0
  6
CONTINUOUS
 62
     7
  5
C6
 10
105.279746
 20
240.441109
 30
0.0
 11
117.258027
 21
240.441109
 31
0.0
  0
LINE
  8
0
  6
CONTINUOUS
 62
     9
  5
C7
 10
103.924249
 20
240.441109
 30
0.0
 11
103.924249
 21
251.441109
 31
0.0
  0
LINE
  8
0
  6
CONTINUOUS
 62
     7
  5
C8
 10
103.924249
 20
251.441109
 30
0.0
 11
105.279746
 21
251.441109
 31
0.0
  0
LINE
  8
0
  6
CONTINUOUS
 62
     7
  5
C9
 10
105.279746
 20
240.441109
 30
0.0
 11
103.924249
 21
240.441109
 31
0.0
  0
LINE
  8
0
  6
CONTINUOUS
 62
     7
  5
CA
 10
121.258027
 20
251.441109
 30
0.0
 11
121.258027
 21
240.441109
 31
0.0
  0
LINE
  8
0
  6
CONTINUOUS
 62
     7
  5
CB
 10
117.258027
 20
251.441109
 30
0.0
 11
121.258027
 21
251.441109
 31
0.0
  0
LINE
  8
0
  6
CONTINUOUS
 62
     7
  5
CC
 10
117.258027
 20
240.441109
 30
0.0
 11
121.258027
 21
240.441109
 31
0.0
  0
LINE
  8
0
  6
CONTINUOUS
 62
     7
  5
CD
 10
103.924249
 20
251.441109
 30
0.0
 11
83.591805
 21
251.441109
 31
0.0
  0
LINE
  8
0
  6
CONTINUOUS
 62
     7
  5
CE
 10
103.924249
 20
240.441109
 30
0.0
 11
83.591805
 21
240.441109
 31
0.0
  0
LINE
  8
0
  6
CONTINUOUS
 62
     7
  5
CF
 10
88.833027
 20
238.441109
 30
0.0
 11
82.683027
 21
238.441109
 31
0.0
  0
LINE
  8
0
  6
CONTINUOUS
 62
     7
  5
D0
 10
79.008027
 20
256.441109
 30
0.0
 11
70.508027
 21
256.441109
 31
0.0
  0
LINE
  8
0
  6
CONTINUOUS
 62
     7
  5
D1
 10
117.008027
 20
256.441109
 30
0.0
 11
108.508027
 21
256.441109
 31
0.0
  0
CIRCLE
  8
0
  6
CONTINUOUS
 62
     7
  5
D2
 10
67.758027
 20
100.441109
 30
0.0
 40
2.5
210
0.0
220
0.0
230
1.0
  0
CIRCLE
  8
0
  6
CONTINUOUS
 62
     7
  5
D3
 10
67.758027
 20
152.441109
 30
0.0
 40
2.5
210
0.0
220
0.0
230
1.0
  0
CIRCLE
  8
0
  6
CONTINUOUS
 62
     7
  5
D4
 10
119.758027
 20
100.441109
 30
0.0
 40
2.5
210
0.0
220
0.0
230
1.0
  0
CIRCLE
  8
0
  6
CONTINUOUS
 62
     7
  5
D5
 10
119.758027
 20
152.441109
 30
0.0
 40
2.5
210
0.0
220
0.0
230
1.0
  0
CIRCLE
  8
0
  6
CONTINUOUS
 62
     7
  5
D6
 10
67.758027
 20
126.441109
 30
0.0
 40
2.51
210
0.0
220
0.0
230
1.0
  0
CIRCLE
  8
0
  6
CONTINUOUS
 62
     7
  5
D7
 10
119.758027
 20
126.441109
 30
0.0
 40
2.51
210
0.0
220
0.0
230
1.0
  0
LINE
  8
0
  6
CONTINUOUS
 62
     7
  5
D8
 10
124.758027
 20
71.441109
 30
0.0
 11
124.758027
 21
181.441109
 31
0.0
  0
LINE
  8
0
  6
CONTINUOUS
 62
     7
  5
D9
 10
124.758027
 20
71.441109
 30
0.0
 11
62.758027
 21
71.441109
 31
0.0
  0
LINE
  8
0
  6
CONTINUOUS
 62
     7
  5
DA
 10
62.758027
 20
71.441109
 30
0.0
 11
62.758027
 21
181.441109
 31
0.0
  0
LINE
  8
0
  6
CONTINUOUS
 62
     7
  5
DB
 10
124.758027
 20
181.441109
 30
0.0
 11
62.758027
 21
181.441109
 31
0.0
  0
CIRCLE
  8
0
  6
CONTINUOUS
 62
     7
  5
DC
 10
67.758027
 20
152.441109
 30
0.0
 40
2.067
210
0.0
220
0.0
230
1.0
  0
CIRCLE
  8
0
  6
CONTINUOUS
 62
     7
  5
DD
 10
67.758027
 20
100.441109
 30
0.0
 40
2.067
210
0.0
220
0.0
230
1.0
  0
CIRCLE
  8
0
  6
CONTINUOUS
 62
     7
  5
DE
 10
119.758027
 20
152.441109
 30
0.0
 40
2.067
210
0.0
220
0.0
230
1.0
  0
CIRCLE
  8
0
  6
CONTINUOUS
 62
     7
  5
DF
 10
119.758027
 20
100.441109
 30
0.0
 40
2.067
210
0.0
220
0.0
230
1.0
  0
LINE
  8
0
  6
CONTINUOUS
 62
     7
  5
E0
 10
88.508027
 20
68.641109
 30
0.0
 11
88.508027
 21
65.441109
 31
0.0
  0
LINE
  8
0
  6
CONTINUOUS
 62
     7
  5
E1
 10
99.008027
 20
65.441109
 30
0.0
 11
99.008027
 21
68.641109
 31
0.0
  0
LINE
  8
0
  6
CONTINUOUS
 62
     7
  5
E2
 10
96.258027
 20
68.641109
 30
0.0
 11
96.258027
 21
71.441109
 31
0.0
  0
LINE
  8
0
  6
CONTINUOUS
 62
     7
  5
E3
 10
91.258027
 20
71.441109
 30
0.0
 11
91.258027
 21
68.641109
 31
0.0
  0
LINE
  8
0
  6
CONTINUOUS
 62
     7
  5
E4
 10
68.758027
 20
240.441109
 30
0.0
 11
68.758027
 21
181.441109
 31
0.0
  0
LINE
  8
0
  6
CONTINUOUS
 62
     7
  5
E5
 10
68.758027
 20
71.441109
 30
0.0
 11
68.758027
 21
65.441109
 31
0.0
  0
LINE
  8
0
  6
CONTINUOUS
 62
     7
  5
E6
 10
80.758027
 20
65.441109
 30
0.0
 11
80.758027
 21
71.441109
 31
0.0
  0
LINE
  8
0
  6
CONTINUOUS
 62
     7
  5
E7
 10
80.758027
 20
181.441109
 30
0.0
 11
80.758027
 21
240.441109
 31
0.0
  0
LINE
  8
0
  6
CONTINUOUS
 62
     7
  5
E8
 10
106.758027
 20
240.441109
 30
0.0
 11
106.758027
 21
181.441109
 31
0.0
  0
LINE
  8
0
  6
CONTINUOUS
 62
     7
  5
E9
 10
106.758027
 20
71.441109
 30
0.0
 11
106.758027
 21
65.441109
 31
0.0
  0
LINE
  8
0
  6
CONTINUOUS
 62
     7
  5
EA
 10
118.758027
 20
65.441109
 30
0.0
 11
118.758027
 21
71.441109
 31
0.0
  0
LINE
  8
0
  6
CONTINUOUS
 62
     7
  5
EB
 10
118.758027
 20
181.441109
 30
0.0
 11
118.758027
 21
240.441109
 31
0.0
  0
LINE
  8
0
  6
CONTINUOUS
 62
     7
  5
EC
 10
87.758027
 20
71.441109
 30
0.0
 11
87.758027
 21
65.441109
 31
0.0
  0
LINE
  8
0
  6
CONTINUOUS
 62
     7
  5
ED
 10
99.758027
 20
65.441109
 30
0.0
 11
99.758027
 21
71.441109
 31
0.0
  0
LINE
  8
0
  6
CONTINUOUS
 62
     7
  5
EE
 10
88.833027
 20
238.441109
 30
0.0
 11
88.833027
 21
240.441109
 31
0.0
  0
LINE
  8
0
  6
CONTINUOUS
 62
     7
  5
EF
 10
82.683027
 20
240.441109
 30
0.0
 11
82.683027
 21
238.441109
 31
0.0
  0
LINE
  8
0
  6
CONTINUOUS
 62
     7
  5
F0
 10
79.008027
 20
251.441109
 30
0.0
 11
79.008027
 21
256.441109
 31
0.0
  0
LINE
  8
0
  6
CONTINUOUS
 62
     7
  5
F1
 10
70.508027
 20
256.441109
 30
0.0
 11
70.508027
 21
251.441109
 31
0.0
  0
LINE
  8
0
  6
CONTINUOUS
 62
     7
  5
F2
 10
117.008027
 20
251.441109
 30
0.0
 11
117.008027
 21
256.441109
 31
0.0
  0
LINE
  8
0
  6
CONTINUOUS
 62
     7
  5
F3
 10
108.508027
 20
256.441109
 30
0.0
 11
108.508027
 21
251.441109
 31
0.0
  0
LINE
  8
0
  6
CONTINUOUS
 62
     7
  5
F4
 10
97.758027
 20
181.441109
 30
0.0
 11
97.758027
 21
240.441109
 31
0.0
  0
LINE
  8
0
  6
CONTINUOUS
 62
     7
  5
F5
 10
89.758027
 20
240.441109
 30
0.0
 11
89.758027
 21
181.441109
 31
0.0
  0
ENDBLK
  8
0
  5
F6
  0
BLOCK
  8
0
  5
F9
  2
AID433
 70
     0
 10
0.0
 20
0.0
 30
0.0
  3
#auxiliary draft view
  0
LINE
  8
0
  6
CONTINUOUS
 62
     7
  5
FA
 10
334.90256
 20
65.441109
 30
0.0
 11
334.90256
 21
51.441109
 31
0.0
  0
LINE
  8
0
  6
CONTINUOUS
 62
     7
  5
FB
 10
338.90256
 20
65.441109
 30
0.0
 11
338.90256
 21
51.441109
 31
0.0
  0
LINE
  8
0
  6
CONTINUOUS
 62
     7
  5
FC
 10
334.90256
 20
51.441109
 30
0.0
 11
338.90256
 21
51.441109
 31
0.0
  0
LINE
  8
0
  6
CONTINUOUS
 62
     7
  5
FD
 10
334.90256
 20
65.441109
 30
0.0
 11
338.90256
 21
65.441109
 31
0.0
  0
LINE
  8
0
  6
CONTINUOUS
 62
     7
  5
FE
 10
283.90256
 20
65.441109
 30
0.0
 11
283.90256
 21
51.441109
 31
0.0
  0
LINE
  8
0
  6
CONTINUOUS
 62
     7
  5
FF
 10
287.90256
 20
65.441109
 30
0.0
 11
287.90256
 21
51.441109
 31
0.0
  0
LINE
  8
0
  6
CONTINUOUS
 62
     7
  5
100
 10
283.90256
 20
51.441109
 30
0.0
 11
287.90256
 21
51.441109
 31
0.0
  0
LINE
  8
0
  6
CONTINUOUS
 62
     7
  5
101
 10
283.90256
 20
65.441109
 30
0.0
 11
287.90256
 21
65.441109
 31
0.0
  0
LINE
  8
0
  6
CONTINUOUS
 62
     7
  5
102
 10
287.90256
 20
51.441109
 30
0.0
 11
334.90256
 21
51.441109
 31
0.0
  0
LINE
  8
0
  6
CONTINUOUS
 62
     7
  5
103
 10
287.90256
 20
65.441109
 30
0.0
 11
334.90256
 21
65.441109
 31
0.0
  0
LINE
  8
0
  6
CONTINUOUS
 62
     7
  5
104
 10
287.90256
 20
251.441109
 30
0.0
 11
287.90256
 21
240.441109
 31
0.0
  0
LINE
  8
0
  6
CONTINUOUS
 62
     7
  5
105
 10
287.90256
 20
251.441109
 30
0.0
 11
334.90256
 21
251.441109
 31
0.0
  0
LINE
  8
0
  6
CONTINUOUS
 62
     7
  5
106
 10
334.90256
 20
251.441109
 30
0.0
 11
334.90256
 21
240.441109
 31
0.0
  0
LINE
  8
0
  6
CONTINUOUS
 62
     7
  5
107
 10
287.90256
 20
240.441109
 30
0.0
 11
334.90256
 21
240.441109
 31
0.0
  0
LINE
  8
0
  6
CONTINUOUS
 62
     7
  5
108
 10
283.90256
 20
251.441109
 30
0.0
 11
283.90256
 21
240.441109
 31
0.0
  0
LINE
  8
0
  6
CONTINUOUS
 62
     7
  5
109
 10
283.90256
 20
251.441109
 30
0.0
 11
287.90256
 21
251.441109
 31
0.0
  0
LINE
  8
0
  6
CONTINUOUS
 62
     7
  5
10A
 10
283.90256
 20
240.441109
 30
0.0
 11
287.90256
 21
240.441109
 31
0.0
  0
LINE
  8
0
  6
CONTINUOUS
 62
     7
  5
10B
 10
338.90256
 20
251.441109
 30
0.0
 11
338.90256
 21
240.441109
 31
0.0
  0
LINE
  8
0
  6
CONTINUOUS
 62
     7
  5
10C
 10
334.90256
 20
251.441109
 30
0.0
 11
338.90256
 21
251.441109
 31
0.0
  0
LINE
  8
0
  6
CONTINUOUS
 62
     7
  5
10D
 10
334.90256
 20
240.441109
 30
0.0
 11
338.90256
 21
240.441109
 31
0.0
  0
LINE
  8
0
  6
CONTINUOUS
 62
     7
  5
10E
 10
296.65256
 20
256.441109
 30
0.0
 11
288.15256
 21
256.441109
 31
0.0
  0
LINE
  8
0
  6
CONTINUOUS
 62
     7
  5
10F
 10
334.65256
 20
256.441109
 30
0.0
 11
326.15256
 21
256.441109
 31
0.0
  0
LINE
  8
0
  6
CONTINUOUS
 62
     7
  5
110
 10
322.47756
 20
238.441109
 30
0.0
 11
321.576913
 21
238.441109
 31
0.0
  0
LINE
  8
0
  6
CONTINUOUS
 62
     7
  5
111
 10
321.576913
 20
238.441109
 30
0.0
 11
316.32756
 21
238.441109
 31
0.0
  0
LINE
  8
0
  6
CONTINUOUS
 62
     7
  5
112
 10
315.573515
 20
81.246109
 30
0.0
 11
307.231605
 21
81.246109
 31
0.0
  0
LINE
  8
0
  6
CONTINUOUS
 62
     9
  5
113
 10
315.65256
 20
81.541109
 30
0.0
 11
307.15256
 21
81.541109
 31
0.0
  0
LINE
  8
0
  6
CONTINUOUS
 62
     7
  5
114
 10
315.65256
 20
88.041109
 30
0.0
 11
307.15256
 21
88.041109
 31
0.0
  0
LINE
  8
0
  6
CONTINUOUS
 62
     7
  5
115
 10
314.431605
 20
78.536109
 30
0.0
 11
308.373515
 21
78.536109
 31
0.0
  0
LINE
  8
0
  6
CONTINUOUS
 62
     7
  5
116
 10
315.45256
 20
88.963609
 30
0.0
 11
307.35256
 21
88.963609
 31
0.0
  0
LINE
  8
0
  6
CONTINUOUS
 62
     9
  5
117
 10
315.45256
 20
89.858609
 30
0.0
 11
307.35256
 21
89.858609
 31
0.0
  0
LINE
  8
0
  6
CONTINUOUS
 62
     7
  5
118
 10
315.25006
 20
88.761109
 30
0.0
 11
307.55506
 21
88.761109
 31
0.0
  0
LINE
  8
0
  6
CONTINUOUS
 62
     7
  5
119
 10
315.25006
 20
90.061109
 30
0.0
 11
307.55506
 21
90.061109
 31
0.0
  0
LINE
  8
0
  6
CONTINUOUS
 62
     9
  5
11A
 10
314.35256
 20
78.241109
 30
0.0
 11
308.45256
 21
78.241109
 31
0.0
  0
LINE
  8
0
  6
CONTINUOUS
 62
     9
  5
11B
 10
313.777428
 20
75.941109
 30
0.0
 11
308.45256
 21
75.941109
 31
0.0
  0
ARC
  8
0
  6
CONTINUOUS
 62
     7
  5
11C
 10
317.3024
 20
75.752146
 30
0.0
 40
3.530033
 50
146.682641
 51
176.931491
210
0.0
220
0.0
230
1.0
  0
LINE
  8
0
  6
CONTINUOUS
 62
     7
  5
11D
 10
313.777428
 20
74.191109
 30
0.0
 11
313.777428
 21
75.941109
 31
0.0
  0
ARC
  8
0
  6
CONTINUOUS
 62
     7
  5
11E
 10
311.40256
 20
75.941109
 30
0.0
 40
2.95
 50
180.0
 51
323.614132
210
0.0
220
0.0
230
1.0
  0
ARC
  8
0
  6
CONTINUOUS
 62
     7
  5
11F
 10
311.4023
 20
75.941052
 30
0.0
 40
2.95026
 50
0.001108
 51
24.800031
210
0.0
220
0.0
230
1.0
  0
ARC
  8
0
  6
CONTINUOUS
 62
     7
  5
120
 10
311.40256
 20
75.941109
 30
0.0
 40
2.95
 50
323.614132
 51
360.0
210
0.0
220
0.0
230
1.0
  0
LINE
  8
0
  6
CONTINUOUS
 62
     7
  5
121
 10
313.95256
 20
76.041109
 30
0.0
 11
313.779559
 21
76.041109
 31
0.0
  0
LINE
  8
0
  6
CONTINUOUS
 62
     7
  5
122
 10
313.95256
 20
76.041109
 30
0.0
 11
313.95256
 21
75.841109
 31
0.0
  0
LINE
  8
0
  6
CONTINUOUS
 62
     7
  5
123
 10
313.95256
 20
75.841109
 30
0.0
 11
313.777428
 21
75.841109
 31
0.0
  0
LINE
  8
0
  6
CONTINUOUS
 62
     9
  5
124
 10
313.95256
 20
75.44111
 30
0.0
 11
313.777428
 21
75.441109
 31
0.0
  0
LINE
  8
0
  6
CONTINUOUS
 62
     7
  5
125
 10
313.95256
 20
75.241109
 30
0.0
 11
313.777428
 21
75.241109
 31
0.0
  0
LINE
  8
0
  6
CONTINUOUS
 62
     7
  5
126
 10
313.95256
 20
75.44111
 30
0.0
 11
313.95256
 21
75.241109
 31
0.0
  0
LINE
  8
0
  6
CONTINUOUS
 62
     7
  5
127
 10
313.95256
 20
75.44111
 30
0.0
 11
313.95256
 21
75.841109
 31
0.0
  0
LINE
  8
0
  6
CONTINUOUS
 62
     9
  5
128
 10
313.95256
 20
76.241107
 30
0.0
 11
313.796506
 21
76.241109
 31
0.0
  0
LINE
  8
0
  6
CONTINUOUS
 62
     7
  5
129
 10
313.95256
 20
76.241107
 30
0.0
 11
313.95256
 21
76.041107
 31
0.0
  0
LINE
  8
0
  6
CONTINUOUS
 62
     7
  5
12A
 10
313.95256
 20
76.641107
 30
0.0
 11
313.878478
 21
76.641107
 31
0.0
  0
LINE
  8
0
  6
CONTINUOUS
 62
     9
  5
12B
 10
313.95256
 20
76.441108
 30
0.0
 11
313.829598
 21
76.441109
 31
0.0
  0
LINE
  8
0
  6
CONTINUOUS
 62
     7
  5
12C
 10
313.95256
 20
76.641107
 30
0.0
 11
313.95256
 21
76.441108
 31
0.0
  0
LINE
  8
0
  6
CONTINUOUS
 62
     7
  5
12D
 10
313.95256
 20
76.441108
 30
0.0
 11
313.95256
 21
76.241107
 31
0.0
  0
ARC
  8
0
  6
CONTINUOUS
 62
     7
  5
12E
 10
311.40256
 20
75.941109
 30
0.0
 40
3.95
 50
139.633225
 51
40.366775
210
0.0
220
0.0
230
1.0
  0
ARC
  8
0
  6
CONTINUOUS
 62
     7
  5
12F
 10
311.40256
 20
75.941109
 30
0.0
 40
4.35
 50
143.141041
 51
156.858959
210
0.0
220
0.0
230
1.0
  0
LINE
  8
0
  6
CONTINUOUS
 62
     7
  5
130
 10
307.922062
 20
78.550444
 30
0.0
 11
308.280297
 21
78.757271
 31
0.0
  0
ARC
  8
0
  6
CONTINUOUS
 62
     7
  5
131
 10
311.40256
 20
75.941109
 30
0.0
 40
4.0
 50
139.331722
 51
180.0
210
0.0
220
0.0
230
1.0
  0
LINE
  8
0
  6
CONTINUOUS
 62
     7
  5
132
 10
307.40256
 20
75.941109
 30
0.0
 11
307.40256
 21
77.650641
 31
0.0
  0
ARC
  8
0
  6
CONTINUOUS
 62
     7
  5
133
 10
311.40256
 20
75.941109
 30
0.0
 40
4.35
 50
203.141041
 51
216.858959
210
0.0
220
0.0
230
1.0
  0
LINE
  8
0
  6
CONTINUOUS
 62
     7
  5
134
 10
307.40256
 20
74.231577
 30
0.0
 11
307.40256
 21
75.941109
 31
0.0
  0
ARC
  8
0
  6
CONTINUOUS
 62
     7
  5
135
 10
311.40256
 20
75.941109
 30
0.0
 40
4.0
 50
180.0
 51
240.0
210
0.0
220
0.0
230
1.0
  0
LINE
  8
0
  6
CONTINUOUS
 62
     7
  5
136
 10
309.40256
 20
72.477007
 30
0.0
 11
307.922062
 21
73.331773
 31
0.0
  0
ARC
  8
0
  6
CONTINUOUS
 62
     7
  5
137
 10
311.40256
 20
75.941109
 30
0.0
 40
4.0
 50
240.0
 51
300.0
210
0.0
220
0.0
230
1.0
  0
ARC
  8
0
  6
CONTINUOUS
 62
     7
  5
138
 10
311.40256
 20
75.941109
 30
0.0
 40
4.0
 50
0.0
 51
40.668278
210
0.0
220
0.0
230
1.0
  0
ARC
  8
0
  6
CONTINUOUS
 62
     7
  5
139
 10
311.40256
 20
75.941109
 30
0.0
 40
4.0
 50
300.0
 51
360.0
210
0.0
220
0.0
230
1.0
  0
LINE
  8
0
  6
CONTINUOUS
 62
     7
  5
13A
 10
314.524847
 20
78.757257
 30
0.0
 11
314.883058
 21
78.550444
 31
0.0
  0
ARC
  8
0
  6
CONTINUOUS
 62
     7
  5
13B
 10
311.40256
 20
75.941109
 30
0.0
 40
4.35
 50
23.141041
 51
36.858959
210
0.0
220
0.0
230
1.0
  0
LINE
  8
0
  6
CONTINUOUS
 62
     7
  5
13C
 10
315.40256
 20
77.650641
 30
0.0
 11
315.40256
 21
75.941109
 31
0.0
  0
LINE
  8
0
  6
CONTINUOUS
 62
     7
  5
13D
 10
315.40256
 20
75.941109
 30
0.0
 11
315.40256
 21
74.231577
 31
0.0
  0
ARC
  8
0
  6
CONTINUOUS
 62
     7
  5
13E
 10
311.40256
 20
75.941109
 30
0.0
 40
4.35
 50
323.141041
 51
336.858959
210
0.0
220
0.0
230
0.9999999999999999
  0
LINE
  8
0
  6
CONTINUOUS
 62
     7
  5
13F
 10
314.883058
 20
73.331773
 30
0.0
 11
313.40256
 21
72.477007
 31
0.0
  0
LINE
  8
0
  6
CONTINUOUS
 62
     7
  5
140
 10
313.40256
 20
72.477007
 30
0.0
 11
311.922062
 21
71.622241
 31
0.0
  0
ARC
  8
0
  6
CONTINUOUS
 62
     7
  5
141
 10
311.40256
 20
75.941109
 30
0.0
 40
4.35
 50
263.141041
 51
276.858959
210
0.0
220
0.0
230
1.0
  0
LINE
  8
0
  6
CONTINUOUS
 62
     7
  5
142
 10
310.883058
 20
71.622241
 30
0.0
 11
309.40256
 21
72.477007
 31
0.0
  0
LINE
  8
0
  6
CONTINUOUS
 62
     7
  5
143
 10
332.90256
 20
71.441109
 30
0.0
 11
332.90256
 21
181.441109
 31
0.0
  0
LINE
  8
0
  6
CONTINUOUS
 62
     7
  5
144
 10
332.90256
 20
71.441109
 30
0.0
 11
289.90256
 21
71.441109
 31
0.0
  0
LINE
  8
0
  6
CONTINUOUS
 62
     7
  5
145
 10
289.90256
 20
71.441109
 30
0.0
 11
289.90256
 21
181.441109
 31
0.0
  0
LINE
  8
0
  6
CONTINUOUS
 62
     7
  5
146
 10
332.90256
 20
181.441109
 30
0.0
 11
289.90256
 21
181.441109
 31
0.0
  0
LINE
  8
0
  6
CONTINUOUS
 62
     7
  5
147
 10
342.40256
 20
71.441109
 30
0.0
 11
342.40256
 21
181.441109
 31
0.0
  0
LINE
  8
0
  6
CONTINUOUS
 62
     7
  5
148
 10
342.40256
 20
71.441109
 30
0.0
 11
332.90256
 21
71.441109
 31
0.0
  0
LINE
  8
0
  6
CONTINUOUS
 62
     7
  5
149
 10
342.40256
 20
181.441109
 30
0.0
 11
332.90256
 21
181.441109
 31
0.0
  0
LINE
  8
0
  6
CONTINUOUS
 62
     7
  5
14A
 10
280.40256
 20
71.441109
 30
0.0
 11
280.40256
 21
181.441109
 31
0.0
  0
LINE
  8
0
  6
CONTINUOUS
 62
     7
  5
14B
 10
289.90256
 20
181.441109
 30
0.0
 11
280.40256
 21
181.441109
 31
0.0
  0
LINE
  8
0
  6
CONTINUOUS
 62
     7
  5
14C
 10
289.90256
 20
71.441109
 30
0.0
 11
280.40256
 21
71.441109
 31
0.0
  0
LINE
  8
0
  6
CONTINUOUS
 62
     7
  5
14D
 10
315.40256
 20
181.441109
 30
0.0
 11
315.40256
 21
240.441109
 31
0.0
  0
LINE
  8
0
  6
CONTINUOUS
 62
     7
  5
14E
 10
307.40256
 20
240.441109
 30
0.0
 11
307.40256
 21
181.441109
 31
0.0
  0
LINE
  8
0
  6
CONTINUOUS
 62
     7
  5
14F
 10
305.40256
 20
71.441109
 30
0.0
 11
305.40256
 21
65.441109
 31
0.0
  0
LINE
  8
0
  6
CONTINUOUS
 62
     7
  5
150
 10
317.40256
 20
65.441109
 30
0.0
 11
317.40256
 21
71.441109
 31
0.0
  0
LINE
  8
0
  6
CONTINUOUS
 62
     7
  5
151
 10
286.40256
 20
240.441109
 30
0.0
 11
286.40256
 21
181.441109
 31
0.0
  0
LINE
  8
0
  6
CONTINUOUS
 62
     7
  5
152
 10
286.40256
 20
71.441109
 30
0.0
 11
286.40256
 21
65.441109
 31
0.0
  0
LINE
  8
0
  6
CONTINUOUS
 62
     7
  5
153
 10
298.40256
 20
65.441109
 30
0.0
 11
298.40256
 21
71.441109
 31
0.0
  0
LINE
  8
0
  6
CONTINUOUS
 62
     7
  5
154
 10
298.40256
 20
181.441109
 30
0.0
 11
298.40256
 21
240.441109
 31
0.0
  0
LINE
  8
0
  6
CONTINUOUS
 62
     7
  5
155
 10
324.40256
 20
240.441109
 30
0.0
 11
324.40256
 21
181.441109
 31
0.0
  0
LINE
  8
0
  6
CONTINUOUS
 62
     7
  5
156
 10
324.40256
 20
71.441109
 30
0.0
 11
324.40256
 21
65.441109
 31
0.0
  0
LINE
  8
0
  6
CONTINUOUS
 62
     7
  5
157
 10
336.40256
 20
65.441109
 30
0.0
 11
336.40256
 21
71.441109
 31
0.0
  0
LINE
  8
0
  6
CONTINUOUS
 62
     7
  5
158
 10
336.40256
 20
181.441109
 30
0.0
 11
336.40256
 21
240.441109
 31
0.0
  0
LINE
  8
0
  6
CONTINUOUS
 62
     7
  5
159
 10
296.65256
 20
251.441109
 30
0.0
 11
296.65256
 21
256.441109
 31
0.0
  0
LINE
  8
0
  6
CONTINUOUS
 62
     7
  5
15A
 10
288.15256
 20
256.441109
 30
0.0
 11
288.15256
 21
251.441109
 31
0.0
  0
LINE
  8
0
  6
CONTINUOUS
 62
     7
  5
15B
 10
334.65256
 20
251.441109
 30
0.0
 11
334.65256
 21
256.441109
 31
0.0
  0
LINE
  8
0
  6
CONTINUOUS
 62
     7
  5
15C
 10
326.15256
 20
256.441109
 30
0.0
 11
326.15256
 21
251.441109
 31
0.0
  0
LINE
  8
0
  6
CONTINUOUS
 62
     7
  5
15D
 10
322.47756
 20
238.441109
 30
0.0
 11
322.47756
 21
240.441109
 31
0.0
  0
LINE
  8
0
  6
CONTINUOUS
 62
     7
  5
15E
 10
316.32756
 20
240.441109
 30
0.0
 11
316.32756
 21
238.441109
 31
0.0
  0
ARC
  8
0
  6
CONTINUOUS
 62
     7
  5
15F
 10
315.06256
 20
81.541109
 30
0.0
 40
0.59
 50
330.0
 51
0.0
210
0.0
220
0.0
230
1.0
  0
ARC
  8
0
  6
CONTINUOUS
 62
     7
  5
160
 10
307.74256
 20
81.541109
 30
0.0
 40
0.59
 50
180.0
 51
210.0
210
0.0
220
0.0
230
1.0
  0
LINE
  8
0
  6
CONTINUOUS
 62
     7
  5
161
 10
307.15256
 20
88.041109
 30
0.0
 11
307.15256
 21
81.541109
 31
0.0
  0
LINE
  8
0
  6
CONTINUOUS
 62
     7
  5
162
 10
315.65256
 20
81.541109
 30
0.0
 11
315.65256
 21
88.041109
 31
0.0
  0
LINE
  8
0
  6
CONTINUOUS
 62
     7
  5
163
 10
307.231605
 20
81.246109
 30
0.0
 11
308.373515
 21
78.536109
 31
0.0
  0
LINE
  8
0
  6
CONTINUOUS
 62
     7
  5
164
 10
314.431605
 20
78.536109
 30
0.0
 11
315.573515
 21
81.246109
 31
0.0
  0
LINE
  8
0
  6
CONTINUOUS
 62
     7
  5
165
 10
307.35256
 20
89.858609
 30
0.0
 11
307.35256
 21
88.963609
 31
0.0
  0
LINE
  8
0
  6
CONTINUOUS
 62
     7
  5
166
 10
315.45256
 20
88.963609
 30
0.0
 11
315.45256
 21
89.858609
 31
0.0
  0
LINE
  8
0
  6
CONTINUOUS
 62
     7
  5
167
 10
307.35256
 20
88.963609
 30
0.0
 11
307.55506
 21
88.761109
 31
0.0
  0
LINE
  8
0
  6
CONTINUOUS
 62
     7
  5
168
 10
315.25006
 20
88.761109
 30
0.0
 11
315.45256
 21
88.963609
 31
0.0
  0
ARC
  8
0
  6
CONTINUOUS
 62
     7
  5
169
 10
315.25006
 20
89.858609
 30
0.0
 40
0.2025
 50
0.0
 51
90.0
210
0.0
220
0.0
230
1.0
  0
ARC
  8
0
  6
CONTINUOUS
 62
     7
  5
16A
 10
307.55506
 20
89.858609
 30
0.0
 40
0.2025
 50
90.0
 51
180.0
210
0.0
220
0.0
230
1.0
  0
ARC
  8
0
  6
CONTINUOUS
 62
     7
  5
16B
 10
314.94256
 20
78.241109
 30
0.0
 40
0.59
 50
150.0
 51
180.0
210
0.0
220
0.0
230
1.0
  0
ARC
  8
0
  6
CONTINUOUS
 62
     7
  5
16C
 10
307.86256
 20
78.241109
 30
0.0
 40
0.59
 50
0.0
 51
30.0
210
0.0
220
0.0
230
1.0
  0
LINE
  8
0
  6
CONTINUOUS
 62
     7
  5
16D
 10
308.45256
 20
78.241109
 30
0.0
 11
308.45256
 21
75.941109
 31
0.0
  0
LINE
  8
0
  6
CONTINUOUS
 62
     7
  5
16E
 10
314.35256
 20
77.691109
 30
0.0
 11
314.35256
 21
78.241109
 31
0.0
  0
LINE
  8
0
  6
CONTINUOUS
 62
     7
  5
16F
 10
308.80256
 20
88.761109
 30
0.0
 11
308.80256
 21
88.041109
 31
0.0
  0
LINE
  8
0
  6
CONTINUOUS
 62
     7
  5
170
 10
314.00256
 20
88.041109
 30
0.0
 11
314.00256
 21
88.761109
 31
0.0
  0
ENDBLK
  8
0
  5
171
  0
BLOCK
  8
0
  5
174
  2
AID675
 70
     0
 10
0.0
 20
0.0
 30
0.0
  3
#auxiliary draft view
  0
CIRCLE
  8
0
  6
CONTINUOUS
 62
     7
  5
175
 10
183.712413
 20
341.906842
 30
0.0
 40
2.01
210
0.0
220
0.0
230
1.0
  0
CIRCLE
  8
0
  6
CONTINUOUS
 62
     7
  5
176
 10
225.712413
 20
321.906842
 30
0.0
 40
2.1
210
0.0
220
0.0
230
1.0
  0
LINE
  8
0
  6
CONTINUOUS
 62
     7
  5
177
 10
179.712413
 20
318.406842
 30
0.0
 11
179.712413
 21
365.406842
 31
0.0
  0
LINE
  8
0
  6
CONTINUOUS
 62
     7
  5
178
 10
179.712413
 20
365.406842
 30
0.0
 11
183.712413
 21
369.406842
 31
0.0
  0
LINE
  8
0
  6
CONTINUOUS
 62
     7
  5
179
 10
183.712413
 20
369.406842
 30
0.0
 11
229.712413
 21
369.406842
 31
0.0
  0
LINE
  8
0
  6
CONTINUOUS
 62
     7
  5
17A
 10
229.712413
 20
369.406842
 30
0.0
 11
229.712413
 21
314.406842
 31
0.0
  0
LINE
  8
0
  6
CONTINUOUS
 62
     7
  5
17B
 10
229.712413
 20
314.406842
 30
0.0
 11
183.712413
 21
314.406842
 31
0.0
  0
LINE
  8
0
  6
CONTINUOUS
 62
     7
  5
17C
 10
183.712413
 20
314.406842
 30
0.0
 11
179.712413
 21
318.406842
 31
0.0
  0
CIRCLE
  8
0
  6
CONTINUOUS
 62
     7
  5
17D
 10
225.712413
 20
341.906842
 30
0.0
 40
2.01
210
0.0
220
0.0
230
1.0
  0
CIRCLE
  8
0
  6
CONTINUOUS
 62
     7
  5
17E
 10
183.712413
 20
361.906842
 30
0.0
 40
2.1
210
0.0
220
0.0
230
1.0
  0
CIRCLE
  8
0
  6
CONTINUOUS
 62
     7
  5
17F
 10
183.712413
 20
321.906842
 30
0.0
 40
2.1
210
0.0
220
0.0
230
1.0
  0
CIRCLE
  8
0
  6
CONTINUOUS
 62
     7
  5
180
 10
225.712413
 20
361.906842
 30
0.0
 40
2.1
210
0.0
220
0.0
230
1.0
  0
LINE
  8
0
  6
CONTINUOUS
 62
     7
  5
181
 10
231.212413
 20
310.906842
 30
0.0
 11
231.212413
 21
372.906842
 31
0.0
  0
LINE
  8
0
  6
CONTINUOUS
 62
     7
  5
182
 10
190.712413
 20
310.906842
 30
0.0
 11
231.212413
 21
310.906842
 31
0.0
  0
LINE
  8
0
  6
CONTINUOUS
 62
     7
  5
183
 10
187.212413
 20
314.406842
 30
0.0
 11
190.712413
 21
310.906842
 31
0.0
  0
LINE
  8
0
  6
CONTINUOUS
 62
     7
  5
184
 10
190.712413
 20
372.906842
 30
0.0
 11
187.212413
 21
369.406842
 31
0.0
  0
LINE
  8
0
  6
CONTINUOUS
 62
     7
  5
185
 10
231.212413
 20
372.906842
 30
0.0
 11
190.712413
 21
372.906842
 31
0.0
  0
LINE
  8
0
  6
CONTINUOUS
 62
     7
  5
186
 10
179.712413
 20
343.906842
 30
0.0
 11
179.510341
 21
342.426343
 31
0.0
  0
LINE
  8
0
  6
CONTINUOUS
 62
     7
  5
187
 10
179.510341
 20
341.38734
 30
0.0
 11
179.712413
 21
339.906842
 31
0.0
  0
LINE
  8
0
  6
CONTINUOUS
 62
     7
  5
188
 10
179.510341
 20
341.38734
 30
0.0
 11
179.510341
 21
342.426343
 31
0.0
  0
LINE
  8
0
  6
CONTINUOUS
 62
     7
  5
189
 10
176.112413
 20
343.906842
 30
0.0
 11
176.112413
 21
339.906842
 31
0.0
  0
LINE
  8
0
  6
CONTINUOUS
 62
     7
  5
18A
 10
176.112413
 20
343.906842
 30
0.0
 11
176.314486
 21
342.426343
 31
0.0
  0
LINE
  8
0
  6
CONTINUOUS
 62
     7
  5
18B
 10
176.314486
 20
341.38734
 30
0.0
 11
176.314486
 21
342.426343
 31
0.0
  0
LINE
  8
0
  6
CONTINUOUS
 62
     7
  5
18C
 10
176.314486
 20
341.38734
 30
0.0
 11
176.112413
 21
339.906842
 31
0.0
  0
LINE
  8
0
  6
CONTINUOUS
 62
     7
  5
18D
 10
179.510341
 20
342.426343
 30
0.0
 11
176.314486
 21
342.426343
 31
0.0
  0
LINE
  8
0
  6
CONTINUOUS
 62
     7
  5
18E
 10
176.314486
 20
341.38734
 30
0.0
 11
179.510341
 21
341.38734
 31
0.0
  0
LINE
  8
0
  6
CONTINUOUS
 62
     7
  5
18F
 10
179.712413
 20
339.906842
 30
0.0
 11
179.510341
 21
338.426343
 31
0.0
  0
LINE
  8
0
  6
CONTINUOUS
 62
     7
  5
190
 10
179.510341
 20
338.426343
 30
0.0
 11
176.314486
 21
338.426343
 31
0.0
  0
LINE
  8
0
  6
CONTINUOUS
 62
     7
  5
191
 10
176.112413
 20
339.906842
 30
0.0
 11
176.314486
 21
338.426343
 31
0.0
  0
LINE
  8
0
  6
CONTINUOUS
 62
     7
  5
192
 10
179.510341
 20
345.38734
 30
0.0
 11
179.712413
 21
343.906842
 31
0.0
  0
LINE
  8
0
  6
CONTINUOUS
 62
     7
  5
193
 10
176.314486
 20
345.38734
 30
0.0
 11
176.112413
 21
343.906842
 31
0.0
  0
LINE
  8
0
  6
CONTINUOUS
 62
     7
  5
194
 10
176.314486
 20
345.38734
 30
0.0
 11
179.510341
 21
345.38734
 31
0.0
  0
LINE
  8
0
  6
CONTINUOUS
 62
     7
  5
195
 10
175.112413
 20
337.956842
 30
0.0
 11
175.112413
 21
345.856842
 31
0.0
  0
LINE
  8
0
  6
CONTINUOUS
 62
     7
  5
196
 10
174.312413
 20
345.856842
 30
0.0
 11
174.312413
 21
337.956842
 31
0.0
  0
LINE
  8
0
  6
CONTINUOUS
 62
     7
  5
197
 10
176.112413
 20
345.906842
 30
0.0
 11
176.314486
 21
345.906842
 31
0.0
  0
LINE
  8
0
  6
CONTINUOUS
 62
     7
  5
198
 10
176.314486
 20
345.38734
 30
0.0
 11
176.314486
 21
345.906842
 31
0.0
  0
LINE
  8
0
  6
CONTINUOUS
 62
     7
  5
199
 10
176.112413
 20
345.906842
 30
0.0
 11
176.112413
 21
343.906842
 31
0.0
  0
LINE
  8
0
  6
CONTINUOUS
 62
     7
  5
19A
 10
176.314486
 20
337.906842
 30
0.0
 11
176.314486
 21
338.426343
 31
0.0
  0
LINE
  8
0
  6
CONTINUOUS
 62
     7
  5
19B
 10
176.314486
 20
337.906842
 30
0.0
 11
176.112413
 21
337.906842
 31
0.0
  0
LINE
  8
0
  6
CONTINUOUS
 62
     7
  5
19C
 10
176.112413
 20
339.906842
 30
0.0
 11
176.112413
 21
337.906842
 31
0.0
  0
LINE
  8
0
  6
CONTINUOUS
 62
     7
  5
19D
 10
179.510341
 20
337.906842
 30
0.0
 11
179.712413
 21
337.906842
 31
0.0
  0
LINE
  8
0
  6
CONTINUOUS
 62
     7
  5
19E
 10
179.510341
 20
337.906842
 30
0.0
 11
179.510341
 21
338.426343
 31
0.0
  0
LINE
  8
0
  6
CONTINUOUS
 62
     7
  5
19F
 10
179.712413
 20
345.906842
 30
0.0
 11
179.510341
 21
345.906842
 31
0.0
  0
LINE
  8
0
  6
CONTINUOUS
 62
     7
  5
1A0
 10
179.510341
 20
345.38734
 30
0.0
 11
179.510341
 21
345.906842
 31
0.0
  0
LINE
  8
0
  6
CONTINUOUS
 62
     9
  5
1A1
 10
172.262413
 20
344.28171
 30
0.0
 11
172.262413
 21
338.956842
 31
0.0
  0
ARC
  8
0
  6
CONTINUOUS
 62
     7
  5
1A2
 10
172.073451
 20
347.806682
 30
0.0
 40
3.530033
 50
273.068509
 51
303.317359
210
0.0
220
0.0
230
1.0
  0
ARC
  8
0
  6
CONTINUOUS
 62
     7
  5
1A3
 10
172.262413
 20
341.906842
 30
0.0
 40
2.95
 50
126.385868
 51
270.0
210
0.0
220
0.0
230
1.0
  0
LINE
  8
0
  6
CONTINUOUS
 62
     7
  5
1A4
 10
172.262413
 20
344.28171
 30
0.0
 11
170.512413
 21
344.28171
 31
0.0
  0
LINE
  8
0
  6
CONTINUOUS
 62
     7
  5
1A5
 10
176.314486
 20
337.906842
 30
0.0
 11
179.510341
 21
337.906842
 31
0.0
  0
LINE
  8
0
  6
CONTINUOUS
 62
     7
  5
1A6
 10
179.510341
 20
345.906842
 30
0.0
 11
176.314486
 21
345.906842
 31
0.0
  0
ARC
  8
0
  6
CONTINUOUS
 62
     7
  5
1A7
 10
172.262413
 20
341.906842
 30
0.0
 40
2.95
 50
90.0
 51
126.385868
210
0.0
220
0.0
230
1.0
  0
ARC
  8
0
  6
CONTINUOUS
 62
     7
  5
1A8
 10
172.262405
 20
341.906801
 30
0.0
 40
2.95004
 50
65.199034
 51
89.999828
210
0.0
220
0.0
230
1.0
  0
LINE
  8
0
  6
CONTINUOUS
 62
     7
  5
1A9
 10
171.162413
 20
344.456842
 30
0.0
 11
171.162413
 21
344.28171
 31
0.0
  0
LINE
  8
0
  6
CONTINUOUS
 62
     9
  5
1AA
 10
171.362419
 20
344.456842
 30
0.0
 11
171.36242
 21
344.28171
 31
0.0
  0
LINE
  8
0
  6
CONTINUOUS
 62
     7
  5
1AB
 10
171.162413
 20
344.456842
 30
0.0
 11
171.362419
 21
344.456842
 31
0.0
  0
LINE
  8
0
  6
CONTINUOUS
 62
     9
  5
1AC
 10
172.762419
 20
344.456842
 30
0.0
 11
172.76242
 21
344.333881
 31
0.0
  0
LINE
  8
0
  6
CONTINUOUS
 62
     7
  5
1AD
 10
172.762419
 20
344.456842
 30
0.0
 11
173.191065
 21
344.456842
 31
0.0
  0
LINE
  8
0
  6
CONTINUOUS
 62
     7
  5
1AE
 10
171.938262
 20
344.456842
 30
0.0
 11
171.938262
 21
344.28171
 31
0.0
  0
LINE
  8
0
  6
CONTINUOUS
 62
     7
  5
1AF
 10
172.26242
 20
344.456842
 30
0.0
 11
172.262417
 21
344.28171
 31
0.0
  0
LINE
  8
0
  6
CONTINUOUS
 62
     7
  5
1B0
 10
172.26242
 20
344.456842
 30
0.0
 11
171.938262
 21
344.456842
 31
0.0
  0
LINE
  8
0
  6
CONTINUOUS
 62
     7
  5
1B1
 10
171.938262
 20
344.456842
 30
0.0
 11
171.66242
 21
344.456842
 31
0.0
  0
LINE
  8
0
  6
CONTINUOUS
 62
     7
  5
1B2
 10
172.538265
 20
344.456842
 30
0.0
 11
172.538265
 21
344.297839
 31
0.0
  0
LINE
  8
0
  6
CONTINUOUS
 62
     7
  5
1B3
 10
172.538265
 20
344.456842
 30
0.0
 11
172.762419
 21
344.456842
 31
0.0
  0
LINE
  8
0
  6
CONTINUOUS
 62
     7
  5
1B4
 10
171.66242
 20
344.456842
 30
0.0
 11
171.66242
 21
344.28171
 31
0.0
  0
LINE
  8
0
  6
CONTINUOUS
 62
     7
  5
1B5
 10
171.66242
 20
344.456842
 30
0.0
 11
171.362419
 21
344.456842
 31
0.0
  0
LINE
  8
0
  6
CONTINUOUS
 62
     7
  5
1B6
 10
172.26242
 20
344.456842
 30
0.0
 11
172.538265
 21
344.456842
 31
0.0
  0
LINE
  8
0
  6
CONTINUOUS
 62
     7
  5
1B7
 10
171.161948
 20
344.456842
 30
0.0
 11
171.162413
 21
344.456842
 31
0.0
  0
ARC
  8
0
  6
CONTINUOUS
 62
     7
  5
1B8
 10
172.262413
 20
341.906842
 30
0.0
 40
3.029045
 50
63.982285
 51
283.118101
210
0.0
220
0.0
230
0.9999999999999999
  0
ARC
  8
0
  6
CONTINUOUS
 62
     7
  5
1B9
 10
172.262413
 20
341.906842
 30
0.0
 40
4.170955
 50
270.0
 51
299.438835
210
0.0
220
0.0
230
1.0
  0
ARC
  8
0
  6
CONTINUOUS
 62
     7
  5
1BA
 10
172.262413
 20
341.906842
 30
0.0
 40
4.170955
 50
60.561165
 51
270.0
210
0.0
220
0.0
230
1.0
  0
ARC
  8
0
  6
CONTINUOUS
 62
     7
  5
1BB
 10
172.262413
 20
341.906842
 30
0.0
 40
4.25
 50
90.0
 51
298.839189
210
0.0
220
0.0
230
1.0
  0
ARC
  8
0
  6
CONTINUOUS
 62
     7
  5
1BC
 10
172.262413
 20
341.906842
 30
0.0
 40
4.25
 50
61.160811
 51
90.0
210
0.0
220
0.0
230
1.0
  0
LINE
  8
0
  6
CONTINUOUS
 62
     7
  5
1BD
 10
175.112413
 20
345.856842
 30
0.0
 11
174.312413
 21
345.856842
 31
0.0
  0
LINE
  8
0
  6
CONTINUOUS
 62
     7
  5
1BE
 10
174.312413
 20
337.956842
 30
0.0
 11
175.112413
 21
337.956842
 31
0.0
  0
LINE
  8
0
  6
CONTINUOUS
 62
     7
  5
1BF
 10
176.112413
 20
345.806842
 30
0.0
 11
175.112413
 21
345.806842
 31
0.0
  0
LINE
  8
0
  6
CONTINUOUS
 62
     7
  5
1C0
 10
175.112413
 20
338.006842
 30
0.0
 11
176.112413
 21
338.006842
 31
0.0
  0
LINE
  8
0
  6
CONTINUOUS
 62
     7
  5
1C1
 10
172.262413
 20
338.956842
 30
0.0
 11
174.312413
 21
338.956842
 31
0.0
  0
LINE
  8
0
  6
CONTINUOUS
 62
     7
  5
1C2
 10
174.312413
 20
344.856842
 30
0.0
 11
174.012413
 21
344.856842
 31
0.0
  0
LINE
  8
0
  6
CONTINUOUS
 62
     7
  5
1C3
 10
171.161948
 20
344.456842
 30
0.0
 11
171.161948
 21
344.28171
 31
0.0
  0
ENDBLK
  8
0
  5
1C4
  0
BLOCK
  8
0
  5
1C7
  2
AID837
 70
     0
 10
0.0
 20
0.0
 30
0.0
  3
#auxiliary draft view
  0
LINE
  8
0
  6
CONTINUOUS
 62
     7
  5
1C8
 10
196.867114
 20
-22.960384
 30
0.0
 11
194.557713
 21
-22.960384
 31
0.0
  0
LINE
  8
0
  6
CONTINUOUS
 62
     7
  5
1C9
 10
198.021815
 20
-20.960384
 30
0.0
 11
196.867114
 21
-22.960384
 31
0.0
  0
LINE
  8
0
  6
CONTINUOUS
 62
     7
  5
1CA
 10
196.867114
 20
-18.960384
 30
0.0
 11
198.021815
 21
-20.960384
 31
0.0
  0
LINE
  8
0
  6
CONTINUOUS
 62
     7
  5
1CB
 10
194.557713
 20
-18.960384
 30
0.0
 11
196.867114
 21
-18.960384
 31
0.0
  0
LINE
  8
0
  6
CONTINUOUS
 62
     7
  5
1CC
 10
193.403012
 20
-20.960384
 30
0.0
 11
194.557713
 21
-18.960384
 31
0.0
  0
CIRCLE
  8
0
  6
CONTINUOUS
 62
     7
  5
1CD
 10
195.712413
 20
-20.960384
 30
0.0
 40
4.25
210
0.0
220
0.0
230
1.0
  0
LINE
  8
0
  6
CONTINUOUS
 62
     7
  5
1CE
 10
194.557713
 20
-22.960384
 30
0.0
 11
193.403012
 21
-20.960384
 31
0.0
  0
LINE
  8
0
  6
CONTINUOUS
 62
     7
  5
1CF
 10
194.557713
 20
-56.960384
 30
0.0
 11
196.867114
 21
-56.960384
 31
0.0
  0
CIRCLE
  8
0
  6
CONTINUOUS
 62
     7
  5
1D0
 10
195.712413
 20
-58.960384
 30
0.0
 40
4.25
210
0.0
220
0.0
230
1.0
  0
LINE
  8
0
  6
CONTINUOUS
 62
     7
  5
1D1
 10
193.403012
 20
-58.960384
 30
0.0
 11
194.557713
 21
-56.960384
 31
0.0
  0
LINE
  8
0
  6
CONTINUOUS
 62
     7
  5
1D2
 10
196.867114
 20
-56.960384
 30
0.0
 11
198.021815
 21
-58.960384
 31
0.0
  0
LINE
  8
0
  6
CONTINUOUS
 62
     7
  5
1D3
 10
198.021815
 20
-58.960384
 30
0.0
 11
196.867114
 21
-60.960384
 31
0.0
  0
LINE
  8
0
  6
CONTINUOUS
 62
     7
  5
1D4
 10
196.867114
 20
-60.960384
 30
0.0
 11
194.557713
 21
-60.960384
 31
0.0
  0
LINE
  8
0
  6
CONTINUOUS
 62
     7
  5
1D5
 10
194.557713
 20
-60.960384
 30
0.0
 11
193.403012
 21
-58.960384
 31
0.0
  0
LINE
  8
0
  6
CONTINUOUS
 62
     7
  5
1D6
 10
204.212413
 20
-63.460384
 30
0.0
 11
204.212413
 21
-51.482103
 31
0.0
  0
LINE
  8
0
  6
CONTINUOUS
 62
     7
  5
1D7
 10
186.212413
 20
-63.460384
 30
0.0
 11
190.212413
 21
-67.460384
 31
0.0
  0
ARC
  8
0
  6
CONTINUOUS
 62
     7
  5
1D8
 10
214.712413
 20
-39.960384
 30
0.0
 40
15.0
 50
137.332075
 51
222.667925
210
0.0
220
0.0
230
1.0
  0
LINE
  8
0
  6
CONTINUOUS
 62
     7
  5
1D9
 10
204.212413
 20
-28.438665
 30
0.0
 11
204.212413
 21
-16.460384
 31
0.0
  0
LINE
  8
0
  6
CONTINUOUS
 62
     7
  5
1DA
 10
190.212413
 20
-12.460384
 30
0.0
 11
186.212413
 21
-16.460384
 31
0.0
  0
LINE
  8
0
  6
CONTINUOUS
 62
     7
  5
1DB
 10
186.212413
 20
-16.460384
 30
0.0
 11
186.212413
 21
-63.460384
 31
0.0
  0
ARC
  8
0
  6
CONTINUOUS
 62
     7
  5
1DC
 10
202.212413
 20
-28.438665
 30
0.0
 40
2.0
 50
317.332075
 51
0.0
210
0.0
220
0.0
230
1.0
  0
LINE
  8
0
  6
CONTINUOUS
 62
     7
  5
1DD
 10
190.212413
 20
-67.460384
 30
0.0
 11
200.212413
 21
-67.460384
 31
0.0
  0
LINE
  8
0
  6
CONTINUOUS
 62
     7
  5
1DE
 10
200.212413
 20
-67.460384
 30
0.0
 11
204.212413
 21
-63.460384
 31
0.0
  0
LINE
  8
0
  6
CONTINUOUS
 62
     7
  5
1DF
 10
204.212413
 20
-16.460384
 30
0.0
 11
200.212413
 21
-12.460384
 31
0.0
  0
ARC
  8
0
  6
CONTINUOUS
 62
     7
  5
1E0
 10
202.212413
 20
-51.482103
 30
0.0
 40
2.0
 50
0.0
 51
42.667925
210
0.0
220
0.0
230
1.0
  0
LINE
  8
0
  6
CONTINUOUS
 62
     7
  5
1E1
 10
200.212413
 20
-12.460384
 30
0.0
 11
190.212413
 21
-12.460384
 31
0.0
  0
CIRCLE
  8
0
  6
CONTINUOUS
 62
     7
  5
1E2
 10
213.012413
 20
-39.960384
 30
0.0
 40
2.067
210
0.0
220
0.0
230
1.0
  0
CIRCLE
  8
0
  6
CONTINUOUS
 62
     7
  5
1E3
 10
213.012413
 20
-39.960384
 30
0.0
 40
2.5
210
0.0
220
0.0
230
1.0
  0
CIRCLE
  8
0
  6
CONTINUOUS
 62
     7
  5
1E4
 10
213.012413
 20
-39.960384
 30
0.0
 40
5.25
210
0.0
220
0.0
230
1.0
  0
LINE
  8
0
  6
CONTINUOUS
 62
     7
  5
1E5
 10
183.712413
 20
-67.460384
 30
0.0
 11
187.212413
 21
-67.460384
 31
0.0
  0
LINE
  8
0
  6
CONTINUOUS
 62
     7
  5
1E6
 10
183.712413
 20
-12.460384
 30
0.0
 11
179.712413
 21
-16.460384
 31
0.0
  0
LINE
  8
0
  6
CONTINUOUS
 62
     7
  5
1E7
 10
187.212413
 20
-12.460384
 30
0.0
 11
183.712413
 21
-12.460384
 31
0.0
  0
LINE
  8
0
  6
CONTINUOUS
 62
     7
  5
1E8
 10
179.712413
 20
-63.460384
 30
0.0
 11
183.712413
 21
-67.460384
 31
0.0
  0
LINE
  8
0
  6
CONTINUOUS
 62
     7
  5
1E9
 10
179.712413
 20
-16.460384
 30
0.0
 11
179.712413
 21
-35.960384
 31
0.0
  0
LINE
  8
0
  6
CONTINUOUS
 62
     7
  5
1EA
 10
179.712413
 20
-43.960384
 30
0.0
 11
179.712413
 21
-63.460384
 31
0.0
  0
CIRCLE
  8
0
  6
CONTINUOUS
 62
     7
  5
1EB
 10
220.712413
 20
-65.960384
 30
0.0
 40
2.067
210
0.0
220
0.0
230
1.0
  0
CIRCLE
  8
0
  6
CONTINUOUS
 62
     7
  5
1EC
 10
220.712413
 20
-65.960384
 30
0.0
 40
2.5
210
0.0
220
0.0
230
1.0
  0
CIRCLE
  8
0
  6
CONTINUOUS
 62
     7
  5
1ED
 10
220.712413
 20
-13.960384
 30
0.0
 40
2.067
210
0.0
220
0.0
230
1.0
  0
CIRCLE
  8
0
  6
CONTINUOUS
 62
     7
  5
1EE
 10
220.712413
 20
-13.960384
 30
0.0
 40
2.5
210
0.0
220
0.0
230
1.0
  0
ARC
  8
0
  6
CONTINUOUS
 62
     7
  5
1EF
 10
223.612413
 20
-41.260384
 30
0.0
 40
5.0
 50
270.0
 51
360.0
210
0.0
220
0.0
230
1.0
  0
LINE
  8
0
  6
CONTINUOUS
 62
     7
  5
1F0
 10
228.612413
 20
-41.260384
 30
0.0
 11
228.612413
 21
-38.660384
 31
0.0
  0
ARC
  8
0
  6
CONTINUOUS
 62
     7
  5
1F1
 10
223.612413
 20
-38.660384
 30
0.0
 40
5.0
 50
0.0
 51
90.0
210
0.0
220
0.0
230
1.0
  0
LINE
  8
0
  6
CONTINUOUS
 62
     7
  5
1F2
 10
223.612413
 20
-33.660384
 30
0.0
 11
222.633224
 21
-33.660384
 31
0.0
  0
ARC
  8
0
  6
CONTINUOUS
 62
     7
  5
1F3
 10
213.012413
 20
-39.960384
 30
0.0
 40
11.5
 50
33.218001
 51
326.781999
210
0.0
220
0.0
230
1.0
  0
LINE
  8
0
  6
CONTINUOUS
 62
     7
  5
1F4
 10
222.633224
 20
-46.260384
 30
0.0
 11
223.612413
 21
-46.260384
 31
0.0
  0
ARC
  8
0
  6
CONTINUOUS
 62
     7
  5
1F5
 10
191.212413
 20
-39.960384
 30
0.0
 40
6.0
 50
146.44269
 51
213.55731
210
0.0
220
0.0
230
1.0
  0
LINE
  8
0
  6
CONTINUOUS
 62
     7
  5
1F6
 10
190.712413
 20
-70.960384
 30
0.0
 11
181.212413
 21
-61.460384
 31
0.0
  0
LINE
  8
0
  6
CONTINUOUS
 62
     7
  5
1F7
 10
181.212413
 20
-61.460384
 30
0.0
 11
181.212413
 21
-18.460384
 31
0.0
  0
LINE
  8
0
  6
CONTINUOUS
 62
     7
  5
1F8
 10
181.212413
 20
-18.460384
 30
0.0
 11
190.712413
 21
-8.960384
 31
0.0
  0
LINE
  8
0
  6
CONTINUOUS
 62
     7
  5
1F9
 10
190.712413
 20
-8.960384
 30
0.0
 11
231.212413
 21
-8.960384
 31
0.0
  0
LINE
  8
0
  6
CONTINUOUS
 62
     7
  5
1FA
 10
231.212413
 20
-8.960384
 30
0.0
 11
231.212413
 21
-70.960384
 31
0.0
  0
LINE
  8
0
  6
CONTINUOUS
 62
     7
  5
1FB
 10
231.212413
 20
-70.960384
 30
0.0
 11
190.712413
 21
-70.960384
 31
0.0
  0
CIRCLE
  8
0
  6
CONTINUOUS
 62
     7
  5
1FC
 10
213.012413
 20
-39.960384
 30
0.0
 40
9.0
210
0.0
220
0.0
230
1.0
  0
ARC
  8
0
  6
CONTINUOUS
 62
     7
  5
1FD
 10
172.262413
 20
-39.960384
 30
0.0
 40
4.05
 50
90.0
 51
360.0
210
0.0
220
0.0
230
1.0
  0
ARC
  8
0
  6
CONTINUOUS
 62
     7
  5
1FE
 10
172.262413
 20
-39.960384
 30
0.0
 40
4.05
 50
360.0
 51
90.0
210
0.0
220
0.0
230
1.0
  0
CIRCLE
  8
0
  6
CONTINUOUS
 62
     9
  5
1FF
 10
172.262413
 20
-39.960384
 30
0.0
 40
3.8475
210
0.0
220
0.0
230
1.0
  0
CIRCLE
  8
0
  6
CONTINUOUS
 62
     7
  5
200
 10
172.262413
 20
-39.960384
 30
0.0
 40
2.0
210
0.0
220
0.0
230
1.0
  0
CIRCLE
  8
0
  6
CONTINUOUS
 62
     7
  5
201
 10
172.262413
 20
-39.960384
 30
0.0
 40
4.25
210
0.0
220
0.0
230
1.0
  0
LINE
  8
0
  6
CONTINUOUS
 62
     7
  5
202
 10
176.116778
 20
-41.747316
 30
0.0
 11
176.112413
 21
-41.960384
 31
0.0
  0
LINE
  8
0
  6
CONTINUOUS
 62
     7
  5
203
 10
176.112413
 20
-37.960384
 30
0.0
 11
176.112413
 21
-38.160384
 31
0.0
  0
LINE
  8
0
  6
CONTINUOUS
 62
     7
  5
204
 10
176.112413
 20
-41.760384
 30
0.0
 11
176.112413
 21
-41.960384
 31
0.0
  0
LINE
  8
0
  6
CONTINUOUS
 62
     7
  5
205
 10
176.112413
 20
-37.960384
 30
0.0
 11
176.116781
 21
-38.173526
 31
0.0
  0
LINE
  8
0
  6
CONTINUOUS
 62
     7
  5
206
 10
179.510341
 20
-39.440882
 30
0.0
 11
176.480543
 21
-39.440882
 31
0.0
  0
LINE
  8
0
  6
CONTINUOUS
 62
     7
  5
207
 10
179.510341
 20
-40.479886
 30
0.0
 11
179.510341
 21
-39.440882
 31
0.0
  0
LINE
  8
0
  6
CONTINUOUS
 62
     7
  5
208
 10
176.480543
 20
-40.479886
 30
0.0
 11
179.510341
 21
-40.479886
 31
0.0
  0
LINE
  8
0
  6
CONTINUOUS
 62
     7
  5
209
 10
179.510341
 20
-40.479886
 30
0.0
 11
179.712413
 21
-41.960384
 31
0.0
  0
LINE
  8
0
  6
CONTINUOUS
 62
     7
  5
20A
 10
179.712413
 20
-37.960384
 30
0.0
 11
179.510341
 21
-39.440882
 31
0.0
  0
LINE
  8
0
  6
CONTINUOUS
 62
     7
  5
20B
 10
179.712413
 20
-37.960384
 30
0.0
 11
179.712413
 21
-41.960384
 31
0.0
  0
LINE
  8
0
  6
CONTINUOUS
 62
     7
  5
20C
 10
179.712413
 20
-41.960384
 30
0.0
 11
179.510341
 21
-43.440882
 31
0.0
  0
LINE
  8
0
  6
CONTINUOUS
 62
     7
  5
20D
 10
179.510341
 20
-43.440882
 30
0.0
 11
176.314486
 21
-43.440882
 31
0.0
  0
LINE
  8
0
  6
CONTINUOUS
 62
     7
  5
20E
 10
176.112413
 20
-41.960384
 30
0.0
 11
176.314486
 21
-43.440882
 31
0.0
  0
LINE
  8
0
  6
CONTINUOUS
 62
     7
  5
20F
 10
179.510341
 20
-36.479886
 30
0.0
 11
179.712413
 21
-37.960384
 31
0.0
  0
LINE
  8
0
  6
CONTINUOUS
 62
     7
  5
210
 10
176.314486
 20
-36.479886
 30
0.0
 11
176.112413
 21
-37.960384
 31
0.0
  0
LINE
  8
0
  6
CONTINUOUS
 62
     7
  5
211
 10
176.314486
 20
-36.479886
 30
0.0
 11
179.510341
 21
-36.479886
 31
0.0
  0
LINE
  8
0
  6
CONTINUOUS
 62
     7
  5
212
 10
175.112413
 20
-43.910384
 30
0.0
 11
175.112413
 21
-43.113161
 31
0.0
  0
LINE
  8
0
  6
CONTINUOUS
 62
     7
  5
213
 10
174.312413
 20
-36.010384
 30
0.0
 11
174.312413
 21
-36.237482
 31
0.0
  0
LINE
  8
0
  6
CONTINUOUS
 62
     7
  5
214
 10
174.312413
 20
-43.683286
 30
0.0
 11
174.312413
 21
-43.910384
 31
0.0
  0
LINE
  8
0
  6
CONTINUOUS
 62
     7
  5
215
 10
175.112413
 20
-36.807608
 30
0.0
 11
175.112413
 21
-36.010384
 31
0.0
  0
LINE
  8
0
  6
CONTINUOUS
 62
     7
  5
216
 10
179.510341
 20
-43.960384
 30
0.0
 11
179.712413
 21
-43.960384
 31
0.0
  0
LINE
  8
0
  6
CONTINUOUS
 62
     7
  5
217
 10
179.510341
 20
-43.960384
 30
0.0
 11
179.510341
 21
-43.440882
 31
0.0
  0
LINE
  8
0
  6
CONTINUOUS
 62
     7
  5
218
 10
179.712413
 20
-41.960384
 30
0.0
 11
179.712413
 21
-43.960384
 31
0.0
  0
LINE
  8
0
  6
CONTINUOUS
 62
     7
  5
219
 10
179.510341
 20
-36.479886
 30
0.0
 11
179.510341
 21
-35.960384
 31
0.0
  0
LINE
  8
0
  6
CONTINUOUS
 62
     7
  5
21A
 10
179.712413
 20
-35.960384
 30
0.0
 11
179.510341
 21
-35.960384
 31
0.0
  0
LINE
  8
0
  6
CONTINUOUS
 62
     7
  5
21B
 10
179.712413
 20
-35.960384
 30
0.0
 11
179.712413
 21
-37.960384
 31
0.0
  0
LINE
  8
0
  6
CONTINUOUS
 62
     7
  5
21C
 10
176.314486
 20
-43.960384
 30
0.0
 11
176.314486
 21
-43.440882
 31
0.0
  0
LINE
  8
0
  6
CONTINUOUS
 62
     7
  5
21D
 10
176.314486
 20
-43.960384
 30
0.0
 11
176.112413
 21
-43.960384
 31
0.0
  0
LINE
  8
0
  6
CONTINUOUS
 62
     7
  5
21E
 10
176.112413
 20
-41.960384
 30
0.0
 11
176.112413
 21
-43.960384
 31
0.0
  0
LINE
  8
0
  6
CONTINUOUS
 62
     7
  5
21F
 10
176.314486
 20
-36.479886
 30
0.0
 11
176.314486
 21
-35.960384
 31
0.0
  0
LINE
  8
0
  6
CONTINUOUS
 62
     7
  5
220
 10
176.112413
 20
-35.960384
 30
0.0
 11
176.314486
 21
-35.960384
 31
0.0
  0
LINE
  8
0
  6
CONTINUOUS
 62
     7
  5
221
 10
176.112413
 20
-35.960384
 30
0.0
 11
176.112413
 21
-37.960384
 31
0.0
  0
LINE
  8
0
  6
CONTINUOUS
 62
     7
  5
222
 10
179.510341
 20
-35.960384
 30
0.0
 11
176.314486
 21
-35.960384
 31
0.0
  0
LINE
  8
0
  6
CONTINUOUS
 62
     7
  5
223
 10
176.314486
 20
-43.960384
 30
0.0
 11
179.510341
 21
-43.960384
 31
0.0
  0
LINE
  8
0
  6
CONTINUOUS
 62
     7
  5
224
 10
173.462413
 20
-38.360384
 30
0.0
 11
173.462413
 21
-41.560384
 31
0.0
  0
LINE
  8
0
  6
CONTINUOUS
 62
     7
  5
225
 10
179.712413
 20
-43.860384
 30
0.0
 11
181.212413
 21
-43.860384
 31
0.0
  0
LINE
  8
0
  6
CONTINUOUS
 62
     7
  5
226
 10
181.212413
 20
-36.060384
 30
0.0
 11
179.712413
 21
-36.060384
 31
0.0
  0
LINE
  8
0
  6
CONTINUOUS
 62
     7
  5
227
 10
176.112413
 20
-36.060384
 30
0.0
 11
175.112413
 21
-36.060384
 31
0.0
  0
LINE
  8
0
  6
CONTINUOUS
 62
     7
  5
228
 10
175.112413
 20
-43.860384
 30
0.0
 11
176.112413
 21
-43.860384
 31
0.0
  0
LINE
  8
0
  6
CONTINUOUS
 62
     7
  5
229
 10
175.112413
 20
-36.010384
 30
0.0
 11
174.312413
 21
-36.010384
 31
0.0
  0
LINE
  8
0
  6
CONTINUOUS
 62
     7
  5
22A
 10
174.312413
 20
-43.910384
 30
0.0
 11
175.112413
 21
-43.910384
 31
0.0
  0
ENDBLK
  8
0
  5
22B
  0
ENDSEC
  0
SECTION
  2
ENTITIES
  0
INSERT
  8
0
  5
B1
  2
AID3
 10
0.0
 20
0.0
 30
0.0
  0
INSERT
  8
0
  5
F7
  2
AID297
 10
0.0
 20
0.0
 30
0.0
  0
INSERT
  8
0
  5
172
  2
AID433
 10
0.0
 20
0.0
 30
0.0
  0
INSERT
  8
0
  5
1C5
  2
AID675
 10
0.0
 20
0.0
 30
0.0
  0
INSERT
  8
0
  5
22C
  2
AID837
 10
0.0
 20
0.0
 30
0.0
  0
LINE
  8
0
  6
CENTER
 62
     1
  5
22E
 10
62.258027
 20
152.441109
 30
0.0
 11
73.258027
 21
152.441109
 31
0.0
  0
LINE
  8
0
  6
CENTER
 62
     1
  5
22F
 10
67.758027
 20
146.941109
 30
0.0
 11
67.758027
 21
157.941109
 31
0.0
  0
LINE
  8
0
  6
CENTER
 62
     1
  5
230
 10
67.758027
 20
120.931109
 30
0.0
 11
67.758027
 21
131.951109
 31
0.0
  0
LINE
  8
0
  6
CENTER
 62
     1
  5
231
 10
62.258027
 20
100.441109
 30
0.0
 11
73.258027
 21
100.441109
 31
0.0
  0
LINE
  8
0
  6
CENTER
 62
     1
  5
232
 10
67.758027
 20
94.941109
 30
0.0
 11
67.758027
 21
105.941109
 31
0.0
  0
LINE
  8
0
  6
CENTER
 62
     1
  5
233
 10
114.258027
 20
100.441109
 30
0.0
 11
125.258027
 21
100.441109
 31
0.0
  0
LINE
  8
0
  6
CENTER
 62
     1
  5
234
 10
119.758027
 20
94.941109
 30
0.0
 11
119.758027
 21
105.941109
 31
0.0
  0
LINE
  8
0
  6
CENTER
 62
     1
  5
235
 10
119.758027
 20
120.931109
 30
0.0
 11
119.758027
 21
131.951109
 31
0.0
  0
LINE
  8
0
  6
CENTER
 62
     1
  5
236
 10
114.258027
 20
152.441109
 30
0.0
 11
125.258027
 21
152.441109
 31
0.0
  0
LINE
  8
0
  6
CENTER
 62
     1
  5
237
 10
119.758027
 20
146.941109
 30
0.0
 11
119.758027
 21
157.941109
 31
0.0
  0
LINE
  8
0
  6
CENTER
 62
     1
  5
238
 10
178.612413
 20
361.906842
 30
0.0
 11
188.812413
 21
361.906842
 31
0.0
  0
LINE
  8
0
  6
CENTER
 62
     1
  5
239
 10
183.712413
 20
356.806842
 30
0.0
 11
183.712413
 21
367.006842
 31
0.0
  0
LINE
  8
0
  6
CENTER
 62
     1
  5
23A
 10
220.612413
 20
361.906842
 30
0.0
 11
230.812413
 21
361.906842
 31
0.0
  0
LINE
  8
0
  6
CENTER
 62
     1
  5
23B
 10
225.712413
 20
356.806842
 30
0.0
 11
225.712413
 21
367.006842
 31
0.0
  0
LINE
  8
0
  6
CENTER
 62
     1
  5
23C
 10
225.712413
 20
336.896842
 30
0.0
 11
225.712413
 21
346.916842
 31
0.0
  0
LINE
  8
0
  6
CENTER
 62
     1
  5
23D
 10
183.712413
 20
336.896842
 30
0.0
 11
183.712413
 21
346.916842
 31
0.0
  0
LINE
  8
0
  6
CENTER
 62
     1
  5
23E
 10
178.612413
 20
321.906842
 30
0.0
 11
188.812413
 21
321.906842
 31
0.0
  0
LINE
  8
0
  6
CENTER
 62
     1
  5
23F
 10
183.712413
 20
316.806842
 30
0.0
 11
183.712413
 21
327.006842
 31
0.0
  0
LINE
  8
0
  6
CENTER
 62
     1
  5
240
 10
220.612413
 20
321.906842
 30
0.0
 11
230.812413
 21
321.906842
 31
0.0
  0
LINE
  8
0
  6
CENTER
 62
     1
  5
241
 10
225.712413
 20
316.806842
 30
0.0
 11
225.712413
 21
327.006842
 31
0.0
  0
LINE
  8
0
  6
CENTER
 62
     1
  5
242
 10
163.512413
 20
-39.960384
 30
0.0
 11
237.512413
 21
-39.960384
 31
0.0
  0
LINE
  8
0
  6
CENTER
 62
     1
  5
243
 10
213.012413
 20
-54.460384
 30
0.0
 11
213.012413
 21
-25.460384
 31
0.0
  0
LINE
  8
0
  6
CENTER
 62
     1
  5
244
 10
215.212413
 20
-13.960384
 30
0.0
 11
226.212413
 21
-13.960384
 31
0.0
  0
LINE
  8
0
  6
CENTER
 62
     1
  5
245
 10
220.712413
 20
-19.460384
 30
0.0
 11
220.712413
 21
-8.460384
 31
0.0
  0
LINE
  8
0
  6
CENTER
 62
     1
  5
246
 10
215.645413
 20
-65.960384
 30
0.0
 11
225.779413
 21
-65.960384
 31
0.0
  0
LINE
  8
0
  6
CENTER
 62
     1
  5
247
 10
220.712413
 20
-71.027384
 30
0.0
 11
220.712413
 21
-60.893384
 31
0.0
  0
LINE
  8
0
  6
CENTER
 62
     1
  5
248
 10
188.462413
 20
-20.960384
 30
0.0
 11
202.962413
 21
-20.960384
 31
0.0
  0
LINE
  8
0
  6
CENTER
 62
     1
  5
249
 10
195.712413
 20
-28.210384
 30
0.0
 11
195.712413
 21
-13.710384
 31
0.0
  0
LINE
  8
0
  6
CENTER
 62
     1
  5
24A
 10
188.462413
 20
-58.960384
 30
0.0
 11
202.962413
 21
-58.960384
 31
0.0
  0
LINE
  8
0
  6
CENTER
 62
     1
  5
24B
 10
195.712413
 20
-66.210384
 30
0.0
 11
195.712413
 21
-51.710384
 31
0.0
  0
LINE
  8
0
  6
CENTER
 62
     1
  5
24C
 10
178.702413
 20
341.906842
 30
0.0
 11
235.722413
 21
341.906842
 31
0.0
  0
LINE
  8
0
  6
CENTER
 62
     1
  5
24D
 10
62.248027
 20
126.441109
 30
0.0
 11
125.268027
 21
126.441109
 31
0.0
  0
LINE
  8
0
  6
CENTER
 62
     1
  5
24E
 10
93.758027
 20
48.441109
 30
0.0
 11
93.758027
 21
259.441109
 31
0.0
  0
LINE
  8
0
  6
CENTER
 62
     1
  5
24F
 10
234.212413
 20
126.441109
 30
0.0
 11
187.712413
 21
126.441109
 31
0.0
  0
LINE
  8
0
  6
CENTER
 62
     1
  5
250
 10
311.40256
 20
48.441109
 30
0.0
 11
311.40256
 21
259.441109
 31
0.0
  0
LINE
  8
0
  6
CENTER
 62
     1
  5
251
 10
213.012413
 20
71.641109
 30
0.0
 11
213.012413
 21
62.441109
 31
0.0
  0
ENDSEC
  0
EOF
