  0
SECTION
  2
HEADER
  9
$ACADVER
  1
AC1009
  9
$DWGCODEPAGE
  3
ansi_1252
  9
$INSBASE
 10
0.0
 20
0.0
 30
0.0
  9
$EXTMIN
 10
-143.478467
 20
-57.594703
 30
0.0
  9
$EXTMAX
 10
582.496682
 20
382.707709
 30
5.0
  9
$LIMMIN
 10
-143.478467
 20
-57.594703
  9
$LIMMAX
 10
582.496682
 20
382.707709
  9
$ORTHOMODE
 70
     0
  9
$REGENMODE
 70
     1
  9
$FILLMODE
 70
     1
  9
$QTEXTMODE
 70
     0
  9
$MIRRTEXT
 70
     1
  9
$DRAGMODE
 70
     2
  9
$LTSCALE
 40
10.0
  9
$OSMODE
 70
     0
  9
$ATTMODE
 70
     1
  9
$TEXTSIZE
 40
0.2
  9
$TRACEWID
 40
0.05
  9
$TEXTSTYLE
  7
STANDARD
  9
$CLAYER
  8
0
  9
$CELTYPE
  6
CONTINUOUS
  9
$CECOLOR
 62
   256
  9
$DIMSCALE
 40
1.0
  9
$DIMASZ
 40
1.25
  9
$DIMEXO
 40
1.0
  9
$DIMDLI
 40
0.38
  9
$DIMRND
 40
0.0
  9
$DIMDLE
 40
0.0
  9
$DIMEXE
 40
0.75
  9
$DIMTP
 40
0.0
  9
$DIMTM
 40
0.0
  9
$DIMTXT
 40
2.5
  9
$DIMCEN
 40
0.09
  9
$DIMTSZ
 40
0.0
  9
$DIMTOL
 70
     0
  9
$DIMLIM
 70
     0
  9
$DIMTIH
 70
     0
  9
$DIMTOH
 70
     0
  9
$DIMSE1
 70
     0
  9
$DIMSE2
 70
     0
  9
$DIMTAD
 70
     1
  9
$DIMZIN
 70
     0
  9
$DIMBLK
  1

  9
$DIMASO
 70
     1
  9
$DIMSHO
 70
     1
  9
$DIMPOST
  1

  9
$DIMAPOST
  1

  9
$DIMALT
 70
     0
  9
$DIMALTD
 70
     2
  9
$DIMALTF
 40
25.4
  9
$DIMLFAC
 40
1.0
  9
$DIMTOFL
 70
     0
  9
$DIMTVP
 40
0.0
  9
$DIMTIX
 70
     0
  9
$DIMSOXD
 70
     0
  9
$DIMSAH
 70
     0
  9
$DIMBLK1
  1

  9
$DIMBLK2
  1

  9
$DIMSTYLE
  2
STANDARD
  9
$DIMCLRD
 70
     7
  9
$DIMCLRE
 70
     7
  9
$DIMCLRT
 70
     7
  9
$DIMTFAC
 40
0.8
  9
$DIMGAP
 40
1.25
  9
$LUNITS
 70
     2
  9
$LUPREC
 70
     4
  9
$AXISMODE
 70
     0
  9
$AXISUNIT
 10
0.0
 20
0.0
  9
$SKETCHINC
 40
0.1
  9
$FILLETRAD
 40
0.0
  9
$AUNITS
 70
     0
  9
$AUPREC
 70
     0
  9
$MENU
  1
acad
  9
$ELEVATION
 40
0.0
  9
$PELEVATION
 40
0.0
  9
$THICKNESS
 40
0.0
  9
$LIMCHECK
 70
     0
  9
$BLIPMODE
 70
     1
  9
$CHAMFERA
 40
0.0
  9
$CHAMFERB
 40
0.0
  9
$SKPOLY
 70
     0
  9
$TDCREATE
 40
2454334.665335648
  9
$TDUPDATE
 40
2454334.581527778
  9
$TDINDWG
 40
0.0000000000
  9
$TDUSRTIMER
 40
0.0000000000
  9
$USRTIMER
 70
     1
  9
$ANGBASE
 50
0.0
  9
$ANGDIR
 70
     0
  9
$PDMODE
 70
     0
  9
$PDSIZE
 40
0.0
  9
$PLINEWID
 40
0.0
  9
$COORDS
 70
     0
  9
$SPLFRAME
 70
     0
  9
$SPLINETYPE
 70
     6
  9
$SPLINESEGS
 70
     8
  9
$ATTDIA
 70
     0
  9
$ATTREQ
 70
     1
  9
$HANDLING
 70
     1
  9
$HANDSEED
  5
123
  9
$SURFTAB1
 70
     6
  9
$SURFTAB2
 70
     6
  9
$SURFTYPE
 70
     6
  9
$SURFU
 70
     6
  9
$SURFV
 70
     6
  9
$UCSNAME
  2

  9
$UCSORG
 10
0.0
 20
0.0
 30
0.0
  9
$UCSXDIR
 10
1.0
 20
0.0
 30
0.0
  9
$UCSYDIR
 10
0.0
 20
1.0
 30
0.0
  9
$PUCSNAME
  2

  9
$PUCSORG
 10
0.0
 20
0.0
 30
0.0
  9
$PUCSXDIR
 10
1.0
 20
0.0
 30
0.0
  9
$PUCSYDIR
 10
0.0
 20
1.0
 30
0.0
  9
$USERI1
 70
     0
  9
$USERI2
 70
     0
  9
$USERI3
 70
     0
  9
$USERI4
 70
     0
  9
$USERI5
 70
     0
  9
$USERR1
 40
0.0
  9
$USERR2
 40
0.0
  9
$USERR3
 40
0.0
  9
$USERR4
 40
0.0
  9
$USERR5
 40
0.0
  9
$WORLDVIEW
 70
     1
  9
$SHADEDGE
 70
     3
  9
$SHADEDIF
 70
    70
  9
$TILEMODE
 70
     1
  9
$MAXACTVP
 70
    16
  9
$PINSBASE
 10
0.0
 20
0.0
 30
0.0
  9
$PLIMCHECK
 70
     0
  9
$PEXTMIN
 10
1.000000E+20
 20
1.000000E+20
 30
1.000000E+20
  9
$PEXTMAX
 10
-1.000000E+20
 20
-1.000000E+20
 30
-1.000000E+20
  9
$PLIMMIN
 10
0.0
 20
0.0
  9
$PLIMMAX
 10
12.0
 20
9.0
  9
$UNITMODE
 70
     0
  9
$VISRETAIN
 70
     0
  9
$PLINEGEN
 70
     1
  9
$PSLTSCALE
 70
     0
  9
$TREEDEPTH
 70
  3020
  0
ENDSEC
  0
SECTION
  2
TABLES
  0
TABLE
  2
VPORT
 70
     1
  0
VPORT
  2
*ACTIVE
 70
     0
 10
0.0
 20
0.0
 11
1.0
 21
1.0
 12
6.591288
 22
4.579184
 13
0.0
 23
0.0
 14
1.0
 24
1.0
 15
0.0
 25
0.0
 16
0.0
 26
0.0
 36
1.0
 17
0.0
 27
0.0
 37
0.0
 40
9.158369
 41
0.688564
 42
50.0
 43
0.0
 44
0.0
 50
0.0
 51
0.0
 71
     0
 72
   100
 73
     1
 74
     1
 75
     0
 76
     0
 77
     0
 78
     0
  0
ENDTAB
  0
TABLE
  2
LTYPE
 70
     2
  0
LTYPE
  2
CONTINUOUS
 70
    64
  3
Solid line
 72
    65
 73
     0
 40
0.0
  0
LTYPE
  2
CENTER
 70
    64
  3
____ _ ____ _ ____ _ ____ _ ____ _ ____ _ ____
 72
    65
 73
     4
 40
2.0
 49
1.25
 49
-0.25
 49
0.25
 49
-0.25
  0
ENDTAB
  0
TABLE
  2
LAYER
 70
     1
  0
LAYER
  2
0
 70
     0
 62
     7
  6
CONTINUOUS
  0
ENDTAB
  0
TABLE
  2
STYLE
 70
     1
  0
STYLE
  2
STANDARD
 70
     0
 40
0.0
 41
1.0
 50
0.0
 71
     0
 42
0.0
  3
IsonormD
  4

  0
ENDTAB
  0
TABLE
  2
VIEW
 70
     0
  0
ENDTAB
  0
TABLE
  2
UCS
 70
     0
  0
ENDTAB
  0
TABLE
  2
APPID
 70
     2
  0
APPID
  2
ACAD
 70
     0
  0
APPID
  2
TopSolid_Draft
 70
     0
  0
ENDTAB
  0
TABLE
  2
DIMSTYLE
 70
     1
  0
DIMSTYLE
  2
STANDARD
 70
     0
  3

  4

  5

  6

  7

 40
1.0
 41
1.25
 42
1.0
 43
0.38
 44
0.75
 45
0.0
 46
0.0
 47
0.0
 48
0.0
 71
     0
 72
     0
 73
     0
 74
     0
 75
     0
 76
     0
 77
     1
 78
     0
140
2.5
141
0.09
142
0.0
143
25.4
144
1.0
145
0.0
146
0.8
147
1.25
170
     0
171
     2
172
     0
173
     0
174
     0
175
     0
176
     7
177
     7
178
     7
  0
ENDTAB
  0
ENDSEC
  0
SECTION
  2
BLOCKS
  0
BLOCK
  8
0
  5
25
  2
AID3
 70
     0
 10
0.0
 20
0.0
 30
0.0
  3
#draft view
  0
LINE
  8
0
  6
CONTINUOUS
 62
     7
  5
26
 10
-2.798187
 20
194.887575
 30
0.0
 11
15.201813
 21
194.887575
 31
0.0
  0
LINE
  8
0
  6
CONTINUOUS
 62
     7
  5
27
 10
-2.798187
 20
204.887575
 30
0.0
 11
-2.798187
 21
194.887575
 31
0.0
  0
LINE
  8
0
  6
CONTINUOUS
 62
     7
  5
28
 10
-2.798187
 20
204.887575
 30
0.0
 11
15.201813
 21
204.887575
 31
0.0
  0
LINE
  8
0
  6
CONTINUOUS
 62
     7
  5
29
 10
15.201813
 20
204.887575
 30
0.0
 11
15.201813
 21
194.887575
 31
0.0
  0
LINE
  8
0
  6
CONTINUOUS
 62
     7
  5
2A
 10
-2.798187
 20
114.887575
 30
0.0
 11
15.201813
 21
114.887575
 31
0.0
  0
LINE
  8
0
  6
CONTINUOUS
 62
     7
  5
2B
 10
-2.798187
 20
194.887575
 30
0.0
 11
-2.798187
 21
114.887575
 31
0.0
  0
LINE
  8
0
  6
CONTINUOUS
 62
     7
  5
2C
 10
15.201813
 20
194.887575
 30
0.0
 11
15.201813
 21
114.887575
 31
0.0
  0
LINE
  8
0
  6
CONTINUOUS
 62
     7
  5
2D
 10
427.201813
 20
198.887575
 30
0.0
 11
415.201813
 21
198.887575
 31
0.0
  0
LINE
  8
0
  6
CONTINUOUS
 62
     7
  5
2E
 10
415.201813
 20
118.887575
 30
0.0
 11
427.201813
 21
118.887575
 31
0.0
  0
LINE
  8
0
  6
CONTINUOUS
 62
     7
  5
2F
 10
415.201813
 20
118.887575
 30
0.0
 11
415.201813
 21
198.887575
 31
0.0
  0
LINE
  8
0
  6
CONTINUOUS
 62
     7
  5
30
 10
427.201813
 20
118.887575
 30
0.0
 11
427.201813
 21
198.887575
 31
0.0
  0
LINE
  8
0
  6
CONTINUOUS
 62
     7
  5
31
 10
415.201813
 20
202.887575
 30
0.0
 11
427.201813
 21
202.887575
 31
0.0
  0
LINE
  8
0
  6
CONTINUOUS
 62
     7
  5
32
 10
415.201813
 20
198.887575
 30
0.0
 11
415.201813
 21
202.887575
 31
0.0
  0
LINE
  8
0
  6
CONTINUOUS
 62
     7
  5
33
 10
427.201813
 20
202.887575
 30
0.0
 11
427.201813
 21
198.887575
 31
0.0
  0
LINE
  8
0
  6
CONTINUOUS
 62
     7
  5
34
 10
427.201813
 20
114.887575
 30
0.0
 11
415.201813
 21
114.887575
 31
0.0
  0
LINE
  8
0
  6
CONTINUOUS
 62
     7
  5
35
 10
415.201813
 20
114.887575
 30
0.0
 11
415.201813
 21
118.887575
 31
0.0
  0
LINE
  8
0
  6
CONTINUOUS
 62
     7
  5
36
 10
427.201813
 20
118.887575
 30
0.0
 11
427.201813
 21
114.887575
 31
0.0
  0
LINE
  8
0
  6
CONTINUOUS
 62
     7
  5
37
 10
431.701813
 20
194.887575
 30
0.0
 11
431.701813
 21
185.887575
 31
0.0
  0
LINE
  8
0
  6
CONTINUOUS
 62
     9
  5
38
 10
429.201813
 20
183.387575
 30
0.0
 11
429.201813
 21
197.387575
 31
0.0
  0
LINE
  8
0
  6
CONTINUOUS
 62
     9
  5
39
 10
429.201813
 20
120.387575
 30
0.0
 11
429.201813
 21
134.387575
 31
0.0
  0
LINE
  8
0
  6
CONTINUOUS
 62
     7
  5
3A
 10
431.701813
 20
131.887575
 30
0.0
 11
431.701813
 21
122.887575
 31
0.0
  0
LINE
  8
0
  6
CONTINUOUS
 62
     7
  5
3B
 10
20.501813
 20
168.887575
 30
0.0
 11
20.501813
 21
164.887575
 31
0.0
  0
LINE
  8
0
  6
CONTINUOUS
 62
     7
  5
3C
 10
20.501813
 20
152.887575
 30
0.0
 11
20.501813
 21
148.887575
 31
0.0
  0
LINE
  8
0
  6
CONTINUOUS
 62
     7
  5
3D
 10
212.201813
 20
195.887575
 30
0.0
 11
22.201813
 21
195.887575
 31
0.0
  0
LINE
  8
0
  6
CONTINUOUS
 62
     7
  5
3E
 10
22.201813
 20
207.887575
 30
0.0
 11
212.201813
 21
207.887575
 31
0.0
  0
LINE
  8
0
  6
CONTINUOUS
 62
     7
  5
3F
 10
22.201813
 20
195.887575
 30
0.0
 11
22.201813
 21
207.887575
 31
0.0
  0
LINE
  8
0
  6
CONTINUOUS
 62
     7
  5
40
 10
212.201813
 20
207.887575
 30
0.0
 11
212.201813
 21
195.887575
 31
0.0
  0
LINE
  8
0
  6
CONTINUOUS
 62
     7
  5
41
 10
212.201813
 20
109.887575
 30
0.0
 11
22.201813
 21
109.887575
 31
0.0
  0
LINE
  8
0
  6
CONTINUOUS
 62
     7
  5
42
 10
22.201813
 20
195.887575
 30
0.0
 11
22.201813
 21
109.887575
 31
0.0
  0
LINE
  8
0
  6
CONTINUOUS
 62
     7
  5
43
 10
212.201813
 20
195.887575
 30
0.0
 11
212.201813
 21
109.887575
 31
0.0
  0
LINE
  8
0
  6
CONTINUOUS
 62
     7
  5
44
 10
213.201813
 20
164.887575
 30
0.0
 11
213.201813
 21
152.887575
 31
0.0
  0
LINE
  8
0
  6
CONTINUOUS
 62
     7
  5
45
 10
22.201813
 20
164.887575
 30
0.0
 11
15.201813
 21
164.887575
 31
0.0
  0
LINE
  8
0
  6
CONTINUOUS
 62
     7
  5
46
 10
15.201813
 20
152.887575
 30
0.0
 11
22.201813
 21
152.887575
 31
0.0
  0
LINE
  8
0
  6
CONTINUOUS
 62
     7
  5
47
 10
415.201813
 20
200.387575
 30
0.0
 11
212.201813
 21
200.387575
 31
0.0
  0
LINE
  8
0
  6
CONTINUOUS
 62
     7
  5
48
 10
22.201813
 20
200.387575
 30
0.0
 11
15.201813
 21
200.387575
 31
0.0
  0
LINE
  8
0
  6
CONTINUOUS
 62
     7
  5
49
 10
15.201813
 20
180.387575
 30
0.0
 11
22.201813
 21
180.387575
 31
0.0
  0
LINE
  8
0
  6
CONTINUOUS
 62
     7
  5
4A
 10
212.201813
 20
180.387575
 30
0.0
 11
415.201813
 21
180.387575
 31
0.0
  0
LINE
  8
0
  6
CONTINUOUS
 62
     7
  5
4B
 10
415.201813
 20
137.387575
 30
0.0
 11
212.201813
 21
137.387575
 31
0.0
  0
LINE
  8
0
  6
CONTINUOUS
 62
     7
  5
4C
 10
22.201813
 20
137.387575
 30
0.0
 11
15.201813
 21
137.387575
 31
0.0
  0
LINE
  8
0
  6
CONTINUOUS
 62
     7
  5
4D
 10
15.201813
 20
117.387575
 30
0.0
 11
22.201813
 21
117.387575
 31
0.0
  0
LINE
  8
0
  6
CONTINUOUS
 62
     7
  5
4E
 10
212.201813
 20
117.387575
 30
0.0
 11
415.201813
 21
117.387575
 31
0.0
  0
ARC
  8
0
  6
CONTINUOUS
 62
     7
  5
4F
 10
429.201813
 20
194.887575
 30
0.0
 40
2.5
 50
0.0
 51
90.0
210
0.0
220
0.0
230
1.0
  0
ARC
  8
0
  6
CONTINUOUS
 62
     7
  5
50
 10
429.201813
 20
185.887575
 30
0.0
 40
2.5
 50
270.0
 51
360.0
210
0.0
220
0.0
230
1.0
  0
LINE
  8
0
  6
CONTINUOUS
 62
     7
  5
51
 10
429.201813
 20
197.387575
 30
0.0
 11
427.201813
 21
197.387575
 31
0.0
  0
LINE
  8
0
  6
CONTINUOUS
 62
     7
  5
52
 10
427.201813
 20
183.387575
 30
0.0
 11
429.201813
 21
183.387575
 31
0.0
  0
LINE
  8
0
  6
CONTINUOUS
 62
     7
  5
53
 10
429.201813
 20
134.387575
 30
0.0
 11
427.201813
 21
134.387575
 31
0.0
  0
LINE
  8
0
  6
CONTINUOUS
 62
     7
  5
54
 10
427.201813
 20
120.387575
 30
0.0
 11
429.201813
 21
120.387575
 31
0.0
  0
ARC
  8
0
  6
CONTINUOUS
 62
     7
  5
55
 10
429.201813
 20
131.887575
 30
0.0
 40
2.5
 50
0.0
 51
90.0
210
0.0
220
0.0
230
1.0
  0
ARC
  8
0
  6
CONTINUOUS
 62
     7
  5
56
 10
429.201813
 20
122.887575
 30
0.0
 40
2.5
 50
270.0
 51
360.0
210
0.0
220
0.0
230
1.0
  0
LINE
  8
0
  6
CONTINUOUS
 62
     7
  5
57
 10
22.201813
 20
168.887575
 30
0.0
 11
20.501813
 21
168.887575
 31
0.0
  0
LINE
  8
0
  6
CONTINUOUS
 62
     7
  5
58
 10
20.501813
 20
148.887575
 30
0.0
 11
22.201813
 21
148.887575
 31
0.0
  0
LINE
  8
0
  6
CONTINUOUS
 62
     7
  5
59
 10
20.501813
 20
167.387575
 30
0.0
 11
15.201813
 21
167.387575
 31
0.0
  0
LINE
  8
0
  6
CONTINUOUS
 62
     7
  5
5A
 10
15.201813
 20
150.387575
 30
0.0
 11
20.501813
 21
150.387575
 31
0.0
  0
LINE
  8
0
  6
CONTINUOUS
 62
     7
  5
5B
 10
213.201813
 20
164.887575
 30
0.0
 11
212.201813
 21
164.887575
 31
0.0
  0
LINE
  8
0
  6
CONTINUOUS
 62
     7
  5
5C
 10
212.201813
 20
152.887575
 30
0.0
 11
213.201813
 21
152.887575
 31
0.0
  0
ENDBLK
  8
0
  5
5D
  0
BLOCK
  8
0
  5
60
  2
AID117
 70
     0
 10
0.0
 20
0.0
 30
0.0
  3
#auxiliary draft view
  0
CIRCLE
  8
0
  6
CONTINUOUS
 62
     9
  5
61
 10
-120.478467
 20
190.387575
 30
0.0
 40
4.5
210
0.0
220
0.0
230
1.0
  0
ARC
  8
0
  6
CONTINUOUS
 62
     7
  5
62
 10
-120.478467
 20
190.387575
 30
0.0
 40
7.0
 50
270.0
 51
360.0
210
0.0
220
0.0
230
1.0
  0
ARC
  8
0
  6
CONTINUOUS
 62
     7
  5
63
 10
-120.478467
 20
190.387575
 30
0.0
 40
7.0
 50
360.0
 51
270.0
210
0.0
220
0.0
230
1.0
  0
ARC
  8
0
  6
CONTINUOUS
 62
     7
  5
64
 10
-120.478467
 20
127.387575
 30
0.0
 40
7.0
 50
270.0
 51
360.0
210
0.0
220
0.0
230
1.0
  0
ARC
  8
0
  6
CONTINUOUS
 62
     7
  5
65
 10
-120.478467
 20
127.387575
 30
0.0
 40
7.0
 50
360.0
 51
270.0
210
0.0
220
0.0
230
1.0
  0
CIRCLE
  8
0
  6
CONTINUOUS
 62
     9
  5
66
 10
-120.478467
 20
127.387575
 30
0.0
 40
4.5
210
0.0
220
0.0
230
1.0
  0
LINE
  8
0
  6
CONTINUOUS
 62
     7
  5
67
 10
-111.478467
 20
114.887575
 30
0.0
 11
-130.478467
 21
114.887575
 31
0.0
  0
LINE
  8
0
  6
CONTINUOUS
 62
     7
  5
68
 10
-134.478467
 20
118.887575
 30
0.0
 11
-130.478467
 21
114.887575
 31
0.0
  0
LINE
  8
0
  6
CONTINUOUS
 62
     7
  5
69
 10
-107.478467
 20
198.887575
 30
0.0
 11
-111.478467
 21
202.887575
 31
0.0
  0
ARC
  8
0
  6
CONTINUOUS
 62
     7
  5
6A
 10
-109.478467
 20
180.451434
 30
0.0
 40
2.0
 50
290.354406
 51
360.0
210
0.0
220
0.0
230
1.0
  0
ARC
  8
0
  6
CONTINUOUS
 62
     7
  5
6B
 10
-101.478467
 20
158.887575
 30
0.0
 40
21.0
 50
110.354406
 51
249.645594
210
0.0
220
0.0
230
1.0
  0
LINE
  8
0
  6
CONTINUOUS
 62
     7
  5
6C
 10
-134.478467
 20
118.887575
 30
0.0
 11
-134.478467
 21
198.887575
 31
0.0
  0
LINE
  8
0
  6
CONTINUOUS
 62
     7
  5
6D
 10
-130.478467
 20
202.887575
 30
0.0
 11
-134.478467
 21
198.887575
 31
0.0
  0
LINE
  8
0
  6
CONTINUOUS
 62
     7
  5
6E
 10
-130.478467
 20
202.887575
 30
0.0
 11
-111.478467
 21
202.887575
 31
0.0
  0
LINE
  8
0
  6
CONTINUOUS
 62
     7
  5
6F
 10
-111.478467
 20
114.887575
 30
0.0
 11
-107.478467
 21
118.887575
 31
0.0
  0
LINE
  8
0
  6
CONTINUOUS
 62
     7
  5
70
 10
-107.478467
 20
198.887575
 30
0.0
 11
-107.478467
 21
180.451434
 31
0.0
  0
LINE
  8
0
  6
CONTINUOUS
 62
     7
  5
71
 10
-107.478467
 20
137.323717
 30
0.0
 11
-107.478467
 21
118.887575
 31
0.0
  0
ARC
  8
0
  6
CONTINUOUS
 62
     7
  5
72
 10
-109.478467
 20
137.323717
 30
0.0
 40
2.0
 50
0.0
 51
69.645594
210
0.0
220
0.0
230
1.0
  0
CIRCLE
  8
0
  6
CONTINUOUS
 62
     7
  5
73
 10
-101.478467
 20
158.887575
 30
0.0
 40
3.3235
210
0.0
220
0.0
230
1.0
  0
CIRCLE
  8
0
  6
CONTINUOUS
 62
     7
  5
74
 10
-101.478467
 20
158.887575
 30
0.0
 40
4.0
210
0.0
220
0.0
230
1.0
  0
CIRCLE
  8
0
  6
CONTINUOUS
 62
     7
  5
75
 10
-101.478467
 20
158.887575
 30
0.0
 40
10.0
210
0.0
220
0.0
230
1.0
  0
LINE
  8
0
  6
CONTINUOUS
 62
     7
  5
76
 10
-78.478467
 20
160.587575
 30
0.0
 11
-78.478467
 21
157.187575
 31
0.0
  0
ARC
  8
0
  6
CONTINUOUS
 62
     7
  5
77
 10
-101.478467
 20
158.887575
 30
0.0
 40
18.5
 50
24.595931
 51
335.404069
210
0.0
220
0.0
230
1.0
  0
LINE
  8
0
  6
CONTINUOUS
 62
     7
  5
78
 10
-84.478467
 20
151.187575
 30
0.0
 11
-84.657052
 21
151.187575
 31
0.0
  0
ARC
  8
0
  6
CONTINUOUS
 62
     7
  5
79
 10
-84.478467
 20
157.187575
 30
0.0
 40
6.0
 50
270.0
 51
360.0
210
0.0
220
0.0
230
1.0
  0
LINE
  8
0
  6
CONTINUOUS
 62
     7
  5
7A
 10
-76.478467
 20
195.887575
 30
0.0
 11
-88.478467
 21
207.887575
 31
0.0
  0
LINE
  8
0
  6
CONTINUOUS
 62
     7
  5
7B
 10
-76.478467
 20
195.887575
 30
0.0
 11
-76.478467
 21
109.887575
 31
0.0
  0
LINE
  8
0
  6
CONTINUOUS
 62
     7
  5
7C
 10
-76.478467
 20
109.887575
 30
0.0
 11
-143.478467
 21
109.887575
 31
0.0
  0
LINE
  8
0
  6
CONTINUOUS
 62
     7
  5
7D
 10
-143.478467
 20
195.887575
 30
0.0
 11
-143.478467
 21
109.887575
 31
0.0
  0
LINE
  8
0
  6
CONTINUOUS
 62
     7
  5
7E
 10
-131.478467
 20
207.887575
 30
0.0
 11
-143.478467
 21
195.887575
 31
0.0
  0
LINE
  8
0
  6
CONTINUOUS
 62
     7
  5
7F
 10
-88.478467
 20
207.887575
 30
0.0
 11
-131.478467
 21
207.887575
 31
0.0
  0
LINE
  8
0
  6
CONTINUOUS
 62
     7
  5
80
 10
-84.657052
 20
166.587575
 30
0.0
 11
-84.478467
 21
166.587575
 31
0.0
  0
ARC
  8
0
  6
CONTINUOUS
 62
     7
  5
81
 10
-84.478467
 20
160.587575
 30
0.0
 40
6.0
 50
0.0
 51
90.0
210
0.0
220
0.0
230
1.0
  0
CIRCLE
  8
0
  6
CONTINUOUS
 62
     7
  5
82
 10
-101.478467
 20
158.887575
 30
0.0
 40
17.0
210
0.0
220
0.0
230
1.0
  0
ENDBLK
  8
0
  5
83
  0
BLOCK
  8
0
  5
86
  2
AID189
 70
     0
 10
0.0
 20
0.0
 30
0.0
  3
#auxiliary draft view
  0
LINE
  8
0
  6
CONTINUOUS
 62
     7
  5
87
 10
-2.798187
 20
318.207709
 30
0.0
 11
15.201813
 21
318.207709
 31
0.0
  0
LINE
  8
0
  6
CONTINUOUS
 62
     7
  5
88
 10
-2.798187
 20
380.207709
 30
0.0
 11
-2.798187
 21
318.207709
 31
0.0
  0
LINE
  8
0
  6
CONTINUOUS
 62
     7
  5
89
 10
15.201813
 20
380.207709
 30
0.0
 11
15.201813
 21
318.207709
 31
0.0
  0
LINE
  8
0
  6
CONTINUOUS
 62
     7
  5
8A
 10
-2.798187
 20
380.207709
 30
0.0
 11
15.201813
 21
380.207709
 31
0.0
  0
LINE
  8
0
  6
CONTINUOUS
 62
     7
  5
8B
 10
427.201813
 20
369.707709
 30
0.0
 11
415.201813
 21
369.707709
 31
0.0
  0
LINE
  8
0
  6
CONTINUOUS
 62
     7
  5
8C
 10
415.201813
 20
350.707709
 30
0.0
 11
427.201813
 21
350.707709
 31
0.0
  0
LINE
  8
0
  6
CONTINUOUS
 62
     7
  5
8D
 10
427.201813
 20
350.707709
 30
0.0
 11
427.201813
 21
369.707709
 31
0.0
  0
LINE
  8
0
  6
CONTINUOUS
 62
     7
  5
8E
 10
415.201813
 20
350.707709
 30
0.0
 11
415.201813
 21
369.707709
 31
0.0
  0
LINE
  8
0
  6
CONTINUOUS
 62
     7
  5
8F
 10
427.201813
 20
346.707709
 30
0.0
 11
415.201813
 21
346.707709
 31
0.0
  0
LINE
  8
0
  6
CONTINUOUS
 62
     7
  5
90
 10
427.201813
 20
350.707709
 30
0.0
 11
427.201813
 21
346.707709
 31
0.0
  0
LINE
  8
0
  6
CONTINUOUS
 62
     7
  5
91
 10
415.201813
 20
346.707709
 30
0.0
 11
415.201813
 21
350.707709
 31
0.0
  0
LINE
  8
0
  6
CONTINUOUS
 62
     7
  5
92
 10
415.201813
 20
373.707709
 30
0.0
 11
427.201813
 21
373.707709
 31
0.0
  0
LINE
  8
0
  6
CONTINUOUS
 62
     7
  5
93
 10
427.201813
 20
373.707709
 30
0.0
 11
427.201813
 21
369.707709
 31
0.0
  0
LINE
  8
0
  6
CONTINUOUS
 62
     7
  5
94
 10
415.201813
 20
369.707709
 30
0.0
 11
415.201813
 21
373.707709
 31
0.0
  0
LINE
  8
0
  6
CONTINUOUS
 62
     9
  5
95
 10
429.201813
 20
352.707709
 30
0.0
 11
429.201813
 21
359.707709
 31
0.0
  0
LINE
  8
0
  6
CONTINUOUS
 62
     9
  5
96
 10
429.201813
 20
359.707709
 30
0.0
 11
429.201813
 21
366.707709
 31
0.0
  0
LINE
  8
0
  6
CONTINUOUS
 62
     7
  5
97
 10
431.701813
 20
364.207709
 30
0.0
 11
431.701813
 21
359.707709
 31
0.0
  0
LINE
  8
0
  6
CONTINUOUS
 62
     7
  5
98
 10
431.701813
 20
359.707709
 30
0.0
 11
431.701813
 21
355.207709
 31
0.0
  0
LINE
  8
0
  6
CONTINUOUS
 62
     7
  5
99
 10
20.501813
 20
349.707709
 30
0.0
 11
20.501813
 21
330.707709
 31
0.0
  0
CIRCLE
  8
0
  6
CONTINUOUS
 62
     7
  5
9A
 10
167.201813
 20
323.207709
 30
0.0
 40
3.0
210
0.0
220
0.0
230
1.0
  0
CIRCLE
  8
0
  6
CONTINUOUS
 62
     7
  5
9B
 10
67.201813
 20
323.207709
 30
0.0
 40
3.0
210
0.0
220
0.0
230
1.0
  0
CIRCLE
  8
0
  6
CONTINUOUS
 62
     7
  5
9C
 10
167.201813
 20
375.207709
 30
0.0
 40
3.0
210
0.0
220
0.0
230
1.0
  0
CIRCLE
  8
0
  6
CONTINUOUS
 62
     7
  5
9D
 10
67.201813
 20
375.207709
 30
0.0
 40
3.0
210
0.0
220
0.0
230
1.0
  0
CIRCLE
  8
0
  6
CONTINUOUS
 62
     7
  5
9E
 10
167.201813
 20
349.207709
 30
0.0
 40
2.51
210
0.0
220
0.0
230
1.0
  0
CIRCLE
  8
0
  6
CONTINUOUS
 62
     7
  5
9F
 10
67.201813
 20
349.207709
 30
0.0
 40
2.51
210
0.0
220
0.0
230
1.0
  0
LINE
  8
0
  6
CONTINUOUS
 62
     7
  5
A0
 10
212.201813
 20
382.707709
 30
0.0
 11
22.201813
 21
382.707709
 31
0.0
  0
LINE
  8
0
  6
CONTINUOUS
 62
     7
  5
A1
 10
22.201813
 20
315.707709
 30
0.0
 11
212.201813
 21
315.707709
 31
0.0
  0
LINE
  8
0
  6
CONTINUOUS
 62
     7
  5
A2
 10
22.201813
 20
382.707709
 30
0.0
 11
22.201813
 21
315.707709
 31
0.0
  0
LINE
  8
0
  6
CONTINUOUS
 62
     7
  5
A3
 10
212.201813
 20
315.707709
 30
0.0
 11
212.201813
 21
382.707709
 31
0.0
  0
CIRCLE
  8
0
  6
CONTINUOUS
 62
     7
  5
A4
 10
67.201813
 20
375.207709
 30
0.0
 40
2.459
210
0.0
220
0.0
230
1.0
  0
CIRCLE
  8
0
  6
CONTINUOUS
 62
     7
  5
A5
 10
167.201813
 20
375.207709
 30
0.0
 40
2.459
210
0.0
220
0.0
230
1.0
  0
CIRCLE
  8
0
  6
CONTINUOUS
 62
     7
  5
A6
 10
67.201813
 20
323.207709
 30
0.0
 40
2.459
210
0.0
220
0.0
230
1.0
  0
CIRCLE
  8
0
  6
CONTINUOUS
 62
     7
  5
A7
 10
167.201813
 20
323.207709
 30
0.0
 40
2.459
210
0.0
220
0.0
230
1.0
  0
LINE
  8
0
  6
CONTINUOUS
 62
     7
  5
A8
 10
213.201813
 20
373.707709
 30
0.0
 11
213.201813
 21
369.707709
 31
0.0
  0
LINE
  8
0
  6
CONTINUOUS
 62
     7
  5
A9
 10
415.201813
 20
369.707709
 30
0.0
 11
212.201813
 21
369.707709
 31
0.0
  0
LINE
  8
0
  6
CONTINUOUS
 62
     7
  5
AA
 10
22.201813
 20
369.707709
 30
0.0
 11
15.201813
 21
369.707709
 31
0.0
  0
LINE
  8
0
  6
CONTINUOUS
 62
     7
  5
AB
 10
15.201813
 20
349.707709
 30
0.0
 11
22.201813
 21
349.707709
 31
0.0
  0
LINE
  8
0
  6
CONTINUOUS
 62
     7
  5
AC
 10
212.201813
 20
349.707709
 30
0.0
 11
415.201813
 21
349.707709
 31
0.0
  0
LINE
  8
0
  6
CONTINUOUS
 62
     7
  5
AD
 10
429.201813
 20
366.707709
 30
0.0
 11
427.201813
 21
366.707709
 31
0.0
  0
LINE
  8
0
  6
CONTINUOUS
 62
     7
  5
AE
 10
427.201813
 20
352.707709
 30
0.0
 11
429.201813
 21
352.707709
 31
0.0
  0
ARC
  8
0
  6
CONTINUOUS
 62
     7
  5
AF
 10
429.201813
 20
364.207709
 30
0.0
 40
2.5
 50
0.0
 51
90.0
210
0.0
220
0.0
230
1.0
  0
ARC
  8
0
  6
CONTINUOUS
 62
     7
  5
B0
 10
429.201813
 20
355.207709
 30
0.0
 40
2.5
 50
270.0
 51
360.0
210
0.0
220
0.0
230
1.0
  0
LINE
  8
0
  6
CONTINUOUS
 62
     7
  5
B1
 10
20.501813
 20
330.707709
 30
0.0
 11
22.201813
 21
330.707709
 31
0.0
  0
LINE
  8
0
  6
CONTINUOUS
 62
     7
  5
B2
 10
20.501813
 20
349.207709
 30
0.0
 11
15.201813
 21
349.207709
 31
0.0
  0
LINE
  8
0
  6
CONTINUOUS
 62
     7
  5
B3
 10
15.201813
 20
332.207709
 30
0.0
 11
20.501813
 21
332.207709
 31
0.0
  0
LINE
  8
0
  6
CONTINUOUS
 62
     7
  5
B4
 10
22.201813
 20
371.207709
 30
0.0
 11
15.201813
 21
371.207709
 31
0.0
  0
LINE
  8
0
  6
CONTINUOUS
 62
     7
  5
B5
 10
213.201813
 20
373.707709
 30
0.0
 11
212.201813
 21
373.707709
 31
0.0
  0
ENDBLK
  8
0
  5
B6
  0
BLOCK
  8
0
  5
B9
  2
AID287
 70
     0
 10
0.0
 20
0.0
 30
0.0
  3
#auxiliary draft view
  0
LINE
  8
0
  6
CONTINUOUS
 62
     7
  5
BA
 10
-2.798187
 20
-3.094703
 30
0.0
 11
15.201813
 21
-3.094703
 31
0.0
  0
LINE
  8
0
  6
CONTINUOUS
 62
     7
  5
BB
 10
-2.798187
 20
6.905297
 30
0.0
 11
-2.798187
 21
-3.094703
 31
0.0
  0
LINE
  8
0
  6
CONTINUOUS
 62
     7
  5
BC
 10
-2.798187
 20
6.905297
 30
0.0
 11
15.201813
 21
6.905297
 31
0.0
  0
LINE
  8
0
  6
CONTINUOUS
 62
     7
  5
BD
 10
15.201813
 20
6.905297
 30
0.0
 11
15.201813
 21
-3.094703
 31
0.0
  0
LINE
  8
0
  6
CONTINUOUS
 62
     7
  5
BE
 10
-2.798187
 20
-55.094703
 30
0.0
 11
15.201813
 21
-55.094703
 31
0.0
  0
LINE
  8
0
  6
CONTINUOUS
 62
     7
  5
BF
 10
-2.798187
 20
-45.094703
 30
0.0
 11
-2.798187
 21
-55.094703
 31
0.0
  0
LINE
  8
0
  6
CONTINUOUS
 62
     7
  5
C0
 10
-2.798187
 20
-45.094703
 30
0.0
 11
15.201813
 21
-45.094703
 31
0.0
  0
LINE
  8
0
  6
CONTINUOUS
 62
     7
  5
C1
 10
15.201813
 20
-45.094703
 30
0.0
 11
15.201813
 21
-55.094703
 31
0.0
  0
LINE
  8
0
  6
CONTINUOUS
 62
     7
  5
C2
 10
-2.798187
 20
-3.094703
 30
0.0
 11
-2.798187
 21
-45.094703
 31
0.0
  0
LINE
  8
0
  6
CONTINUOUS
 62
     7
  5
C3
 10
15.201813
 20
-3.094703
 30
0.0
 11
15.201813
 21
-45.094703
 31
0.0
  0
LINE
  8
0
  6
CONTINUOUS
 62
     7
  5
C4
 10
427.201813
 20
-48.594703
 30
0.0
 11
415.201813
 21
-48.594703
 31
0.0
  0
LINE
  8
0
  6
CONTINUOUS
 62
     7
  5
C5
 10
415.201813
 20
-48.594703
 30
0.0
 11
415.201813
 21
-44.594703
 31
0.0
  0
LINE
  8
0
  6
CONTINUOUS
 62
     7
  5
C6
 10
415.201813
 20
-44.594703
 30
0.0
 11
427.201813
 21
-44.594703
 31
0.0
  0
LINE
  8
0
  6
CONTINUOUS
 62
     7
  5
C7
 10
427.201813
 20
-44.594703
 30
0.0
 11
427.201813
 21
-48.594703
 31
0.0
  0
LINE
  8
0
  6
CONTINUOUS
 62
     7
  5
C8
 10
427.201813
 20
-25.594703
 30
0.0
 11
415.201813
 21
-25.594703
 31
0.0
  0
LINE
  8
0
  6
CONTINUOUS
 62
     7
  5
C9
 10
415.201813
 20
-44.594703
 30
0.0
 11
415.201813
 21
-25.594703
 31
0.0
  0
LINE
  8
0
  6
CONTINUOUS
 62
     7
  5
CA
 10
427.201813
 20
-44.594703
 30
0.0
 11
427.201813
 21
-25.594703
 31
0.0
  0
LINE
  8
0
  6
CONTINUOUS
 62
     7
  5
CB
 10
415.201813
 20
-21.594703
 30
0.0
 11
427.201813
 21
-21.594703
 31
0.0
  0
LINE
  8
0
  6
CONTINUOUS
 62
     7
  5
CC
 10
415.201813
 20
-25.594703
 30
0.0
 11
415.201813
 21
-21.594703
 31
0.0
  0
LINE
  8
0
  6
CONTINUOUS
 62
     7
  5
CD
 10
427.201813
 20
-21.594703
 30
0.0
 11
427.201813
 21
-25.594703
 31
0.0
  0
LINE
  8
0
  6
CONTINUOUS
 62
     9
  5
CE
 10
429.201813
 20
-41.594703
 30
0.0
 11
429.201813
 21
-27.594703
 31
0.0
  0
LINE
  8
0
  6
CONTINUOUS
 62
     7
  5
CF
 10
431.701813
 20
-30.094703
 30
0.0
 11
431.701813
 21
-39.094703
 31
0.0
  0
LINE
  8
0
  6
CONTINUOUS
 62
     7
  5
D0
 10
20.501813
 20
-5.594703
 30
0.0
 11
20.501813
 21
-24.594703
 31
0.0
  0
LINE
  8
0
  6
CONTINUOUS
 62
     7
  5
D1
 10
212.201813
 20
-57.594703
 30
0.0
 11
22.201813
 21
-57.594703
 31
0.0
  0
LINE
  8
0
  6
CONTINUOUS
 62
     7
  5
D2
 10
22.201813
 20
-45.594703
 30
0.0
 11
212.201813
 21
-45.594703
 31
0.0
  0
LINE
  8
0
  6
CONTINUOUS
 62
     7
  5
D3
 10
22.201813
 20
-57.594703
 30
0.0
 11
22.201813
 21
-45.594703
 31
0.0
  0
LINE
  8
0
  6
CONTINUOUS
 62
     7
  5
D4
 10
212.201813
 20
-45.594703
 30
0.0
 11
212.201813
 21
-57.594703
 31
0.0
  0
LINE
  8
0
  6
CONTINUOUS
 62
     7
  5
D5
 10
22.201813
 20
9.405297
 30
0.0
 11
212.201813
 21
9.405297
 31
0.0
  0
LINE
  8
0
  6
CONTINUOUS
 62
     7
  5
D6
 10
212.201813
 20
-2.594703
 30
0.0
 11
22.201813
 21
-2.594703
 31
0.0
  0
LINE
  8
0
  6
CONTINUOUS
 62
     7
  5
D7
 10
22.201813
 20
-2.594703
 30
0.0
 11
22.201813
 21
9.405297
 31
0.0
  0
LINE
  8
0
  6
CONTINUOUS
 62
     7
  5
D8
 10
212.201813
 20
9.405297
 30
0.0
 11
212.201813
 21
-2.594703
 31
0.0
  0
LINE
  8
0
  6
CONTINUOUS
 62
     7
  5
D9
 10
22.201813
 20
-45.594703
 30
0.0
 11
22.201813
 21
-2.594703
 31
0.0
  0
LINE
  8
0
  6
CONTINUOUS
 62
     7
  5
DA
 10
212.201813
 20
-2.594703
 30
0.0
 11
212.201813
 21
-45.594703
 31
0.0
  0
LINE
  8
0
  6
CONTINUOUS
 62
     7
  5
DB
 10
213.201813
 20
-44.594703
 30
0.0
 11
213.201813
 21
-48.594703
 31
0.0
  0
LINE
  8
0
  6
CONTINUOUS
 62
     7
  5
DC
 10
415.201813
 20
-24.594703
 30
0.0
 11
212.201813
 21
-24.594703
 31
0.0
  0
LINE
  8
0
  6
CONTINUOUS
 62
     7
  5
DD
 10
22.201813
 20
-24.594703
 30
0.0
 11
15.201813
 21
-24.594703
 31
0.0
  0
LINE
  8
0
  6
CONTINUOUS
 62
     7
  5
DE
 10
15.201813
 20
-44.594703
 30
0.0
 11
22.201813
 21
-44.594703
 31
0.0
  0
LINE
  8
0
  6
CONTINUOUS
 62
     7
  5
DF
 10
212.201813
 20
-44.594703
 30
0.0
 11
415.201813
 21
-44.594703
 31
0.0
  0
ARC
  8
0
  6
CONTINUOUS
 62
     7
  5
E0
 10
429.201813
 20
-30.094703
 30
0.0
 40
2.5
 50
0.0
 51
90.0
210
0.0
220
0.0
230
1.0
  0
ARC
  8
0
  6
CONTINUOUS
 62
     7
  5
E1
 10
429.201813
 20
-39.094703
 30
0.0
 40
2.5
 50
270.0
 51
360.0
210
0.0
220
0.0
230
1.0
  0
LINE
  8
0
  6
CONTINUOUS
 62
     7
  5
E2
 10
429.201813
 20
-27.594703
 30
0.0
 11
427.201813
 21
-27.594703
 31
0.0
  0
LINE
  8
0
  6
CONTINUOUS
 62
     7
  5
E3
 10
427.201813
 20
-41.594703
 30
0.0
 11
429.201813
 21
-41.594703
 31
0.0
  0
LINE
  8
0
  6
CONTINUOUS
 62
     7
  5
E4
 10
22.201813
 20
-5.594703
 30
0.0
 11
20.501813
 21
-5.594703
 31
0.0
  0
LINE
  8
0
  6
CONTINUOUS
 62
     7
  5
E5
 10
20.501813
 20
-7.094703
 30
0.0
 11
15.201813
 21
-7.094703
 31
0.0
  0
LINE
  8
0
  6
CONTINUOUS
 62
     7
  5
E6
 10
15.201813
 20
-24.094703
 30
0.0
 11
20.501813
 21
-24.094703
 31
0.0
  0
LINE
  8
0
  6
CONTINUOUS
 62
     7
  5
E7
 10
15.201813
 20
-46.094703
 30
0.0
 11
22.201813
 21
-46.094703
 31
0.0
  0
LINE
  8
0
  6
CONTINUOUS
 62
     7
  5
E8
 10
212.201813
 20
-48.594703
 30
0.0
 11
213.201813
 21
-48.594703
 31
0.0
  0
ENDBLK
  8
0
  5
E9
  0
BLOCK
  8
0
  5
EC
  2
AID385
 70
     0
 10
0.0
 20
0.0
 30
0.0
  3
#auxiliary draft view
  0
LINE
  8
0
  6
CONTINUOUS
 62
     7
  5
ED
 10
517.996682
 20
194.887575
 30
0.0
 11
527.996682
 21
204.887575
 31
0.0
  0
LINE
  8
0
  6
CONTINUOUS
 62
     7
  5
EE
 10
527.996682
 20
204.887575
 30
0.0
 11
569.996682
 21
204.887575
 31
0.0
  0
LINE
  8
0
  6
CONTINUOUS
 62
     7
  5
EF
 10
569.996682
 20
204.887575
 30
0.0
 11
579.996682
 21
194.887575
 31
0.0
  0
LINE
  8
0
  6
CONTINUOUS
 62
     7
  5
F0
 10
579.996682
 20
194.887575
 30
0.0
 11
579.996682
 21
114.887575
 31
0.0
  0
LINE
  8
0
  6
CONTINUOUS
 62
     7
  5
F1
 10
579.996682
 20
114.887575
 30
0.0
 11
517.996682
 21
114.887575
 31
0.0
  0
CIRCLE
  8
0
  6
CONTINUOUS
 62
     7
  5
F2
 10
522.996682
 20
184.887575
 30
0.0
 40
2.75
210
0.0
220
0.0
230
1.0
  0
CIRCLE
  8
0
  6
CONTINUOUS
 62
     7
  5
F3
 10
574.996682
 20
184.887575
 30
0.0
 40
2.75
210
0.0
220
0.0
230
1.0
  0
CIRCLE
  8
0
  6
CONTINUOUS
 62
     7
  5
F4
 10
574.996682
 20
132.887575
 30
0.0
 40
2.75
210
0.0
220
0.0
230
1.0
  0
CIRCLE
  8
0
  6
CONTINUOUS
 62
     7
  5
F5
 10
522.996682
 20
132.887575
 30
0.0
 40
2.75
210
0.0
220
0.0
230
1.0
  0
CIRCLE
  8
0
  6
CONTINUOUS
 62
     7
  5
F6
 10
522.996682
 20
158.887575
 30
0.0
 40
2.51
210
0.0
220
0.0
230
1.0
  0
LINE
  8
0
  6
CONTINUOUS
 62
     7
  5
F7
 10
517.996682
 20
114.887575
 30
0.0
 11
517.996682
 21
194.887575
 31
0.0
  0
CIRCLE
  8
0
  6
CONTINUOUS
 62
     7
  5
F8
 10
574.996682
 20
158.887575
 30
0.0
 40
2.51
210
0.0
220
0.0
230
1.0
  0
LINE
  8
0
  6
CONTINUOUS
 62
     7
  5
F9
 10
582.496682
 20
109.887575
 30
0.0
 11
515.496682
 21
109.887575
 31
0.0
  0
LINE
  8
0
  6
CONTINUOUS
 62
     7
  5
FA
 10
515.496682
 20
195.887575
 30
0.0
 11
515.496682
 21
109.887575
 31
0.0
  0
LINE
  8
0
  6
CONTINUOUS
 62
     7
  5
FB
 10
527.496682
 20
207.887575
 30
0.0
 11
515.496682
 21
195.887575
 31
0.0
  0
LINE
  8
0
  6
CONTINUOUS
 62
     7
  5
FC
 10
570.496682
 20
207.887575
 30
0.0
 11
527.496682
 21
207.887575
 31
0.0
  0
LINE
  8
0
  6
CONTINUOUS
 62
     7
  5
FD
 10
582.496682
 20
195.887575
 30
0.0
 11
570.496682
 21
207.887575
 31
0.0
  0
LINE
  8
0
  6
CONTINUOUS
 62
     7
  5
FE
 10
582.496682
 20
195.887575
 30
0.0
 11
582.496682
 21
109.887575
 31
0.0
  0
ENDBLK
  8
0
  5
FF
  0
ENDSEC
  0
SECTION
  2
ENTITIES
  0
INSERT
  8
0
  5
5E
  2
AID3
 10
0.0
 20
0.0
 30
0.0
  0
INSERT
  8
0
  5
84
  2
AID117
 10
0.0
 20
0.0
 30
0.0
  0
INSERT
  8
0
  5
B7
  2
AID189
 10
0.0
 20
0.0
 30
0.0
  0
INSERT
  8
0
  5
EA
  2
AID287
 10
0.0
 20
0.0
 30
0.0
  0
INSERT
  8
0
  5
100
  2
AID385
 10
0.0
 20
0.0
 30
0.0
  0
LINE
  8
0
  6
CENTER
 62
     1
  5
102
 10
-5.798187
 20
375.207709
 30
0.0
 11
18.201813
 21
375.207709
 31
0.0
  0
LINE
  8
0
  6
CENTER
 62
     1
  5
103
 10
-5.798187
 20
323.207709
 30
0.0
 11
18.201813
 21
323.207709
 31
0.0
  0
LINE
  8
0
  6
CENTER
 62
     1
  5
104
 10
61.201813
 20
323.207709
 30
0.0
 11
73.201813
 21
323.207709
 31
0.0
  0
LINE
  8
0
  6
CENTER
 62
     1
  5
105
 10
61.201813
 20
375.207709
 30
0.0
 11
73.201813
 21
375.207709
 31
0.0
  0
LINE
  8
0
  6
CENTER
 62
     1
  5
106
 10
161.201813
 20
323.207709
 30
0.0
 11
173.201813
 21
323.207709
 31
0.0
  0
LINE
  8
0
  6
CENTER
 62
     1
  5
107
 10
161.201813
 20
375.207709
 30
0.0
 11
173.201813
 21
375.207709
 31
0.0
  0
LINE
  8
0
  6
CENTER
 62
     1
  5
108
 10
548.996682
 20
106.887575
 30
0.0
 11
548.996682
 21
167.887575
 31
0.0
  0
LINE
  8
0
  6
CENTER
 62
     1
  5
109
 10
-122.978467
 20
158.887575
 30
0.0
 11
-79.978467
 21
158.887575
 31
0.0
  0
LINE
  8
0
  6
CENTER
 62
     1
  5
10A
 10
-101.478467
 20
137.387575
 30
0.0
 11
-101.478467
 21
180.387575
 31
0.0
  0
LINE
  8
0
  6
CENTER
 62
     1
  5
10B
 10
67.201813
 20
317.207709
 30
0.0
 11
67.201813
 21
381.207709
 31
0.0
  0
LINE
  8
0
  6
CENTER
 62
     1
  5
10C
 10
167.201813
 20
317.207709
 30
0.0
 11
167.201813
 21
381.207709
 31
0.0
  0
LINE
  8
0
  6
CENTER
 62
     1
  5
10D
 10
-8.308187
 20
349.207709
 30
0.0
 11
172.711813
 21
349.207709
 31
0.0
  0
LINE
  8
0
  6
CENTER
 62
     1
  5
10E
 10
517.486682
 20
158.887575
 30
0.0
 11
580.506682
 21
158.887575
 31
0.0
  0
LINE
  8
0
  6
CENTER
 62
     1
  5
10F
 10
-130.478467
 20
190.387575
 30
0.0
 11
-110.478467
 21
190.387575
 31
0.0
  0
LINE
  8
0
  6
CENTER
 62
     1
  5
110
 10
-120.478467
 20
180.387575
 30
0.0
 11
-120.478467
 21
200.387575
 31
0.0
  0
LINE
  8
0
  6
CENTER
 62
     1
  5
111
 10
-130.478467
 20
127.387575
 30
0.0
 11
-110.478467
 21
127.387575
 31
0.0
  0
LINE
  8
0
  6
CENTER
 62
     1
  5
112
 10
-120.478467
 20
117.387575
 30
0.0
 11
-120.478467
 21
137.387575
 31
0.0
  0
LINE
  8
0
  6
CENTER
 62
     1
  5
113
 10
418.201813
 20
359.707709
 30
0.0
 11
209.201813
 21
359.707709
 31
0.0
  0
LINE
  8
0
  6
CENTER
 62
     1
  5
114
 10
418.201813
 20
190.387575
 30
0.0
 11
209.201813
 21
190.387575
 31
0.0
  0
LINE
  8
0
  6
CENTER
 62
     1
  5
115
 10
418.201813
 20
127.387575
 30
0.0
 11
209.201813
 21
127.387575
 31
0.0
  0
LINE
  8
0
  6
CENTER
 62
     1
  5
116
 10
418.201813
 20
-34.594703
 30
0.0
 11
209.201813
 21
-34.594703
 31
0.0
  0
LINE
  8
0
  6
CENTER
 62
     1
  5
117
 10
517.246682
 20
184.887575
 30
0.0
 11
528.746682
 21
184.887575
 31
0.0
  0
LINE
  8
0
  6
CENTER
 62
     1
  5
118
 10
522.996682
 20
179.137575
 30
0.0
 11
522.996682
 21
190.637575
 31
0.0
  0
LINE
  8
0
  6
CENTER
 62
     1
  5
119
 10
569.246682
 20
184.887575
 30
0.0
 11
580.746682
 21
184.887575
 31
0.0
  0
LINE
  8
0
  6
CENTER
 62
     1
  5
11A
 10
574.996682
 20
179.137575
 30
0.0
 11
574.996682
 21
190.637575
 31
0.0
  0
LINE
  8
0
  6
CENTER
 62
     1
  5
11B
 10
574.996682
 20
153.377575
 30
0.0
 11
574.996682
 21
164.397575
 31
0.0
  0
LINE
  8
0
  6
CENTER
 62
     1
  5
11C
 10
522.996682
 20
153.377575
 30
0.0
 11
522.996682
 21
164.397575
 31
0.0
  0
LINE
  8
0
  6
CENTER
 62
     1
  5
11D
 10
517.246682
 20
132.887575
 30
0.0
 11
528.746682
 21
132.887575
 31
0.0
  0
LINE
  8
0
  6
CENTER
 62
     1
  5
11E
 10
522.996682
 20
127.137575
 30
0.0
 11
522.996682
 21
138.637575
 31
0.0
  0
LINE
  8
0
  6
CENTER
 62
     1
  5
11F
 10
569.246682
 20
132.887575
 30
0.0
 11
580.746682
 21
132.887575
 31
0.0
  0
LINE
  8
0
  6
CENTER
 62
     1
  5
120
 10
574.996682
 20
127.137575
 30
0.0
 11
574.996682
 21
138.637575
 31
0.0
  0
ENDSEC
  0
EOF
