  0
SECTION
  2
HEADER
  9
$ACADVER
  1
AC1009
  9
$DWGCODEPAGE
  3
ansi_1252
  9
$INSBASE
 10
0.0
 20
0.0
 30
0.0
  9
$EXTMIN
 10
0.0
 20
-78.178264
 30
0.0
  9
$EXTMAX
 10
455.767653
 20
403.867762
 30
5.0
  9
$LIMMIN
 10
0.0
 20
-78.178264
  9
$LIMMAX
 10
455.767653
 20
403.867762
  9
$ORTHOMODE
 70
     0
  9
$REGENMODE
 70
     1
  9
$FILLMODE
 70
     1
  9
$QTEXTMODE
 70
     0
  9
$MIRRTEXT
 70
     1
  9
$DRAGMODE
 70
     2
  9
$LTSCALE
 40
10.0
  9
$OSMODE
 70
     0
  9
$ATTMODE
 70
     1
  9
$TEXTSIZE
 40
0.2
  9
$TRACEWID
 40
0.05
  9
$TEXTSTYLE
  7
STANDARD
  9
$CLAYER
  8
0
  9
$CELTYPE
  6
CONTINUOUS
  9
$CECOLOR
 62
   256
  9
$DIMSCALE
 40
1.0
  9
$DIMASZ
 40
1.25
  9
$DIMEXO
 40
1.0
  9
$DIMDLI
 40
0.38
  9
$DIMRND
 40
0.0
  9
$DIMDLE
 40
0.0
  9
$DIMEXE
 40
0.75
  9
$DIMTP
 40
0.0
  9
$DIMTM
 40
0.0
  9
$DIMTXT
 40
2.5
  9
$DIMCEN
 40
0.09
  9
$DIMTSZ
 40
0.0
  9
$DIMTOL
 70
     0
  9
$DIMLIM
 70
     0
  9
$DIMTIH
 70
     0
  9
$DIMTOH
 70
     0
  9
$DIMSE1
 70
     0
  9
$DIMSE2
 70
     0
  9
$DIMTAD
 70
     1
  9
$DIMZIN
 70
     0
  9
$DIMBLK
  1

  9
$DIMASO
 70
     1
  9
$DIMSHO
 70
     1
  9
$DIMPOST
  1

  9
$DIMAPOST
  1

  9
$DIMALT
 70
     0
  9
$DIMALTD
 70
     2
  9
$DIMALTF
 40
25.4
  9
$DIMLFAC
 40
1.0
  9
$DIMTOFL
 70
     0
  9
$DIMTVP
 40
0.0
  9
$DIMTIX
 70
     0
  9
$DIMSOXD
 70
     0
  9
$DIMSAH
 70
     0
  9
$DIMBLK1
  1

  9
$DIMBLK2
  1

  9
$DIMSTYLE
  2
STANDARD
  9
$DIMCLRD
 70
     7
  9
$DIMCLRE
 70
     7
  9
$DIMCLRT
 70
     7
  9
$DIMTFAC
 40
0.8
  9
$DIMGAP
 40
1.25
  9
$LUNITS
 70
     2
  9
$LUPREC
 70
     4
  9
$AXISMODE
 70
     0
  9
$AXISUNIT
 10
0.0
 20
0.0
  9
$SKETCHINC
 40
0.1
  9
$FILLETRAD
 40
0.0
  9
$AUNITS
 70
     0
  9
$AUPREC
 70
     0
  9
$MENU
  1
acad
  9
$ELEVATION
 40
0.0
  9
$PELEVATION
 40
0.0
  9
$THICKNESS
 40
0.0
  9
$LIMCHECK
 70
     0
  9
$BLIPMODE
 70
     1
  9
$CHAMFERA
 40
0.0
  9
$CHAMFERB
 40
0.0
  9
$SKPOLY
 70
     0
  9
$TDCREATE
 40
2454285.624456019
  9
$TDUPDATE
 40
2454285.540243056
  9
$TDINDWG
 40
0.0000000000
  9
$TDUSRTIMER
 40
0.0000000000
  9
$USRTIMER
 70
     1
  9
$ANGBASE
 50
0.0
  9
$ANGDIR
 70
     0
  9
$PDMODE
 70
     0
  9
$PDSIZE
 40
0.0
  9
$PLINEWID
 40
0.0
  9
$COORDS
 70
     0
  9
$SPLFRAME
 70
     0
  9
$SPLINETYPE
 70
     6
  9
$SPLINESEGS
 70
     8
  9
$ATTDIA
 70
     0
  9
$ATTREQ
 70
     1
  9
$HANDLING
 70
     1
  9
$HANDSEED
  5
379
  9
$SURFTAB1
 70
     6
  9
$SURFTAB2
 70
     6
  9
$SURFTYPE
 70
     6
  9
$SURFU
 70
     6
  9
$SURFV
 70
     6
  9
$UCSNAME
  2

  9
$UCSORG
 10
0.0
 20
0.0
 30
0.0
  9
$UCSXDIR
 10
1.0
 20
0.0
 30
0.0
  9
$UCSYDIR
 10
0.0
 20
1.0
 30
0.0
  9
$PUCSNAME
  2

  9
$PUCSORG
 10
0.0
 20
0.0
 30
0.0
  9
$PUCSXDIR
 10
1.0
 20
0.0
 30
0.0
  9
$PUCSYDIR
 10
0.0
 20
1.0
 30
0.0
  9
$USERI1
 70
     0
  9
$USERI2
 70
     0
  9
$USERI3
 70
     0
  9
$USERI4
 70
     0
  9
$USERI5
 70
     0
  9
$USERR1
 40
0.0
  9
$USERR2
 40
0.0
  9
$USERR3
 40
0.0
  9
$USERR4
 40
0.0
  9
$USERR5
 40
0.0
  9
$WORLDVIEW
 70
     1
  9
$SHADEDGE
 70
     3
  9
$SHADEDIF
 70
    70
  9
$TILEMODE
 70
     1
  9
$MAXACTVP
 70
    16
  9
$PINSBASE
 10
0.0
 20
0.0
 30
0.0
  9
$PLIMCHECK
 70
     0
  9
$PEXTMIN
 10
1.000000E+20
 20
1.000000E+20
 30
1.000000E+20
  9
$PEXTMAX
 10
-1.000000E+20
 20
-1.000000E+20
 30
-1.000000E+20
  9
$PLIMMIN
 10
0.0
 20
0.0
  9
$PLIMMAX
 10
12.0
 20
9.0
  9
$UNITMODE
 70
     0
  9
$VISRETAIN
 70
     0
  9
$PLINEGEN
 70
     1
  9
$PSLTSCALE
 70
     0
  9
$TREEDEPTH
 70
  3020
  0
ENDSEC
  0
SECTION
  2
TABLES
  0
TABLE
  2
VPORT
 70
     1
  0
VPORT
  2
*ACTIVE
 70
     0
 10
0.0
 20
0.0
 11
1.0
 21
1.0
 12
6.591288
 22
4.579184
 13
0.0
 23
0.0
 14
1.0
 24
1.0
 15
0.0
 25
0.0
 16
0.0
 26
0.0
 36
1.0
 17
0.0
 27
0.0
 37
0.0
 40
9.158369
 41
0.688564
 42
50.0
 43
0.0
 44
0.0
 50
0.0
 51
0.0
 71
     0
 72
   100
 73
     1
 74
     1
 75
     0
 76
     0
 77
     0
 78
     0
  0
ENDTAB
  0
TABLE
  2
LTYPE
 70
     2
  0
LTYPE
  2
CONTINUOUS
 70
    64
  3
Solid line
 72
    65
 73
     0
 40
0.0
  0
LTYPE
  2
CENTER
 70
    64
  3
____ _ ____ _ ____ _ ____ _ ____ _ ____ _ ____
 72
    65
 73
     4
 40
2.0
 49
1.25
 49
-0.25
 49
0.25
 49
-0.25
  0
ENDTAB
  0
TABLE
  2
LAYER
 70
     1
  0
LAYER
  2
0
 70
     0
 62
     7
  6
CONTINUOUS
  0
ENDTAB
  0
TABLE
  2
STYLE
 70
     1
  0
STYLE
  2
STANDARD
 70
     0
 40
0.0
 41
1.0
 50
0.0
 71
     0
 42
0.0
  3
IsonormD
  4

  0
ENDTAB
  0
TABLE
  2
VIEW
 70
     0
  0
ENDTAB
  0
TABLE
  2
UCS
 70
     0
  0
ENDTAB
  0
TABLE
  2
APPID
 70
     2
  0
APPID
  2
ACAD
 70
     0
  0
APPID
  2
TopSolid_Draft
 70
     0
  0
ENDTAB
  0
TABLE
  2
DIMSTYLE
 70
     1
  0
DIMSTYLE
  2
STANDARD
 70
     0
  3

  4

  5

  6

  7

 40
1.0
 41
1.25
 42
1.0
 43
0.38
 44
0.75
 45
0.0
 46
0.0
 47
0.0
 48
0.0
 71
     0
 72
     0
 73
     0
 74
     0
 75
     0
 76
     0
 77
     1
 78
     0
140
2.5
141
0.09
142
0.0
143
25.4
144
1.0
145
0.0
146
0.8
147
1.25
170
     0
171
     2
172
     0
173
     0
174
     0
175
     0
176
     7
177
     7
178
     7
  0
ENDTAB
  0
ENDSEC
  0
SECTION
  2
BLOCKS
  0
BLOCK
  8
0
  5
26
  2
AID3
 70
     0
 10
0.0
 20
0.0
 30
0.0
  3
#draft view
  0
LINE
  8
0
  6
CONTINUOUS
 62
     7
  5
27
 10
155.32174
 20
74.898282
 30
0.0
 11
154.167039
 21
76.898282
 31
0.0
  0
LINE
  8
0
  6
CONTINUOUS
 62
     7
  5
28
 10
157.631141
 20
74.898282
 30
0.0
 11
155.32174
 21
74.898282
 31
0.0
  0
LINE
  8
0
  6
CONTINUOUS
 62
     7
  5
29
 10
155.32174
 20
78.898282
 30
0.0
 11
157.631141
 21
78.898282
 31
0.0
  0
CIRCLE
  8
0
  6
CONTINUOUS
 62
     7
  5
2A
 10
156.47644
 20
76.898282
 30
0.0
 40
4.25
210
0.0
220
0.0
230
1.0
  0
LINE
  8
0
  6
CONTINUOUS
 62
     7
  5
2B
 10
158.785841
 20
76.898282
 30
0.0
 11
157.631141
 21
74.898282
 31
0.0
  0
LINE
  8
0
  6
CONTINUOUS
 62
     7
  5
2C
 10
157.631141
 20
78.898282
 30
0.0
 11
158.785841
 21
76.898282
 31
0.0
  0
LINE
  8
0
  6
CONTINUOUS
 62
     7
  5
2D
 10
154.167039
 20
76.898282
 30
0.0
 11
155.32174
 21
78.898282
 31
0.0
  0
LINE
  8
0
  6
CONTINUOUS
 62
     7
  5
2E
 10
176.631141
 20
78.898282
 30
0.0
 11
174.32174
 21
78.898282
 31
0.0
  0
LINE
  8
0
  6
CONTINUOUS
 62
     7
  5
2F
 10
177.785841
 20
76.898282
 30
0.0
 11
176.631141
 21
78.898282
 31
0.0
  0
CIRCLE
  8
0
  6
CONTINUOUS
 62
     7
  5
30
 10
175.47644
 20
76.898282
 30
0.0
 40
4.25
210
0.0
220
0.0
230
1.0
  0
LINE
  8
0
  6
CONTINUOUS
 62
     7
  5
31
 10
176.631141
 20
74.898282
 30
0.0
 11
177.785841
 21
76.898282
 31
0.0
  0
LINE
  8
0
  6
CONTINUOUS
 62
     7
  5
32
 10
174.32174
 20
78.898282
 30
0.0
 11
173.167039
 21
76.898282
 31
0.0
  0
LINE
  8
0
  6
CONTINUOUS
 62
     7
  5
33
 10
174.32174
 20
74.898282
 30
0.0
 11
176.631141
 21
74.898282
 31
0.0
  0
LINE
  8
0
  6
CONTINUOUS
 62
     7
  5
34
 10
173.167039
 20
76.898282
 30
0.0
 11
174.32174
 21
74.898282
 31
0.0
  0
CIRCLE
  8
0
  6
CONTINUOUS
 62
     7
  5
35
 10
156.47644
 20
156.898282
 30
0.0
 40
4.25
210
0.0
220
0.0
230
1.0
  0
LINE
  8
0
  6
CONTINUOUS
 62
     7
  5
36
 10
155.32174
 20
154.898282
 30
0.0
 11
157.631141
 21
154.898282
 31
0.0
  0
LINE
  8
0
  6
CONTINUOUS
 62
     7
  5
37
 10
154.167039
 20
156.898282
 30
0.0
 11
155.32174
 21
154.898282
 31
0.0
  0
LINE
  8
0
  6
CONTINUOUS
 62
     7
  5
38
 10
155.32174
 20
158.898282
 30
0.0
 11
154.167039
 21
156.898282
 31
0.0
  0
LINE
  8
0
  6
CONTINUOUS
 62
     7
  5
39
 10
157.631141
 20
154.898282
 30
0.0
 11
158.785841
 21
156.898282
 31
0.0
  0
LINE
  8
0
  6
CONTINUOUS
 62
     7
  5
3A
 10
158.785841
 20
156.898282
 30
0.0
 11
157.631141
 21
158.898282
 31
0.0
  0
LINE
  8
0
  6
CONTINUOUS
 62
     7
  5
3B
 10
157.631141
 20
158.898282
 30
0.0
 11
155.32174
 21
158.898282
 31
0.0
  0
LINE
  8
0
  6
CONTINUOUS
 62
     7
  5
3C
 10
176.631141
 20
154.898282
 30
0.0
 11
174.32174
 21
154.898282
 31
0.0
  0
LINE
  8
0
  6
CONTINUOUS
 62
     7
  5
3D
 10
177.785841
 20
156.898282
 30
0.0
 11
176.631141
 21
154.898282
 31
0.0
  0
CIRCLE
  8
0
  6
CONTINUOUS
 62
     7
  5
3E
 10
175.47644
 20
156.898282
 30
0.0
 40
4.25
210
0.0
220
0.0
230
1.0
  0
LINE
  8
0
  6
CONTINUOUS
 62
     7
  5
3F
 10
176.631141
 20
158.898282
 30
0.0
 11
177.785841
 21
156.898282
 31
0.0
  0
LINE
  8
0
  6
CONTINUOUS
 62
     7
  5
40
 10
174.32174
 20
154.898282
 30
0.0
 11
173.167039
 21
156.898282
 31
0.0
  0
LINE
  8
0
  6
CONTINUOUS
 62
     7
  5
41
 10
174.32174
 20
158.898282
 30
0.0
 11
176.631141
 21
158.898282
 31
0.0
  0
LINE
  8
0
  6
CONTINUOUS
 62
     7
  5
42
 10
173.167039
 20
156.898282
 30
0.0
 11
174.32174
 21
158.898282
 31
0.0
  0
CIRCLE
  8
0
  6
CONTINUOUS
 62
     7
  5
43
 10
143.702577
 20
139.172146
 30
0.0
 40
2.067
210
0.0
220
0.0
230
1.0
  0
CIRCLE
  8
0
  6
CONTINUOUS
 62
     7
  5
44
 10
143.702577
 20
139.172146
 30
0.0
 40
2.5
210
0.0
220
0.0
230
1.0
  0
CIRCLE
  8
0
  6
CONTINUOUS
 62
     7
  5
45
 10
188.250304
 20
94.624419
 30
0.0
 40
2.067
210
0.0
220
0.0
230
1.0
  0
CIRCLE
  8
0
  6
CONTINUOUS
 62
     7
  5
46
 10
188.250304
 20
94.624419
 30
0.0
 40
2.5
210
0.0
220
0.0
230
1.0
  0
CIRCLE
  8
0
  6
CONTINUOUS
 62
     7
  5
47
 10
188.250304
 20
139.172146
 30
0.0
 40
2.067
210
0.0
220
0.0
230
1.0
  0
CIRCLE
  8
0
  6
CONTINUOUS
 62
     7
  5
48
 10
188.250304
 20
139.172146
 30
0.0
 40
2.5
210
0.0
220
0.0
230
1.0
  0
CIRCLE
  8
0
  6
CONTINUOUS
 62
     7
  5
49
 10
165.97644
 20
116.898282
 30
0.0
 40
20.7
210
0.0
220
0.0
230
1.0
  0
CIRCLE
  8
0
  6
CONTINUOUS
 62
     7
  5
4A
 10
165.97644
 20
156.898282
 30
0.0
 40
2.5
210
0.0
220
0.0
230
1.0
  0
CIRCLE
  8
0
  6
CONTINUOUS
 62
     7
  5
4B
 10
165.97644
 20
76.898282
 30
0.0
 40
2.5
210
0.0
220
0.0
230
1.0
  0
CIRCLE
  8
0
  6
CONTINUOUS
 62
     7
  5
4C
 10
143.702577
 20
94.624419
 30
0.0
 40
2.5
210
0.0
220
0.0
230
1.0
  0
LINE
  8
0
  6
CONTINUOUS
 62
     7
  5
4D
 10
140.97644
 20
161.398282
 30
0.0
 11
130.97644
 21
151.398282
 31
0.0
  0
LINE
  8
0
  6
CONTINUOUS
 62
     7
  5
4E
 10
140.97644
 20
161.398282
 30
0.0
 11
190.97644
 21
161.398282
 31
0.0
  0
LINE
  8
0
  6
CONTINUOUS
 62
     7
  5
4F
 10
200.97644
 20
151.398282
 30
0.0
 11
190.97644
 21
161.398282
 31
0.0
  0
LINE
  8
0
  6
CONTINUOUS
 62
     7
  5
50
 10
200.97644
 20
151.398282
 30
0.0
 11
200.97644
 21
82.398282
 31
0.0
  0
LINE
  8
0
  6
CONTINUOUS
 62
     7
  5
51
 10
190.97644
 20
72.398282
 30
0.0
 11
200.97644
 21
82.398282
 31
0.0
  0
LINE
  8
0
  6
CONTINUOUS
 62
     7
  5
52
 10
190.97644
 20
72.398282
 30
0.0
 11
140.97644
 21
72.398282
 31
0.0
  0
LINE
  8
0
  6
CONTINUOUS
 62
     7
  5
53
 10
130.97644
 20
82.398282
 30
0.0
 11
140.97644
 21
72.398282
 31
0.0
  0
LINE
  8
0
  6
CONTINUOUS
 62
     7
  5
54
 10
130.97644
 20
82.398282
 30
0.0
 11
130.97644
 21
151.398282
 31
0.0
  0
CIRCLE
  8
0
  6
CONTINUOUS
 62
     7
  5
55
 10
143.702577
 20
94.624419
 30
0.0
 40
2.067
210
0.0
220
0.0
230
1.0
  0
CIRCLE
  8
0
  6
CONTINUOUS
 62
     7
  5
56
 10
165.97644
 20
116.898282
 30
0.0
 40
20.0
210
0.0
220
0.0
230
1.0
  0
LINE
  8
0
  6
CONTINUOUS
 62
     7
  5
57
 10
204.47644
 20
35.698282
 30
0.0
 11
204.47644
 21
31.098282
 31
0.0
  0
LINE
  8
0
  6
CONTINUOUS
 62
     7
  5
58
 10
202.97644
 20
31.098282
 30
0.0
 11
202.97644
 21
35.698282
 31
0.0
  0
LINE
  8
0
  6
CONTINUOUS
 62
     7
  5
59
 10
202.97644
 20
31.098282
 30
0.0
 11
204.47644
 21
31.098282
 31
0.0
  0
LINE
  8
0
  6
CONTINUOUS
 62
     7
  5
5A
 10
202.97644
 20
35.698282
 30
0.0
 11
204.47644
 21
35.698282
 31
0.0
  0
LINE
  8
0
  6
CONTINUOUS
 62
     7
  5
5B
 10
202.97644
 20
284.698282
 30
0.0
 11
204.47644
 21
284.698282
 31
0.0
  0
LINE
  8
0
  6
CONTINUOUS
 62
     7
  5
5C
 10
204.47644
 20
284.698282
 30
0.0
 11
204.47644
 21
280.098282
 31
0.0
  0
LINE
  8
0
  6
CONTINUOUS
 62
     7
  5
5D
 10
202.97644
 20
280.098282
 30
0.0
 11
204.47644
 21
280.098282
 31
0.0
  0
LINE
  8
0
  6
CONTINUOUS
 62
     7
  5
5E
 10
202.97644
 20
280.098282
 30
0.0
 11
202.97644
 21
284.698282
 31
0.0
  0
LINE
  8
0
  6
CONTINUOUS
 62
     7
  5
5F
 10
128.97644
 20
284.698282
 30
0.0
 11
128.97644
 21
280.098282
 31
0.0
  0
LINE
  8
0
  6
CONTINUOUS
 62
     7
  5
60
 10
136.97644
 20
284.698282
 30
0.0
 11
128.97644
 21
284.698282
 31
0.0
  0
LINE
  8
0
  6
CONTINUOUS
 62
     7
  5
61
 10
136.97644
 20
289.898282
 30
0.0
 11
136.97644
 21
284.698282
 31
0.0
  0
LINE
  8
0
  6
CONTINUOUS
 62
     7
  5
62
 10
194.97644
 20
284.698282
 30
0.0
 11
202.97644
 21
284.698282
 31
0.0
  0
LINE
  8
0
  6
CONTINUOUS
 62
     7
  5
63
 10
136.97644
 20
274.898282
 30
0.0
 11
194.97644
 21
274.898282
 31
0.0
  0
LINE
  8
0
  6
CONTINUOUS
 62
     7
  5
64
 10
136.97644
 20
280.098282
 30
0.0
 11
128.97644
 21
280.098282
 31
0.0
  0
LINE
  8
0
  6
CONTINUOUS
 62
     7
  5
65
 10
194.97644
 20
280.098282
 30
0.0
 11
202.97644
 21
280.098282
 31
0.0
  0
LINE
  8
0
  6
CONTINUOUS
 62
     7
  5
66
 10
194.97644
 20
289.898282
 30
0.0
 11
194.97644
 21
284.698282
 31
0.0
  0
LINE
  8
0
  6
CONTINUOUS
 62
     7
  5
67
 10
136.97644
 20
289.898282
 30
0.0
 11
194.97644
 21
289.898282
 31
0.0
  0
LINE
  8
0
  6
CONTINUOUS
 62
     7
  5
68
 10
194.97644
 20
274.898282
 30
0.0
 11
194.97644
 21
280.098282
 31
0.0
  0
LINE
  8
0
  6
CONTINUOUS
 62
     7
  5
69
 10
136.97644
 20
274.898282
 30
0.0
 11
136.97644
 21
280.098282
 31
0.0
  0
LINE
  8
0
  6
CONTINUOUS
 62
     7
  5
6A
 10
128.97644
 20
35.698282
 30
0.0
 11
128.97644
 21
31.098282
 31
0.0
  0
LINE
  8
0
  6
CONTINUOUS
 62
     7
  5
6B
 10
136.97644
 20
40.898282
 30
0.0
 11
194.97644
 21
40.898282
 31
0.0
  0
LINE
  8
0
  6
CONTINUOUS
 62
     7
  5
6C
 10
194.97644
 20
25.898282
 30
0.0
 11
194.97644
 21
31.098282
 31
0.0
  0
LINE
  8
0
  6
CONTINUOUS
 62
     7
  5
6D
 10
136.97644
 20
25.898282
 30
0.0
 11
136.97644
 21
31.098282
 31
0.0
  0
LINE
  8
0
  6
CONTINUOUS
 62
     7
  5
6E
 10
136.97644
 20
31.098282
 30
0.0
 11
128.97644
 21
31.098282
 31
0.0
  0
LINE
  8
0
  6
CONTINUOUS
 62
     7
  5
6F
 10
136.97644
 20
25.898282
 30
0.0
 11
194.97644
 21
25.898282
 31
0.0
  0
LINE
  8
0
  6
CONTINUOUS
 62
     7
  5
70
 10
136.97644
 20
40.898282
 30
0.0
 11
136.97644
 21
35.698282
 31
0.0
  0
LINE
  8
0
  6
CONTINUOUS
 62
     7
  5
71
 10
194.97644
 20
40.898282
 30
0.0
 11
194.97644
 21
35.698282
 31
0.0
  0
LINE
  8
0
  6
CONTINUOUS
 62
     7
  5
72
 10
136.97644
 20
35.698282
 30
0.0
 11
128.97644
 21
35.698282
 31
0.0
  0
LINE
  8
0
  6
CONTINUOUS
 62
     7
  5
73
 10
194.97644
 20
31.098282
 30
0.0
 11
202.97644
 21
31.098282
 31
0.0
  0
LINE
  8
0
  6
CONTINUOUS
 62
     7
  5
74
 10
194.97644
 20
35.698282
 30
0.0
 11
202.97644
 21
35.698282
 31
0.0
  0
LINE
  8
0
  6
CONTINUOUS
 62
     7
  5
75
 10
127.47644
 20
31.098282
 30
0.0
 11
127.47644
 21
35.698282
 31
0.0
  0
LINE
  8
0
  6
CONTINUOUS
 62
     7
  5
76
 10
128.97644
 20
31.098282
 30
0.0
 11
127.47644
 21
31.098282
 31
0.0
  0
LINE
  8
0
  6
CONTINUOUS
 62
     7
  5
77
 10
128.97644
 20
35.698282
 30
0.0
 11
127.47644
 21
35.698282
 31
0.0
  0
LINE
  8
0
  6
CONTINUOUS
 62
     7
  5
78
 10
127.47644
 20
280.098282
 30
0.0
 11
127.47644
 21
284.698282
 31
0.0
  0
LINE
  8
0
  6
CONTINUOUS
 62
     7
  5
79
 10
128.97644
 20
284.698282
 30
0.0
 11
127.47644
 21
284.698282
 31
0.0
  0
LINE
  8
0
  6
CONTINUOUS
 62
     7
  5
7A
 10
128.97644
 20
280.098282
 30
0.0
 11
127.47644
 21
280.098282
 31
0.0
  0
LINE
  8
0
  6
CONTINUOUS
 62
     9
  5
7B
 10
131.97644
 20
274.898282
 30
0.0
 11
131.97644
 21
280.098282
 31
0.0
  0
LINE
  8
0
  6
CONTINUOUS
 62
     7
  5
7C
 10
136.97644
 20
274.898282
 30
0.0
 11
131.97644
 21
274.898282
 31
0.0
  0
LINE
  8
0
  6
CONTINUOUS
 62
     9
  5
7D
 10
199.97644
 20
289.898282
 30
0.0
 11
199.97644
 21
284.698282
 31
0.0
  0
LINE
  8
0
  6
CONTINUOUS
 62
     7
  5
7E
 10
194.97644
 20
289.898282
 30
0.0
 11
199.97644
 21
289.898282
 31
0.0
  0
LINE
  8
0
  6
CONTINUOUS
 62
     9
  5
7F
 10
131.97644
 20
289.898282
 30
0.0
 11
131.97644
 21
284.698282
 31
0.0
  0
LINE
  8
0
  6
CONTINUOUS
 62
     7
  5
80
 10
131.97644
 20
289.898282
 30
0.0
 11
136.97644
 21
289.898282
 31
0.0
  0
LINE
  8
0
  6
CONTINUOUS
 62
     9
  5
81
 10
199.97644
 20
40.898282
 30
0.0
 11
199.97644
 21
35.698282
 31
0.0
  0
LINE
  8
0
  6
CONTINUOUS
 62
     7
  5
82
 10
194.97644
 20
40.898282
 30
0.0
 11
199.97644
 21
40.898282
 31
0.0
  0
LINE
  8
0
  6
CONTINUOUS
 62
     9
  5
83
 10
199.97644
 20
274.898282
 30
0.0
 11
199.97644
 21
280.098282
 31
0.0
  0
LINE
  8
0
  6
CONTINUOUS
 62
     7
  5
84
 10
199.97644
 20
274.898282
 30
0.0
 11
194.97644
 21
274.898282
 31
0.0
  0
LINE
  8
0
  6
CONTINUOUS
 62
     9
  5
85
 10
131.97644
 20
25.898282
 30
0.0
 11
131.97644
 21
31.098282
 31
0.0
  0
LINE
  8
0
  6
CONTINUOUS
 62
     7
  5
86
 10
136.97644
 20
25.898282
 30
0.0
 11
131.97644
 21
25.898282
 31
0.0
  0
LINE
  8
0
  6
CONTINUOUS
 62
     9
  5
87
 10
199.97644
 20
25.898282
 30
0.0
 11
199.97644
 21
31.098282
 31
0.0
  0
LINE
  8
0
  6
CONTINUOUS
 62
     7
  5
88
 10
199.97644
 20
25.898282
 30
0.0
 11
194.97644
 21
25.898282
 31
0.0
  0
LINE
  8
0
  6
CONTINUOUS
 62
     9
  5
89
 10
131.97644
 20
40.898282
 30
0.0
 11
131.97644
 21
35.698282
 31
0.0
  0
LINE
  8
0
  6
CONTINUOUS
 62
     7
  5
8A
 10
131.97644
 20
40.898282
 30
0.0
 11
136.97644
 21
40.898282
 31
0.0
  0
LINE
  8
0
  6
CONTINUOUS
 62
     7
  5
8B
 10
127.47644
 20
289.898282
 30
0.0
 11
127.47644
 21
284.698282
 31
0.0
  0
LINE
  8
0
  6
CONTINUOUS
 62
     7
  5
8C
 10
131.97644
 20
289.898282
 30
0.0
 11
127.47644
 21
289.898282
 31
0.0
  0
LINE
  8
0
  6
CONTINUOUS
 62
     7
  5
8D
 10
204.47644
 20
40.898282
 30
0.0
 11
204.47644
 21
35.698282
 31
0.0
  0
LINE
  8
0
  6
CONTINUOUS
 62
     7
  5
8E
 10
204.47644
 20
40.898282
 30
0.0
 11
199.97644
 21
40.898282
 31
0.0
  0
LINE
  8
0
  6
CONTINUOUS
 62
     7
  5
8F
 10
127.47644
 20
274.898282
 30
0.0
 11
127.47644
 21
280.098282
 31
0.0
  0
LINE
  8
0
  6
CONTINUOUS
 62
     7
  5
90
 10
127.47644
 20
274.898282
 30
0.0
 11
131.97644
 21
274.898282
 31
0.0
  0
LINE
  8
0
  6
CONTINUOUS
 62
     7
  5
91
 10
127.47644
 20
40.898282
 30
0.0
 11
127.47644
 21
35.698282
 31
0.0
  0
LINE
  8
0
  6
CONTINUOUS
 62
     7
  5
92
 10
131.97644
 20
40.898282
 30
0.0
 11
127.47644
 21
40.898282
 31
0.0
  0
LINE
  8
0
  6
CONTINUOUS
 62
     7
  5
93
 10
204.47644
 20
25.898282
 30
0.0
 11
204.47644
 21
31.098282
 31
0.0
  0
LINE
  8
0
  6
CONTINUOUS
 62
     7
  5
94
 10
199.97644
 20
25.898282
 30
0.0
 11
204.47644
 21
25.898282
 31
0.0
  0
LINE
  8
0
  6
CONTINUOUS
 62
     7
  5
95
 10
127.47644
 20
25.898282
 30
0.0
 11
127.47644
 21
31.098282
 31
0.0
  0
LINE
  8
0
  6
CONTINUOUS
 62
     7
  5
96
 10
127.47644
 20
25.898282
 30
0.0
 11
131.97644
 21
25.898282
 31
0.0
  0
LINE
  8
0
  6
CONTINUOUS
 62
     7
  5
97
 10
204.47644
 20
289.898282
 30
0.0
 11
204.47644
 21
284.698282
 31
0.0
  0
LINE
  8
0
  6
CONTINUOUS
 62
     7
  5
98
 10
204.47644
 20
289.898282
 30
0.0
 11
199.97644
 21
289.898282
 31
0.0
  0
LINE
  8
0
  6
CONTINUOUS
 62
     7
  5
99
 10
204.47644
 20
274.898282
 30
0.0
 11
204.47644
 21
280.098282
 31
0.0
  0
LINE
  8
0
  6
CONTINUOUS
 62
     7
  5
9A
 10
199.97644
 20
274.898282
 30
0.0
 11
204.47644
 21
274.898282
 31
0.0
  0
CIRCLE
  8
0
  6
CONTINUOUS
 62
     7
  5
9B
 10
165.97644
 20
116.898282
 30
0.0
 40
12.0
210
0.0
220
0.0
230
1.0
  0
CIRCLE
  8
0
  6
CONTINUOUS
 62
     7
  5
9C
 10
165.97644
 20
116.898282
 30
0.0
 40
12.5
210
0.0
220
0.0
230
1.0
  0
CIRCLE
  8
0
  6
CONTINUOUS
 62
     7
  5
9D
 10
165.97644
 20
116.898282
 30
0.0
 40
4.5
210
0.0
220
0.0
230
1.0
  0
CIRCLE
  8
0
  6
CONTINUOUS
 62
     7
  5
9E
 10
165.97644
 20
171.898282
 30
0.0
 40
4.25
210
0.0
220
0.0
230
1.0
  0
CIRCLE
  8
0
  6
CONTINUOUS
 62
     7
  5
9F
 10
165.97644
 20
61.898282
 30
0.0
 40
4.25
210
0.0
220
0.0
230
1.0
  0
LINE
  8
0
  6
CONTINUOUS
 62
     7
  5
A0
 10
205.47644
 20
191.898282
 30
0.0
 11
205.47644
 21
41.898282
 31
0.0
  0
LINE
  8
0
  6
CONTINUOUS
 62
     7
  5
A1
 10
205.47644
 20
41.898282
 30
0.0
 11
127.97644
 21
41.898282
 31
0.0
  0
LINE
  8
0
  6
CONTINUOUS
 62
     7
  5
A2
 10
127.97644
 20
191.898282
 30
0.0
 11
127.97644
 21
41.898282
 31
0.0
  0
LINE
  8
0
  6
CONTINUOUS
 62
     7
  5
A3
 10
127.97644
 20
191.898282
 30
0.0
 11
205.47644
 21
191.898282
 31
0.0
  0
LINE
  8
0
  6
CONTINUOUS
 62
     7
  5
A4
 10
126.47644
 20
41.898282
 30
0.0
 11
126.47644
 21
191.898282
 31
0.0
  0
LINE
  8
0
  6
CONTINUOUS
 62
     7
  5
A5
 10
126.47644
 20
191.898282
 30
0.0
 11
127.97644
 21
191.898282
 31
0.0
  0
LINE
  8
0
  6
CONTINUOUS
 62
     7
  5
A6
 10
127.97644
 20
41.898282
 30
0.0
 11
126.47644
 21
41.898282
 31
0.0
  0
LINE
  8
0
  6
CONTINUOUS
 62
     7
  5
A7
 10
169.97644
 20
192.898282
 30
0.0
 11
165.97644
 21
192.898282
 31
0.0
  0
LINE
  8
0
  6
CONTINUOUS
 62
     7
  5
A8
 10
165.97644
 20
192.898282
 30
0.0
 11
161.97644
 21
192.898282
 31
0.0
  0
LINE
  8
0
  6
CONTINUOUS
 62
     7
  5
A9
 10
136.47644
 20
274.898282
 30
0.0
 11
136.47644
 21
191.898282
 31
0.0
  0
LINE
  8
0
  6
CONTINUOUS
 62
     7
  5
AA
 10
136.47644
 20
41.898282
 30
0.0
 11
136.47644
 21
40.898282
 31
0.0
  0
LINE
  8
0
  6
CONTINUOUS
 62
     7
  5
AB
 10
152.47644
 20
40.898282
 30
0.0
 11
152.47644
 21
41.898282
 31
0.0
  0
LINE
  8
0
  6
CONTINUOUS
 62
     7
  5
AC
 10
152.47644
 20
191.898282
 30
0.0
 11
152.47644
 21
274.898282
 31
0.0
  0
LINE
  8
0
  6
CONTINUOUS
 62
     7
  5
AD
 10
179.47644
 20
274.898282
 30
0.0
 11
179.47644
 21
191.898282
 31
0.0
  0
LINE
  8
0
  6
CONTINUOUS
 62
     7
  5
AE
 10
179.47644
 20
41.898282
 30
0.0
 11
179.47644
 21
40.898282
 31
0.0
  0
LINE
  8
0
  6
CONTINUOUS
 62
     7
  5
AF
 10
195.47644
 20
40.898282
 30
0.0
 11
195.47644
 21
41.898282
 31
0.0
  0
LINE
  8
0
  6
CONTINUOUS
 62
     7
  5
B0
 10
195.47644
 20
191.898282
 30
0.0
 11
195.47644
 21
274.898282
 31
0.0
  0
LINE
  8
0
  6
CONTINUOUS
 62
     7
  5
B1
 10
160.97644
 20
40.898282
 30
0.0
 11
160.97644
 21
41.898282
 31
0.0
  0
LINE
  8
0
  6
CONTINUOUS
 62
     7
  5
B2
 10
160.97644
 20
191.898282
 30
0.0
 11
160.97644
 21
274.898282
 31
0.0
  0
LINE
  8
0
  6
CONTINUOUS
 62
     7
  5
B3
 10
161.97644
 20
41.898282
 30
0.0
 11
161.97644
 21
40.898282
 31
0.0
  0
LINE
  8
0
  6
CONTINUOUS
 62
     7
  5
B4
 10
169.97644
 20
40.898282
 30
0.0
 11
169.97644
 21
41.898282
 31
0.0
  0
LINE
  8
0
  6
CONTINUOUS
 62
     7
  5
B5
 10
169.97644
 20
191.898282
 30
0.0
 11
169.97644
 21
192.898282
 31
0.0
  0
LINE
  8
0
  6
CONTINUOUS
 62
     7
  5
B6
 10
161.97644
 20
192.898282
 30
0.0
 11
161.97644
 21
191.898282
 31
0.0
  0
ENDBLK
  8
0
  5
B7
  0
BLOCK
  8
0
  5
BA
  2
AID295
 70
     0
 10
0.0
 20
0.0
 30
0.0
  3
#auxiliary draft view
  0
LINE
  8
0
  6
CONTINUOUS
 62
     7
  5
BB
 10
15.064774
 20
82.398282
 30
0.0
 11
23.064774
 21
82.398282
 31
0.0
  0
LINE
  8
0
  6
CONTINUOUS
 62
     7
  5
BC
 10
23.064774
 20
72.398282
 30
0.0
 11
15.064774
 21
72.398282
 31
0.0
  0
LINE
  8
0
  6
CONTINUOUS
 62
     7
  5
BD
 10
15.064774
 20
72.398282
 30
0.0
 11
15.064774
 21
82.398282
 31
0.0
  0
LINE
  8
0
  6
CONTINUOUS
 62
     7
  5
BE
 10
23.064774
 20
151.398282
 30
0.0
 11
15.064774
 21
151.398282
 31
0.0
  0
LINE
  8
0
  6
CONTINUOUS
 62
     7
  5
BF
 10
15.064774
 20
151.398282
 30
0.0
 11
15.064774
 21
82.398282
 31
0.0
  0
LINE
  8
0
  6
CONTINUOUS
 62
     7
  5
C0
 10
15.064774
 20
161.398282
 30
0.0
 11
23.064774
 21
161.398282
 31
0.0
  0
LINE
  8
0
  6
CONTINUOUS
 62
     7
  5
C1
 10
15.064774
 20
151.398282
 30
0.0
 11
15.064774
 21
161.398282
 31
0.0
  0
LINE
  8
0
  6
CONTINUOUS
 62
     7
  5
C2
 10
10.064774
 20
161.148282
 30
0.0
 11
10.064774
 21
152.648282
 31
0.0
  0
LINE
  8
0
  6
CONTINUOUS
 62
     7
  5
C3
 10
10.064774
 20
72.648282
 30
0.0
 11
10.064774
 21
81.148282
 31
0.0
  0
LINE
  8
0
  6
CONTINUOUS
 62
     7
  5
C4
 10
35.814774
 20
274.898282
 30
0.0
 11
35.814774
 21
280.098282
 31
0.0
  0
LINE
  8
0
  6
CONTINUOUS
 62
     7
  5
C5
 10
27.814774
 20
280.098282
 30
0.0
 11
35.814774
 21
280.098282
 31
0.0
  0
LINE
  8
0
  6
CONTINUOUS
 62
     7
  5
C6
 10
27.814774
 20
284.698282
 30
0.0
 11
27.814774
 21
280.098282
 31
0.0
  0
LINE
  8
0
  6
CONTINUOUS
 62
     7
  5
C7
 10
27.814774
 20
284.698282
 30
0.0
 11
35.814774
 21
284.698282
 31
0.0
  0
LINE
  8
0
  6
CONTINUOUS
 62
     7
  5
C8
 10
35.814774
 20
289.898282
 30
0.0
 11
53.314774
 21
289.898282
 31
0.0
  0
LINE
  8
0
  6
CONTINUOUS
 62
     7
  5
C9
 10
53.314774
 20
289.898282
 30
0.0
 11
53.314774
 21
284.698282
 31
0.0
  0
LINE
  8
0
  6
CONTINUOUS
 62
     7
  5
CA
 10
61.314774
 20
284.698282
 30
0.0
 11
53.314774
 21
284.698282
 31
0.0
  0
LINE
  8
0
  6
CONTINUOUS
 62
     7
  5
CB
 10
61.314774
 20
280.098282
 30
0.0
 11
61.314774
 21
284.698282
 31
0.0
  0
LINE
  8
0
  6
CONTINUOUS
 62
     7
  5
CC
 10
61.314774
 20
280.098282
 30
0.0
 11
53.314774
 21
280.098282
 31
0.0
  0
LINE
  8
0
  6
CONTINUOUS
 62
     7
  5
CD
 10
53.314774
 20
274.898282
 30
0.0
 11
53.314774
 21
280.098282
 31
0.0
  0
LINE
  8
0
  6
CONTINUOUS
 62
     7
  5
CE
 10
35.814774
 20
274.898282
 30
0.0
 11
53.314774
 21
274.898282
 31
0.0
  0
LINE
  8
0
  6
CONTINUOUS
 62
     7
  5
CF
 10
35.814774
 20
289.898282
 30
0.0
 11
35.814774
 21
284.698282
 31
0.0
  0
LINE
  8
0
  6
CONTINUOUS
 62
     7
  5
D0
 10
26.314774
 20
280.098282
 30
0.0
 11
27.814774
 21
280.098282
 31
0.0
  0
LINE
  8
0
  6
CONTINUOUS
 62
     7
  5
D1
 10
26.314774
 20
280.098282
 30
0.0
 11
26.314774
 21
284.698282
 31
0.0
  0
LINE
  8
0
  6
CONTINUOUS
 62
     7
  5
D2
 10
26.314774
 20
284.698282
 30
0.0
 11
27.814774
 21
284.698282
 31
0.0
  0
LINE
  8
0
  6
CONTINUOUS
 62
     7
  5
D3
 10
62.814774
 20
284.698282
 30
0.0
 11
61.314774
 21
284.698282
 31
0.0
  0
LINE
  8
0
  6
CONTINUOUS
 62
     7
  5
D4
 10
62.814774
 20
284.698282
 30
0.0
 11
62.814774
 21
280.098282
 31
0.0
  0
LINE
  8
0
  6
CONTINUOUS
 62
     7
  5
D5
 10
62.814774
 20
280.098282
 30
0.0
 11
61.314774
 21
280.098282
 31
0.0
  0
LINE
  8
0
  6
CONTINUOUS
 62
     7
  5
D6
 10
27.814774
 20
35.698282
 30
0.0
 11
27.814774
 21
31.098282
 31
0.0
  0
LINE
  8
0
  6
CONTINUOUS
 62
     7
  5
D7
 10
26.314774
 20
31.098282
 30
0.0
 11
27.814774
 21
31.098282
 31
0.0
  0
LINE
  8
0
  6
CONTINUOUS
 62
     7
  5
D8
 10
26.314774
 20
31.098282
 30
0.0
 11
26.314774
 21
35.698282
 31
0.0
  0
LINE
  8
0
  6
CONTINUOUS
 62
     7
  5
D9
 10
26.314774
 20
35.698282
 30
0.0
 11
27.814774
 21
35.698282
 31
0.0
  0
LINE
  8
0
  6
CONTINUOUS
 62
     7
  5
DA
 10
62.814774
 20
35.698282
 30
0.0
 11
61.314774
 21
35.698282
 31
0.0
  0
LINE
  8
0
  6
CONTINUOUS
 62
     7
  5
DB
 10
62.814774
 20
35.698282
 30
0.0
 11
62.814774
 21
31.098282
 31
0.0
  0
LINE
  8
0
  6
CONTINUOUS
 62
     7
  5
DC
 10
61.314774
 20
31.098282
 30
0.0
 11
61.314774
 21
35.698282
 31
0.0
  0
LINE
  8
0
  6
CONTINUOUS
 62
     7
  5
DD
 10
62.814774
 20
31.098282
 30
0.0
 11
61.314774
 21
31.098282
 31
0.0
  0
LINE
  8
0
  6
CONTINUOUS
 62
     7
  5
DE
 10
35.814774
 20
25.898282
 30
0.0
 11
35.814774
 21
31.098282
 31
0.0
  0
LINE
  8
0
  6
CONTINUOUS
 62
     7
  5
DF
 10
35.814774
 20
40.898282
 30
0.0
 11
53.314774
 21
40.898282
 31
0.0
  0
LINE
  8
0
  6
CONTINUOUS
 62
     7
  5
E0
 10
53.314774
 20
40.898282
 30
0.0
 11
53.314774
 21
35.698282
 31
0.0
  0
LINE
  8
0
  6
CONTINUOUS
 62
     7
  5
E1
 10
61.314774
 20
35.698282
 30
0.0
 11
53.314774
 21
35.698282
 31
0.0
  0
LINE
  8
0
  6
CONTINUOUS
 62
     7
  5
E2
 10
53.314774
 20
25.898282
 30
0.0
 11
53.314774
 21
31.098282
 31
0.0
  0
LINE
  8
0
  6
CONTINUOUS
 62
     7
  5
E3
 10
35.814774
 20
25.898282
 30
0.0
 11
53.314774
 21
25.898282
 31
0.0
  0
LINE
  8
0
  6
CONTINUOUS
 62
     7
  5
E4
 10
27.814774
 20
31.098282
 30
0.0
 11
35.814774
 21
31.098282
 31
0.0
  0
LINE
  8
0
  6
CONTINUOUS
 62
     7
  5
E5
 10
61.314774
 20
31.098282
 30
0.0
 11
53.314774
 21
31.098282
 31
0.0
  0
LINE
  8
0
  6
CONTINUOUS
 62
     7
  5
E6
 10
35.814774
 20
40.898282
 30
0.0
 11
35.814774
 21
35.698282
 31
0.0
  0
LINE
  8
0
  6
CONTINUOUS
 62
     7
  5
E7
 10
27.814774
 20
35.698282
 30
0.0
 11
35.814774
 21
35.698282
 31
0.0
  0
LINE
  8
0
  6
CONTINUOUS
 62
     9
  5
E8
 10
58.314774
 20
289.898282
 30
0.0
 11
58.314774
 21
284.698282
 31
0.0
  0
LINE
  8
0
  6
CONTINUOUS
 62
     7
  5
E9
 10
53.314774
 20
289.898282
 30
0.0
 11
58.314774
 21
289.898282
 31
0.0
  0
LINE
  8
0
  6
CONTINUOUS
 62
     9
  5
EA
 10
30.814774
 20
289.898282
 30
0.0
 11
30.814774
 21
284.698282
 31
0.0
  0
LINE
  8
0
  6
CONTINUOUS
 62
     7
  5
EB
 10
30.814774
 20
289.898282
 30
0.0
 11
35.814774
 21
289.898282
 31
0.0
  0
LINE
  8
0
  6
CONTINUOUS
 62
     9
  5
EC
 10
30.814774
 20
274.898282
 30
0.0
 11
30.814774
 21
280.098282
 31
0.0
  0
LINE
  8
0
  6
CONTINUOUS
 62
     7
  5
ED
 10
35.814774
 20
274.898282
 30
0.0
 11
30.814774
 21
274.898282
 31
0.0
  0
LINE
  8
0
  6
CONTINUOUS
 62
     9
  5
EE
 10
58.314774
 20
274.898282
 30
0.0
 11
58.314774
 21
280.098282
 31
0.0
  0
LINE
  8
0
  6
CONTINUOUS
 62
     7
  5
EF
 10
58.314774
 20
274.898282
 30
0.0
 11
53.314774
 21
274.898282
 31
0.0
  0
LINE
  8
0
  6
CONTINUOUS
 62
     9
  5
F0
 10
30.814774
 20
25.898282
 30
0.0
 11
30.814774
 21
31.098282
 31
0.0
  0
LINE
  8
0
  6
CONTINUOUS
 62
     7
  5
F1
 10
35.814774
 20
25.898282
 30
0.0
 11
30.814774
 21
25.898282
 31
0.0
  0
LINE
  8
0
  6
CONTINUOUS
 62
     9
  5
F2
 10
58.314774
 20
25.898282
 30
0.0
 11
58.314774
 21
31.098282
 31
0.0
  0
LINE
  8
0
  6
CONTINUOUS
 62
     7
  5
F3
 10
58.314774
 20
25.898282
 30
0.0
 11
53.314774
 21
25.898282
 31
0.0
  0
LINE
  8
0
  6
CONTINUOUS
 62
     9
  5
F4
 10
58.314774
 20
40.898282
 30
0.0
 11
58.314774
 21
35.698282
 31
0.0
  0
LINE
  8
0
  6
CONTINUOUS
 62
     7
  5
F5
 10
53.314774
 20
40.898282
 30
0.0
 11
58.314774
 21
40.898282
 31
0.0
  0
LINE
  8
0
  6
CONTINUOUS
 62
     9
  5
F6
 10
30.814774
 20
40.898282
 30
0.0
 11
30.814774
 21
35.698282
 31
0.0
  0
LINE
  8
0
  6
CONTINUOUS
 62
     7
  5
F7
 10
30.814774
 20
40.898282
 30
0.0
 11
35.814774
 21
40.898282
 31
0.0
  0
LINE
  8
0
  6
CONTINUOUS
 62
     7
  5
F8
 10
26.314774
 20
289.898282
 30
0.0
 11
26.314774
 21
284.698282
 31
0.0
  0
LINE
  8
0
  6
CONTINUOUS
 62
     7
  5
F9
 10
30.814774
 20
289.898282
 30
0.0
 11
26.314774
 21
289.898282
 31
0.0
  0
LINE
  8
0
  6
CONTINUOUS
 62
     7
  5
FA
 10
26.314774
 20
274.898282
 30
0.0
 11
26.314774
 21
280.098282
 31
0.0
  0
LINE
  8
0
  6
CONTINUOUS
 62
     7
  5
FB
 10
26.314774
 20
274.898282
 30
0.0
 11
30.814774
 21
274.898282
 31
0.0
  0
LINE
  8
0
  6
CONTINUOUS
 62
     7
  5
FC
 10
62.814774
 20
289.898282
 30
0.0
 11
62.814774
 21
284.698282
 31
0.0
  0
LINE
  8
0
  6
CONTINUOUS
 62
     7
  5
FD
 10
62.814774
 20
289.898282
 30
0.0
 11
58.314774
 21
289.898282
 31
0.0
  0
LINE
  8
0
  6
CONTINUOUS
 62
     7
  5
FE
 10
62.814774
 20
274.898282
 30
0.0
 11
62.814774
 21
280.098282
 31
0.0
  0
LINE
  8
0
  6
CONTINUOUS
 62
     7
  5
FF
 10
58.314774
 20
274.898282
 30
0.0
 11
62.814774
 21
274.898282
 31
0.0
  0
LINE
  8
0
  6
CONTINUOUS
 62
     7
  5
100
 10
26.314774
 20
40.898282
 30
0.0
 11
26.314774
 21
35.698282
 31
0.0
  0
LINE
  8
0
  6
CONTINUOUS
 62
     7
  5
101
 10
30.814774
 20
40.898282
 30
0.0
 11
26.314774
 21
40.898282
 31
0.0
  0
LINE
  8
0
  6
CONTINUOUS
 62
     7
  5
102
 10
26.314774
 20
25.898282
 30
0.0
 11
26.314774
 21
31.098282
 31
0.0
  0
LINE
  8
0
  6
CONTINUOUS
 62
     7
  5
103
 10
26.314774
 20
25.898282
 30
0.0
 11
30.814774
 21
25.898282
 31
0.0
  0
LINE
  8
0
  6
CONTINUOUS
 62
     7
  5
104
 10
62.814774
 20
40.898282
 30
0.0
 11
62.814774
 21
35.698282
 31
0.0
  0
LINE
  8
0
  6
CONTINUOUS
 62
     7
  5
105
 10
62.814774
 20
40.898282
 30
0.0
 11
58.314774
 21
40.898282
 31
0.0
  0
LINE
  8
0
  6
CONTINUOUS
 62
     7
  5
106
 10
62.814774
 20
25.898282
 30
0.0
 11
62.814774
 21
31.098282
 31
0.0
  0
LINE
  8
0
  6
CONTINUOUS
 62
     7
  5
107
 10
58.314774
 20
25.898282
 30
0.0
 11
62.814774
 21
25.898282
 31
0.0
  0
CIRCLE
  8
0
  6
CONTINUOUS
 62
     7
  5
108
 10
28.314774
 20
155.898282
 30
0.0
 40
3.0
210
0.0
220
0.0
230
1.0
  0
CIRCLE
  8
0
  6
CONTINUOUS
 62
     7
  5
109
 10
28.314774
 20
77.898282
 30
0.0
 40
3.0
210
0.0
220
0.0
230
1.0
  0
CIRCLE
  8
0
  6
CONTINUOUS
 62
     7
  5
10A
 10
60.814774
 20
155.898282
 30
0.0
 40
3.0
210
0.0
220
0.0
230
1.0
  0
CIRCLE
  8
0
  6
CONTINUOUS
 62
     7
  5
10B
 10
60.814774
 20
77.898282
 30
0.0
 40
3.0
210
0.0
220
0.0
230
1.0
  0
CIRCLE
  8
0
  6
CONTINUOUS
 62
     7
  5
10C
 10
44.564774
 20
140.148282
 30
0.0
 40
2.51
210
0.0
220
0.0
230
1.0
  0
CIRCLE
  8
0
  6
CONTINUOUS
 62
     7
  5
10D
 10
44.564774
 20
93.648282
 30
0.0
 40
2.51
210
0.0
220
0.0
230
1.0
  0
LINE
  8
0
  6
CONTINUOUS
 62
     7
  5
10E
 10
23.064774
 20
41.898282
 30
0.0
 11
66.064774
 21
41.898282
 31
0.0
  0
LINE
  8
0
  6
CONTINUOUS
 62
     7
  5
10F
 10
66.064774
 20
191.898282
 30
0.0
 11
66.064774
 21
41.898282
 31
0.0
  0
LINE
  8
0
  6
CONTINUOUS
 62
     7
  5
110
 10
23.064774
 20
191.898282
 30
0.0
 11
23.064774
 21
41.898282
 31
0.0
  0
LINE
  8
0
  6
CONTINUOUS
 62
     7
  5
111
 10
23.064774
 20
191.898282
 30
0.0
 11
66.064774
 21
191.898282
 31
0.0
  0
CIRCLE
  8
0
  6
CONTINUOUS
 62
     7
  5
112
 10
28.314774
 20
77.898282
 30
0.0
 40
2.459
210
0.0
220
0.0
230
1.0
  0
CIRCLE
  8
0
  6
CONTINUOUS
 62
     7
  5
113
 10
28.314774
 20
155.898282
 30
0.0
 40
2.459
210
0.0
220
0.0
230
1.0
  0
CIRCLE
  8
0
  6
CONTINUOUS
 62
     7
  5
114
 10
60.814774
 20
155.898282
 30
0.0
 40
2.459
210
0.0
220
0.0
230
1.0
  0
CIRCLE
  8
0
  6
CONTINUOUS
 62
     7
  5
115
 10
60.814774
 20
77.898282
 30
0.0
 40
2.459
210
0.0
220
0.0
230
1.0
  0
LINE
  8
0
  6
CONTINUOUS
 62
     7
  5
116
 10
66.064774
 20
134.398282
 30
0.0
 11
73.064774
 21
134.398282
 31
0.0
  0
LINE
  8
0
  6
CONTINUOUS
 62
     7
  5
117
 10
73.064774
 20
99.398282
 30
0.0
 11
73.064774
 21
134.398282
 31
0.0
  0
LINE
  8
0
  6
CONTINUOUS
 62
     7
  5
118
 10
66.064774
 20
99.398282
 30
0.0
 11
73.064774
 21
99.398282
 31
0.0
  0
LINE
  8
0
  6
CONTINUOUS
 62
     7
  5
119
 10
74.564774
 20
132.898282
 30
0.0
 11
73.064774
 21
134.398282
 31
0.0
  0
LINE
  8
0
  6
CONTINUOUS
 62
     7
  5
11A
 10
74.564774
 20
132.898282
 30
0.0
 11
74.564774
 21
100.898282
 31
0.0
  0
LINE
  8
0
  6
CONTINUOUS
 62
     7
  5
11B
 10
73.064774
 20
99.398282
 30
0.0
 11
74.564774
 21
100.898282
 31
0.0
  0
LINE
  8
0
  6
CONTINUOUS
 62
     7
  5
11C
 10
15.064774
 20
161.148282
 30
0.0
 11
10.064774
 21
161.148282
 31
0.0
  0
LINE
  8
0
  6
CONTINUOUS
 62
     7
  5
11D
 10
10.064774
 20
152.648282
 30
0.0
 11
15.064774
 21
152.648282
 31
0.0
  0
LINE
  8
0
  6
CONTINUOUS
 62
     7
  5
11E
 10
15.064774
 20
81.148282
 30
0.0
 11
10.064774
 21
81.148282
 31
0.0
  0
LINE
  8
0
  6
CONTINUOUS
 62
     7
  5
11F
 10
10.064774
 20
72.648282
 30
0.0
 11
15.064774
 21
72.648282
 31
0.0
  0
LINE
  8
0
  6
CONTINUOUS
 62
     7
  5
120
 10
38.064774
 20
274.898282
 30
0.0
 11
38.064774
 21
191.898282
 31
0.0
  0
LINE
  8
0
  6
CONTINUOUS
 62
     7
  5
121
 10
38.064774
 20
41.898282
 30
0.0
 11
38.064774
 21
40.898282
 31
0.0
  0
LINE
  8
0
  6
CONTINUOUS
 62
     7
  5
122
 10
54.064774
 20
40.898282
 30
0.0
 11
54.064774
 21
41.898282
 31
0.0
  0
LINE
  8
0
  6
CONTINUOUS
 62
     7
  5
123
 10
54.064774
 20
191.898282
 30
0.0
 11
54.064774
 21
274.898282
 31
0.0
  0
LINE
  8
0
  6
CONTINUOUS
 62
     7
  5
124
 10
60.064774
 20
40.898282
 30
0.0
 11
60.064774
 21
41.898282
 31
0.0
  0
LINE
  8
0
  6
CONTINUOUS
 62
     7
  5
125
 10
60.064774
 20
191.898282
 30
0.0
 11
60.064774
 21
274.898282
 31
0.0
  0
LINE
  8
0
  6
CONTINUOUS
 62
     7
  5
126
 10
31.064774
 20
274.898282
 30
0.0
 11
31.064774
 21
191.898282
 31
0.0
  0
LINE
  8
0
  6
CONTINUOUS
 62
     7
  5
127
 10
31.064774
 20
41.898282
 30
0.0
 11
31.064774
 21
40.898282
 31
0.0
  0
ENDBLK
  8
0
  5
128
  0
BLOCK
  8
0
  5
12B
  2
AID517
 70
     0
 10
0.0
 20
0.0
 30
0.0
  3
#auxiliary draft view
  0
LINE
  8
0
  6
CONTINUOUS
 62
     7
  5
12C
 10
321.834573
 20
151.398282
 30
0.0
 11
313.834573
 21
151.398282
 31
0.0
  0
LINE
  8
0
  6
CONTINUOUS
 62
     7
  5
12D
 10
313.834573
 20
161.398282
 30
0.0
 11
321.834573
 21
161.398282
 31
0.0
  0
LINE
  8
0
  6
CONTINUOUS
 62
     7
  5
12E
 10
321.834573
 20
161.398282
 30
0.0
 11
321.834573
 21
151.398282
 31
0.0
  0
LINE
  8
0
  6
CONTINUOUS
 62
     7
  5
12F
 10
313.834573
 20
82.398282
 30
0.0
 11
321.834573
 21
82.398282
 31
0.0
  0
LINE
  8
0
  6
CONTINUOUS
 62
     7
  5
130
 10
321.834573
 20
82.398282
 30
0.0
 11
321.834573
 21
151.398282
 31
0.0
  0
LINE
  8
0
  6
CONTINUOUS
 62
     7
  5
131
 10
321.834573
 20
72.398282
 30
0.0
 11
313.834573
 21
72.398282
 31
0.0
  0
LINE
  8
0
  6
CONTINUOUS
 62
     7
  5
132
 10
321.834573
 20
82.398282
 30
0.0
 11
321.834573
 21
72.398282
 31
0.0
  0
LINE
  8
0
  6
CONTINUOUS
 62
     7
  5
133
 10
326.834573
 20
72.648282
 30
0.0
 11
326.834573
 21
81.148282
 31
0.0
  0
LINE
  8
0
  6
CONTINUOUS
 62
     7
  5
134
 10
326.834573
 20
161.148282
 30
0.0
 11
326.834573
 21
152.648282
 31
0.0
  0
LINE
  8
0
  6
CONTINUOUS
 62
     7
  5
135
 10
310.584573
 20
35.698282
 30
0.0
 11
310.584573
 21
31.098282
 31
0.0
  0
LINE
  8
0
  6
CONTINUOUS
 62
     7
  5
136
 10
309.084573
 20
31.098282
 30
0.0
 11
309.084573
 21
35.698282
 31
0.0
  0
LINE
  8
0
  6
CONTINUOUS
 62
     7
  5
137
 10
310.584573
 20
35.698282
 30
0.0
 11
309.084573
 21
35.698282
 31
0.0
  0
LINE
  8
0
  6
CONTINUOUS
 62
     7
  5
138
 10
310.584573
 20
31.098282
 30
0.0
 11
309.084573
 21
31.098282
 31
0.0
  0
LINE
  8
0
  6
CONTINUOUS
 62
     7
  5
139
 10
275.584573
 20
35.698282
 30
0.0
 11
275.584573
 21
31.098282
 31
0.0
  0
LINE
  8
0
  6
CONTINUOUS
 62
     7
  5
13A
 10
283.584573
 20
40.898282
 30
0.0
 11
301.084573
 21
40.898282
 31
0.0
  0
LINE
  8
0
  6
CONTINUOUS
 62
     7
  5
13B
 10
309.084573
 20
35.698282
 30
0.0
 11
301.084573
 21
35.698282
 31
0.0
  0
LINE
  8
0
  6
CONTINUOUS
 62
     7
  5
13C
 10
283.584573
 20
40.898282
 30
0.0
 11
283.584573
 21
35.698282
 31
0.0
  0
LINE
  8
0
  6
CONTINUOUS
 62
     7
  5
13D
 10
283.584573
 20
25.898282
 30
0.0
 11
283.584573
 21
31.098282
 31
0.0
  0
LINE
  8
0
  6
CONTINUOUS
 62
     7
  5
13E
 10
309.084573
 20
31.098282
 30
0.0
 11
301.084573
 21
31.098282
 31
0.0
  0
LINE
  8
0
  6
CONTINUOUS
 62
     7
  5
13F
 10
275.584573
 20
31.098282
 30
0.0
 11
283.584573
 21
31.098282
 31
0.0
  0
LINE
  8
0
  6
CONTINUOUS
 62
     7
  5
140
 10
301.084573
 20
25.898282
 30
0.0
 11
301.084573
 21
31.098282
 31
0.0
  0
LINE
  8
0
  6
CONTINUOUS
 62
     7
  5
141
 10
301.084573
 20
40.898282
 30
0.0
 11
301.084573
 21
35.698282
 31
0.0
  0
LINE
  8
0
  6
CONTINUOUS
 62
     7
  5
142
 10
283.584573
 20
25.898282
 30
0.0
 11
301.084573
 21
25.898282
 31
0.0
  0
LINE
  8
0
  6
CONTINUOUS
 62
     7
  5
143
 10
275.584573
 20
35.698282
 30
0.0
 11
283.584573
 21
35.698282
 31
0.0
  0
LINE
  8
0
  6
CONTINUOUS
 62
     7
  5
144
 10
274.084573
 20
31.098282
 30
0.0
 11
274.084573
 21
35.698282
 31
0.0
  0
LINE
  8
0
  6
CONTINUOUS
 62
     7
  5
145
 10
274.084573
 20
31.098282
 30
0.0
 11
275.584573
 21
31.098282
 31
0.0
  0
LINE
  8
0
  6
CONTINUOUS
 62
     7
  5
146
 10
274.084573
 20
35.698282
 30
0.0
 11
275.584573
 21
35.698282
 31
0.0
  0
LINE
  8
0
  6
CONTINUOUS
 62
     7
  5
147
 10
310.584573
 20
284.698282
 30
0.0
 11
310.584573
 21
280.098282
 31
0.0
  0
LINE
  8
0
  6
CONTINUOUS
 62
     7
  5
148
 10
309.084573
 20
280.098282
 30
0.0
 11
309.084573
 21
284.698282
 31
0.0
  0
LINE
  8
0
  6
CONTINUOUS
 62
     7
  5
149
 10
310.584573
 20
280.098282
 30
0.0
 11
309.084573
 21
280.098282
 31
0.0
  0
LINE
  8
0
  6
CONTINUOUS
 62
     7
  5
14A
 10
310.584573
 20
284.698282
 30
0.0
 11
309.084573
 21
284.698282
 31
0.0
  0
LINE
  8
0
  6
CONTINUOUS
 62
     7
  5
14B
 10
275.584573
 20
284.698282
 30
0.0
 11
275.584573
 21
280.098282
 31
0.0
  0
LINE
  8
0
  6
CONTINUOUS
 62
     7
  5
14C
 10
274.084573
 20
280.098282
 30
0.0
 11
275.584573
 21
280.098282
 31
0.0
  0
LINE
  8
0
  6
CONTINUOUS
 62
     7
  5
14D
 10
274.084573
 20
280.098282
 30
0.0
 11
274.084573
 21
284.698282
 31
0.0
  0
LINE
  8
0
  6
CONTINUOUS
 62
     7
  5
14E
 10
274.084573
 20
284.698282
 30
0.0
 11
275.584573
 21
284.698282
 31
0.0
  0
LINE
  8
0
  6
CONTINUOUS
 62
     7
  5
14F
 10
283.584573
 20
289.898282
 30
0.0
 11
301.084573
 21
289.898282
 31
0.0
  0
LINE
  8
0
  6
CONTINUOUS
 62
     7
  5
150
 10
283.584573
 20
274.898282
 30
0.0
 11
301.084573
 21
274.898282
 31
0.0
  0
LINE
  8
0
  6
CONTINUOUS
 62
     7
  5
151
 10
283.584573
 20
274.898282
 30
0.0
 11
283.584573
 21
280.098282
 31
0.0
  0
LINE
  8
0
  6
CONTINUOUS
 62
     7
  5
152
 10
275.584573
 20
280.098282
 30
0.0
 11
283.584573
 21
280.098282
 31
0.0
  0
LINE
  8
0
  6
CONTINUOUS
 62
     7
  5
153
 10
283.584573
 20
289.898282
 30
0.0
 11
283.584573
 21
284.698282
 31
0.0
  0
LINE
  8
0
  6
CONTINUOUS
 62
     7
  5
154
 10
301.084573
 20
274.898282
 30
0.0
 11
301.084573
 21
280.098282
 31
0.0
  0
LINE
  8
0
  6
CONTINUOUS
 62
     7
  5
155
 10
275.584573
 20
284.698282
 30
0.0
 11
283.584573
 21
284.698282
 31
0.0
  0
LINE
  8
0
  6
CONTINUOUS
 62
     7
  5
156
 10
301.084573
 20
289.898282
 30
0.0
 11
301.084573
 21
284.698282
 31
0.0
  0
LINE
  8
0
  6
CONTINUOUS
 62
     7
  5
157
 10
309.084573
 20
280.098282
 30
0.0
 11
301.084573
 21
280.098282
 31
0.0
  0
LINE
  8
0
  6
CONTINUOUS
 62
     7
  5
158
 10
309.084573
 20
284.698282
 30
0.0
 11
301.084573
 21
284.698282
 31
0.0
  0
LINE
  8
0
  6
CONTINUOUS
 62
     9
  5
159
 10
306.084573
 20
40.898282
 30
0.0
 11
306.084573
 21
35.698282
 31
0.0
  0
LINE
  8
0
  6
CONTINUOUS
 62
     7
  5
15A
 10
301.084573
 20
40.898282
 30
0.0
 11
306.084573
 21
40.898282
 31
0.0
  0
LINE
  8
0
  6
CONTINUOUS
 62
     9
  5
15B
 10
306.084573
 20
25.898282
 30
0.0
 11
306.084573
 21
31.098282
 31
0.0
  0
LINE
  8
0
  6
CONTINUOUS
 62
     7
  5
15C
 10
306.084573
 20
25.898282
 30
0.0
 11
301.084573
 21
25.898282
 31
0.0
  0
LINE
  8
0
  6
CONTINUOUS
 62
     9
  5
15D
 10
278.584573
 20
25.898282
 30
0.0
 11
278.584573
 21
31.098282
 31
0.0
  0
LINE
  8
0
  6
CONTINUOUS
 62
     7
  5
15E
 10
283.584573
 20
25.898282
 30
0.0
 11
278.584573
 21
25.898282
 31
0.0
  0
LINE
  8
0
  6
CONTINUOUS
 62
     9
  5
15F
 10
278.584573
 20
40.898282
 30
0.0
 11
278.584573
 21
35.698282
 31
0.0
  0
LINE
  8
0
  6
CONTINUOUS
 62
     7
  5
160
 10
278.584573
 20
40.898282
 30
0.0
 11
283.584573
 21
40.898282
 31
0.0
  0
LINE
  8
0
  6
CONTINUOUS
 62
     9
  5
161
 10
278.584573
 20
289.898282
 30
0.0
 11
278.584573
 21
284.698282
 31
0.0
  0
LINE
  8
0
  6
CONTINUOUS
 62
     7
  5
162
 10
278.584573
 20
289.898282
 30
0.0
 11
283.584573
 21
289.898282
 31
0.0
  0
LINE
  8
0
  6
CONTINUOUS
 62
     9
  5
163
 10
306.084573
 20
274.898282
 30
0.0
 11
306.084573
 21
280.098282
 31
0.0
  0
LINE
  8
0
  6
CONTINUOUS
 62
     7
  5
164
 10
306.084573
 20
274.898282
 30
0.0
 11
301.084573
 21
274.898282
 31
0.0
  0
LINE
  8
0
  6
CONTINUOUS
 62
     9
  5
165
 10
306.084573
 20
289.898282
 30
0.0
 11
306.084573
 21
284.698282
 31
0.0
  0
LINE
  8
0
  6
CONTINUOUS
 62
     7
  5
166
 10
301.084573
 20
289.898282
 30
0.0
 11
306.084573
 21
289.898282
 31
0.0
  0
LINE
  8
0
  6
CONTINUOUS
 62
     9
  5
167
 10
278.584573
 20
274.898282
 30
0.0
 11
278.584573
 21
280.098282
 31
0.0
  0
LINE
  8
0
  6
CONTINUOUS
 62
     7
  5
168
 10
283.584573
 20
274.898282
 30
0.0
 11
278.584573
 21
274.898282
 31
0.0
  0
LINE
  8
0
  6
CONTINUOUS
 62
     7
  5
169
 10
310.584573
 20
25.898282
 30
0.0
 11
310.584573
 21
31.098282
 31
0.0
  0
LINE
  8
0
  6
CONTINUOUS
 62
     7
  5
16A
 10
306.084573
 20
25.898282
 30
0.0
 11
310.584573
 21
25.898282
 31
0.0
  0
LINE
  8
0
  6
CONTINUOUS
 62
     7
  5
16B
 10
274.084573
 20
25.898282
 30
0.0
 11
274.084573
 21
31.098282
 31
0.0
  0
LINE
  8
0
  6
CONTINUOUS
 62
     7
  5
16C
 10
274.084573
 20
25.898282
 30
0.0
 11
278.584573
 21
25.898282
 31
0.0
  0
LINE
  8
0
  6
CONTINUOUS
 62
     7
  5
16D
 10
310.584573
 20
40.898282
 30
0.0
 11
310.584573
 21
35.698282
 31
0.0
  0
LINE
  8
0
  6
CONTINUOUS
 62
     7
  5
16E
 10
310.584573
 20
40.898282
 30
0.0
 11
306.084573
 21
40.898282
 31
0.0
  0
LINE
  8
0
  6
CONTINUOUS
 62
     7
  5
16F
 10
274.084573
 20
40.898282
 30
0.0
 11
274.084573
 21
35.698282
 31
0.0
  0
LINE
  8
0
  6
CONTINUOUS
 62
     7
  5
170
 10
278.584573
 20
40.898282
 30
0.0
 11
274.084573
 21
40.898282
 31
0.0
  0
LINE
  8
0
  6
CONTINUOUS
 62
     7
  5
171
 10
310.584573
 20
289.898282
 30
0.0
 11
310.584573
 21
284.698282
 31
0.0
  0
LINE
  8
0
  6
CONTINUOUS
 62
     7
  5
172
 10
310.584573
 20
289.898282
 30
0.0
 11
306.084573
 21
289.898282
 31
0.0
  0
LINE
  8
0
  6
CONTINUOUS
 62
     7
  5
173
 10
310.584573
 20
274.898282
 30
0.0
 11
310.584573
 21
280.098282
 31
0.0
  0
LINE
  8
0
  6
CONTINUOUS
 62
     7
  5
174
 10
306.084573
 20
274.898282
 30
0.0
 11
310.584573
 21
274.898282
 31
0.0
  0
LINE
  8
0
  6
CONTINUOUS
 62
     7
  5
175
 10
274.084573
 20
274.898282
 30
0.0
 11
274.084573
 21
280.098282
 31
0.0
  0
LINE
  8
0
  6
CONTINUOUS
 62
     7
  5
176
 10
274.084573
 20
274.898282
 30
0.0
 11
278.584573
 21
274.898282
 31
0.0
  0
LINE
  8
0
  6
CONTINUOUS
 62
     7
  5
177
 10
274.084573
 20
289.898282
 30
0.0
 11
274.084573
 21
284.698282
 31
0.0
  0
LINE
  8
0
  6
CONTINUOUS
 62
     7
  5
178
 10
278.584573
 20
289.898282
 30
0.0
 11
274.084573
 21
289.898282
 31
0.0
  0
CIRCLE
  8
0
  6
CONTINUOUS
 62
     7
  5
179
 10
284.134573
 20
185.898282
 30
0.0
 40
4.0
210
0.0
220
0.0
230
1.0
  0
CIRCLE
  8
0
  6
CONTINUOUS
 62
     7
  5
17A
 10
284.134573
 20
47.898282
 30
0.0
 40
4.0
210
0.0
220
0.0
230
1.0
  0
LINE
  8
0
  6
CONTINUOUS
 62
     7
  5
17B
 10
272.334573
 20
53.898282
 30
0.0
 11
272.334573
 21
41.898282
 31
0.0
  0
LINE
  8
0
  6
CONTINUOUS
 62
     7
  5
17C
 10
272.334573
 20
104.898282
 30
0.0
 11
282.334573
 21
104.898282
 31
0.0
  0
LINE
  8
0
  6
CONTINUOUS
 62
     7
  5
17D
 10
272.334573
 20
128.898282
 30
0.0
 11
272.334573
 21
104.898282
 31
0.0
  0
LINE
  8
0
  6
CONTINUOUS
 62
     7
  5
17E
 10
282.334573
 20
128.898282
 30
0.0
 11
272.334573
 21
128.898282
 31
0.0
  0
LINE
  8
0
  6
CONTINUOUS
 62
     7
  5
17F
 10
282.334573
 20
128.898282
 30
0.0
 11
282.334573
 21
179.898282
 31
0.0
  0
LINE
  8
0
  6
CONTINUOUS
 62
     7
  5
180
 10
272.334573
 20
179.898282
 30
0.0
 11
282.334573
 21
179.898282
 31
0.0
  0
LINE
  8
0
  6
CONTINUOUS
 62
     7
  5
181
 10
272.334573
 20
191.898282
 30
0.0
 11
272.334573
 21
179.898282
 31
0.0
  0
LINE
  8
0
  6
CONTINUOUS
 62
     7
  5
182
 10
312.334573
 20
191.898282
 30
0.0
 11
272.334573
 21
191.898282
 31
0.0
  0
LINE
  8
0
  6
CONTINUOUS
 62
     7
  5
183
 10
312.334573
 20
41.898282
 30
0.0
 11
312.334573
 21
191.898282
 31
0.0
  0
LINE
  8
0
  6
CONTINUOUS
 62
     7
  5
184
 10
312.334573
 20
41.898282
 30
0.0
 11
272.334573
 21
41.898282
 31
0.0
  0
LINE
  8
0
  6
CONTINUOUS
 62
     7
  5
185
 10
282.334573
 20
53.898282
 30
0.0
 11
272.334573
 21
53.898282
 31
0.0
  0
LINE
  8
0
  6
CONTINUOUS
 62
     7
  5
186
 10
282.334573
 20
104.898282
 30
0.0
 11
282.334573
 21
53.898282
 31
0.0
  0
LINE
  8
0
  6
CONTINUOUS
 62
     7
  5
187
 10
270.834573
 20
41.898282
 30
0.0
 11
270.834573
 21
53.898282
 31
0.0
  0
LINE
  8
0
  6
CONTINUOUS
 62
     7
  5
188
 10
272.334573
 20
41.898282
 30
0.0
 11
270.834573
 21
41.898282
 31
0.0
  0
LINE
  8
0
  6
CONTINUOUS
 62
     7
  5
189
 10
270.834573
 20
53.898282
 30
0.0
 11
272.334573
 21
53.898282
 31
0.0
  0
LINE
  8
0
  6
CONTINUOUS
 62
     7
  5
18A
 10
270.834573
 20
103.110652
 30
0.0
 11
270.834573
 21
130.685913
 31
0.0
  0
LINE
  8
0
  6
CONTINUOUS
 62
     7
  5
18B
 10
270.834573
 20
130.685913
 30
0.0
 11
272.334573
 21
128.898282
 31
0.0
  0
LINE
  8
0
  6
CONTINUOUS
 62
     7
  5
18C
 10
272.334573
 20
104.898282
 30
0.0
 11
270.834573
 21
103.110652
 31
0.0
  0
LINE
  8
0
  6
CONTINUOUS
 62
     9
  5
18D
 10
270.834573
 20
94.057774
 30
0.0
 11
282.334573
 21
94.057774
 31
0.0
  0
LINE
  8
0
  6
CONTINUOUS
 62
     7
  5
18E
 10
270.834573
 20
94.057774
 30
0.0
 11
270.834573
 21
103.110652
 31
0.0
  0
LINE
  8
0
  6
CONTINUOUS
 62
     9
  5
18F
 10
270.834573
 20
139.738791
 30
0.0
 11
282.334573
 21
139.738791
 31
0.0
  0
LINE
  8
0
  6
CONTINUOUS
 62
     7
  5
190
 10
270.834573
 20
130.685913
 30
0.0
 11
270.834573
 21
139.738791
 31
0.0
  0
LINE
  8
0
  6
CONTINUOUS
 62
     7
  5
191
 10
312.334573
 20
191.898282
 30
0.0
 11
313.834573
 21
191.898282
 31
0.0
  0
LINE
  8
0
  6
CONTINUOUS
 62
     7
  5
192
 10
313.834573
 20
191.898282
 30
0.0
 11
313.834573
 21
41.898282
 31
0.0
  0
LINE
  8
0
  6
CONTINUOUS
 62
     7
  5
193
 10
313.834573
 20
41.898282
 30
0.0
 11
312.334573
 21
41.898282
 31
0.0
  0
LINE
  8
0
  6
CONTINUOUS
 62
     7
  5
194
 10
270.834573
 20
179.898282
 30
0.0
 11
270.834573
 21
191.898282
 31
0.0
  0
LINE
  8
0
  6
CONTINUOUS
 62
     7
  5
195
 10
272.334573
 20
179.898282
 30
0.0
 11
270.834573
 21
179.898282
 31
0.0
  0
LINE
  8
0
  6
CONTINUOUS
 62
     7
  5
196
 10
270.834573
 20
191.898282
 30
0.0
 11
272.334573
 21
191.898282
 31
0.0
  0
POLYLINE
  8
0
  6
CONTINUOUS
 62
     7
  5
197
 66
     1
 10
0.0
 20
0.0
 30
0.0
 40
0.5
 41
0.5
  0
VERTEX
  8
0
 62
     7
  5
198
 10
273.834573
 20
54.088812
 30
0.0
  0
VERTEX
  8
0
 62
     7
  5
199
 10
273.83557
 20
54.066481
 30
0.0
  0
VERTEX
  8
0
 62
     7
  5
19A
 10
273.839043
 20
54.043251
 30
0.0
  0
VERTEX
  8
0
 62
     7
  5
19B
 10
273.845032
 20
54.021749
 30
0.0
  0
VERTEX
  8
0
 62
     7
  5
19C
 10
273.85368
 20
54.001759
 30
0.0
  0
VERTEX
  8
0
 62
     7
  5
19D
 10
273.864946
 20
53.98356
 30
0.0
  0
VERTEX
  8
0
 62
     7
  5
19E
 10
273.878905
 20
53.9671
 30
0.0
  0
VERTEX
  8
0
 62
     7
  5
19F
 10
273.895523
 20
53.952446
 30
0.0
  0
VERTEX
  8
0
 62
     7
  5
1A0
 10
273.914557
 20
53.939738
 30
0.0
  0
VERTEX
  8
0
 62
     7
  5
1A1
 10
273.936187
 20
53.928774
 30
0.0
  0
VERTEX
  8
0
 62
     7
  5
1A2
 10
273.960506
 20
53.919506
 30
0.0
  0
VERTEX
  8
0
 62
     7
  5
1A3
 10
273.987423
 20
53.911954
 30
0.0
  0
VERTEX
  8
0
 62
     7
  5
1A4
 10
274.018017
 20
53.905915
 30
0.0
  0
VERTEX
  8
0
 62
     7
  5
1A5
 10
274.051357
 20
53.901651
 30
0.0
  0
VERTEX
  8
0
 62
     7
  5
1A6
 10
274.087562
 20
53.899116
 30
0.0
  0
VERTEX
  8
0
 62
     7
  5
1A7
 10
274.126474
 20
53.898282
 30
0.0
  0
SEQEND
  8
0
  5
1A8
  0
POLYLINE
  8
0
  6
CONTINUOUS
 62
     7
  5
1A9
 66
     1
 10
0.0
 20
0.0
 30
0.0
 40
0.5
 41
0.5
  0
VERTEX
  8
0
 62
     7
  5
1AA
 10
281.834573
 20
54.088817
 30
0.0
  0
VERTEX
  8
0
 62
     7
  5
1AB
 10
281.818226
 20
54.194275
 30
0.0
 42
0.186324
  0
VERTEX
  8
0
 62
     7
  5
1AC
 10
277.958933
 20
57.495936
 30
0.0
 42
0.223099
  0
VERTEX
  8
0
 62
     7
  5
1AD
 10
273.97913
 20
54.474485
 30
0.0
  0
VERTEX
  8
0
 62
     7
  5
1AE
 10
273.926271
 20
54.378309
 30
0.0
  0
VERTEX
  8
0
 62
     7
  5
1AF
 10
273.876441
 20
54.269327
 30
0.0
  0
VERTEX
  8
0
 62
     7
  5
1B0
 10
273.839743
 20
54.145126
 30
0.0
  0
VERTEX
  8
0
 62
     7
  5
1B1
 10
273.834573
 20
54.088812
 30
0.0
  0
SEQEND
  8
0
  5
1B2
  0
LINE
  8
0
  6
CONTINUOUS
 62
     7
  5
1B3
 10
281.406687
 20
50.823797
 30
0.0
 11
281.406687
 21
44.972767
 31
0.0
  0
POLYLINE
  8
0
  6
CONTINUOUS
 62
     7
  5
1B4
 66
     1
 10
0.0
 20
0.0
 30
0.0
 40
0.5
 41
0.5
  0
VERTEX
  8
0
 62
     7
  5
1B5
 10
281.542672
 20
53.898282
 30
0.0
  0
VERTEX
  8
0
 62
     7
  5
1B6
 10
281.577706
 20
53.898953
 30
0.0
  0
VERTEX
  8
0
 62
     7
  5
1B7
 10
281.610565
 20
53.900989
 30
0.0
  0
VERTEX
  8
0
 62
     7
  5
1B8
 10
281.641317
 20
53.904438
 30
0.0
  0
VERTEX
  8
0
 62
     7
  5
1B9
 10
281.669834
 20
53.909326
 30
0.0
  0
VERTEX
  8
0
 62
     7
  5
1BA
 10
281.695749
 20
53.915585
 30
0.0
  0
VERTEX
  8
0
 62
     7
  5
1BB
 10
281.719458
 20
53.923294
 30
0.0
  0
VERTEX
  8
0
 62
     7
  5
1BC
 10
281.741014
 20
53.932506
 30
0.0
  0
VERTEX
  8
0
 62
     7
  5
1BD
 10
281.760332
 20
53.943214
 30
0.0
  0
VERTEX
  8
0
 62
     7
  5
1BE
 10
281.777943
 20
53.955871
 30
0.0
  0
VERTEX
  8
0
 62
     7
  5
1BF
 10
281.793156
 20
53.97015
 30
0.0
  0
VERTEX
  8
0
 62
     7
  5
1C0
 10
281.806015
 20
53.986114
 30
0.0
  0
VERTEX
  8
0
 62
     7
  5
1C1
 10
281.816471
 20
54.003719
 30
0.0
  0
VERTEX
  8
0
 62
     7
  5
1C2
 10
281.827356
 20
54.032035
 30
0.0
  0
VERTEX
  8
0
 62
     7
  5
1C3
 10
281.833313
 20
54.063801
 30
0.0
  0
VERTEX
  8
0
 62
     7
  5
1C4
 10
281.834573
 20
54.088817
 30
0.0
  0
SEQEND
  8
0
  5
1C5
  0
POLYLINE
  8
0
  6
CONTINUOUS
 62
     7
  5
1C6
 66
     1
 10
0.0
 20
0.0
 30
0.0
 40
0.5
 41
0.5
  0
VERTEX
  8
0
 62
     7
  5
1C7
 10
281.834573
 20
179.707752
 30
0.0
  0
VERTEX
  8
0
 62
     7
  5
1C8
 10
281.833576
 20
179.730083
 30
0.0
  0
VERTEX
  8
0
 62
     7
  5
1C9
 10
281.830103
 20
179.753314
 30
0.0
  0
VERTEX
  8
0
 62
     7
  5
1CA
 10
281.824115
 20
179.774815
 30
0.0
  0
VERTEX
  8
0
 62
     7
  5
1CB
 10
281.815467
 20
179.794806
 30
0.0
  0
VERTEX
  8
0
 62
     7
  5
1CC
 10
281.8042
 20
179.813004
 30
0.0
  0
VERTEX
  8
0
 62
     7
  5
1CD
 10
281.790242
 20
179.829465
 30
0.0
  0
VERTEX
  8
0
 62
     7
  5
1CE
 10
281.773623
 20
179.844118
 30
0.0
  0
VERTEX
  8
0
 62
     7
  5
1CF
 10
281.75459
 20
179.856826
 30
0.0
  0
VERTEX
  8
0
 62
     7
  5
1D0
 10
281.732959
 20
179.86779
 30
0.0
  0
VERTEX
  8
0
 62
     7
  5
1D1
 10
281.708641
 20
179.877059
 30
0.0
  0
VERTEX
  8
0
 62
     7
  5
1D2
 10
281.681724
 20
179.88461
 30
0.0
  0
VERTEX
  8
0
 62
     7
  5
1D3
 10
281.651129
 20
179.890649
 30
0.0
  0
VERTEX
  8
0
 62
     7
  5
1D4
 10
281.61779
 20
179.894913
 30
0.0
  0
VERTEX
  8
0
 62
     7
  5
1D5
 10
281.581584
 20
179.897448
 30
0.0
  0
VERTEX
  8
0
 62
     7
  5
1D6
 10
281.542672
 20
179.898282
 30
0.0
  0
SEQEND
  8
0
  5
1D7
  0
POLYLINE
  8
0
  6
CONTINUOUS
 62
     7
  5
1D8
 66
     1
 10
0.0
 20
0.0
 30
0.0
 40
0.5
 41
0.5
  0
VERTEX
  8
0
 62
     7
  5
1D9
 10
273.834573
 20
179.707747
 30
0.0
  0
VERTEX
  8
0
 62
     7
  5
1DA
 10
273.85092
 20
179.60229
 30
0.0
 42
0.186324
  0
VERTEX
  8
0
 62
     7
  5
1DB
 10
277.710214
 20
176.300628
 30
0.0
 42
0.223099
  0
VERTEX
  8
0
 62
     7
  5
1DC
 10
281.690017
 20
179.322079
 30
0.0
  0
VERTEX
  8
0
 62
     7
  5
1DD
 10
281.742875
 20
179.418256
 30
0.0
  0
VERTEX
  8
0
 62
     7
  5
1DE
 10
281.792705
 20
179.527237
 30
0.0
  0
VERTEX
  8
0
 62
     7
  5
1DF
 10
281.829404
 20
179.651438
 30
0.0
  0
VERTEX
  8
0
 62
     7
  5
1E0
 10
281.834573
 20
179.707752
 30
0.0
  0
SEQEND
  8
0
  5
1E1
  0
LINE
  8
0
  6
CONTINUOUS
 62
     7
  5
1E2
 10
281.406687
 20
188.823797
 30
0.0
 11
281.406687
 21
182.972767
 31
0.0
  0
POLYLINE
  8
0
  6
CONTINUOUS
 62
     7
  5
1E3
 66
     1
 10
0.0
 20
0.0
 30
0.0
 40
0.5
 41
0.5
  0
VERTEX
  8
0
 62
     7
  5
1E4
 10
274.126474
 20
179.898282
 30
0.0
  0
VERTEX
  8
0
 62
     7
  5
1E5
 10
274.09144
 20
179.897611
 30
0.0
  0
VERTEX
  8
0
 62
     7
  5
1E6
 10
274.058581
 20
179.895576
 30
0.0
  0
VERTEX
  8
0
 62
     7
  5
1E7
 10
274.027829
 20
179.892127
 30
0.0
  0
VERTEX
  8
0
 62
     7
  5
1E8
 10
273.999312
 20
179.887238
 30
0.0
  0
VERTEX
  8
0
 62
     7
  5
1E9
 10
273.973398
 20
179.880979
 30
0.0
  0
VERTEX
  8
0
 62
     7
  5
1EA
 10
273.949689
 20
179.87327
 30
0.0
  0
VERTEX
  8
0
 62
     7
  5
1EB
 10
273.928132
 20
179.864058
 30
0.0
  0
VERTEX
  8
0
 62
     7
  5
1EC
 10
273.908815
 20
179.85335
 30
0.0
  0
VERTEX
  8
0
 62
     7
  5
1ED
 10
273.891204
 20
179.840693
 30
0.0
  0
VERTEX
  8
0
 62
     7
  5
1EE
 10
273.87599
 20
179.826415
 30
0.0
  0
VERTEX
  8
0
 62
     7
  5
1EF
 10
273.863132
 20
179.81045
 30
0.0
  0
VERTEX
  8
0
 62
     7
  5
1F0
 10
273.852676
 20
179.792845
 30
0.0
  0
VERTEX
  8
0
 62
     7
  5
1F1
 10
273.84179
 20
179.764529
 30
0.0
  0
VERTEX
  8
0
 62
     7
  5
1F2
 10
273.835834
 20
179.732764
 30
0.0
  0
VERTEX
  8
0
 62
     7
  5
1F3
 10
273.834573
 20
179.707747
 30
0.0
  0
SEQEND
  8
0
  5
1F4
  0
LINE
  8
0
  6
CONTINUOUS
 62
     9
  5
1F5
 10
270.834573
 20
59.898282
 30
0.0
 11
282.334573
 21
59.898282
 31
0.0
  0
LINE
  8
0
  6
CONTINUOUS
 62
     7
  5
1F6
 10
270.834573
 20
59.898282
 30
0.0
 11
270.834573
 21
53.898282
 31
0.0
  0
LINE
  8
0
  6
CONTINUOUS
 62
     9
  5
1F7
 10
270.834573
 20
173.898282
 30
0.0
 11
282.334573
 21
173.898282
 31
0.0
  0
LINE
  8
0
  6
CONTINUOUS
 62
     7
  5
1F8
 10
270.834573
 20
179.898282
 30
0.0
 11
270.834573
 21
173.898282
 31
0.0
  0
CIRCLE
  8
0
  6
CONTINUOUS
 62
     7
  5
1F9
 10
284.134573
 20
47.898282
 30
0.0
 40
2.0
210
0.0
220
0.0
230
1.0
  0
CIRCLE
  8
0
  6
CONTINUOUS
 62
     7
  5
1FA
 10
284.134573
 20
47.898282
 30
0.0
 40
1.621
210
0.0
220
0.0
230
1.0
  0
CIRCLE
  8
0
  6
CONTINUOUS
 62
     7
  5
1FB
 10
284.134573
 20
185.898282
 30
0.0
 40
2.0
210
0.0
220
0.0
230
1.0
  0
CIRCLE
  8
0
  6
CONTINUOUS
 62
     7
  5
1FC
 10
284.134573
 20
185.898282
 30
0.0
 40
1.621
210
0.0
220
0.0
230
1.0
  0
LINE
  8
0
  6
CONTINUOUS
 62
     7
  5
1FD
 10
263.834573
 20
134.398282
 30
0.0
 11
263.834573
 21
99.398282
 31
0.0
  0
LINE
  8
0
  6
CONTINUOUS
 62
     7
  5
1FE
 10
263.834573
 20
99.398282
 30
0.0
 11
262.334573
 21
100.898282
 31
0.0
  0
LINE
  8
0
  6
CONTINUOUS
 62
     7
  5
1FF
 10
262.334573
 20
100.898282
 30
0.0
 11
262.334573
 21
132.898282
 31
0.0
  0
LINE
  8
0
  6
CONTINUOUS
 62
     7
  5
200
 10
262.334573
 20
132.898282
 30
0.0
 11
263.834573
 21
134.398282
 31
0.0
  0
LINE
  8
0
  6
CONTINUOUS
 62
     7
  5
201
 10
270.834573
 20
99.398282
 30
0.0
 11
263.834573
 21
99.398282
 31
0.0
  0
LINE
  8
0
  6
CONTINUOUS
 62
     7
  5
202
 10
270.834573
 20
134.398282
 30
0.0
 11
263.834573
 21
134.398282
 31
0.0
  0
LINE
  8
0
  6
CONTINUOUS
 62
     9
  5
203
 10
270.834573
 20
143.595516
 30
0.0
 11
282.334573
 21
143.595516
 31
0.0
  0
LINE
  8
0
  6
CONTINUOUS
 62
     7
  5
204
 10
270.834573
 20
143.595516
 30
0.0
 11
270.834573
 21
139.738791
 31
0.0
  0
LINE
  8
0
  6
CONTINUOUS
 62
     9
  5
205
 10
270.834573
 20
90.201048
 30
0.0
 11
282.334573
 21
90.201048
 31
0.0
  0
LINE
  8
0
  6
CONTINUOUS
 62
     7
  5
206
 10
270.834573
 20
94.057774
 30
0.0
 11
270.834573
 21
90.201048
 31
0.0
  0
LINE
  8
0
  6
CONTINUOUS
 62
     7
  5
207
 10
270.834573
 20
59.898282
 30
0.0
 11
270.834573
 21
90.201048
 31
0.0
  0
LINE
  8
0
  6
CONTINUOUS
 62
     7
  5
208
 10
270.834573
 20
143.595516
 30
0.0
 11
270.834573
 21
173.898282
 31
0.0
  0
LINE
  8
0
  6
CONTINUOUS
 62
     7
  5
209
 10
321.834573
 20
72.648282
 30
0.0
 11
326.834573
 21
72.648282
 31
0.0
  0
LINE
  8
0
  6
CONTINUOUS
 62
     7
  5
20A
 10
326.834573
 20
81.148282
 30
0.0
 11
321.834573
 21
81.148282
 31
0.0
  0
LINE
  8
0
  6
CONTINUOUS
 62
     7
  5
20B
 10
321.834573
 20
152.648282
 30
0.0
 11
326.834573
 21
152.648282
 31
0.0
  0
LINE
  8
0
  6
CONTINUOUS
 62
     7
  5
20C
 10
326.834573
 20
161.148282
 30
0.0
 11
321.834573
 21
161.148282
 31
0.0
  0
LINE
  8
0
  6
CONTINUOUS
 62
     7
  5
20D
 10
289.834573
 20
274.898282
 30
0.0
 11
289.834573
 21
191.898282
 31
0.0
  0
LINE
  8
0
  6
CONTINUOUS
 62
     7
  5
20E
 10
289.834573
 20
41.898282
 30
0.0
 11
289.834573
 21
40.898282
 31
0.0
  0
LINE
  8
0
  6
CONTINUOUS
 62
     7
  5
20F
 10
305.834573
 20
40.898282
 30
0.0
 11
305.834573
 21
41.898282
 31
0.0
  0
LINE
  8
0
  6
CONTINUOUS
 62
     7
  5
210
 10
305.834573
 20
191.898282
 30
0.0
 11
305.834573
 21
274.898282
 31
0.0
  0
LINE
  8
0
  6
CONTINUOUS
 62
     7
  5
211
 10
276.834573
 20
274.898282
 30
0.0
 11
276.834573
 21
191.898282
 31
0.0
  0
LINE
  8
0
  6
CONTINUOUS
 62
     7
  5
212
 10
276.834573
 20
41.898282
 30
0.0
 11
276.834573
 21
40.898282
 31
0.0
  0
LINE
  8
0
  6
CONTINUOUS
 62
     7
  5
213
 10
286.834573
 20
40.898282
 30
0.0
 11
286.834573
 21
41.898282
 31
0.0
  0
LINE
  8
0
  6
CONTINUOUS
 62
     7
  5
214
 10
286.834573
 20
191.898282
 30
0.0
 11
286.834573
 21
274.898282
 31
0.0
  0
ENDBLK
  8
0
  5
215
  0
BLOCK
  8
0
  5
218
  2
AID815
 70
     0
 10
0.0
 20
0.0
 30
0.0
  3
#auxiliary draft view
  0
LINE
  8
0
  6
CONTINUOUS
 62
     7
  5
219
 10
190.97644
 20
-70.178264
 30
0.0
 11
190.97644
 21
-62.178264
 31
0.0
  0
LINE
  8
0
  6
CONTINUOUS
 62
     7
  5
21A
 10
200.97644
 20
-62.178264
 30
0.0
 11
200.97644
 21
-70.178264
 31
0.0
  0
LINE
  8
0
  6
CONTINUOUS
 62
     7
  5
21B
 10
200.97644
 20
-70.178264
 30
0.0
 11
190.97644
 21
-70.178264
 31
0.0
  0
LINE
  8
0
  6
CONTINUOUS
 62
     7
  5
21C
 10
140.97644
 20
-62.178264
 30
0.0
 11
140.97644
 21
-70.178264
 31
0.0
  0
LINE
  8
0
  6
CONTINUOUS
 62
     7
  5
21D
 10
140.97644
 20
-70.178264
 30
0.0
 11
190.97644
 21
-70.178264
 31
0.0
  0
LINE
  8
0
  6
CONTINUOUS
 62
     7
  5
21E
 10
130.97644
 20
-70.178264
 30
0.0
 11
130.97644
 21
-62.178264
 31
0.0
  0
LINE
  8
0
  6
CONTINUOUS
 62
     7
  5
21F
 10
140.97644
 20
-70.178264
 30
0.0
 11
130.97644
 21
-70.178264
 31
0.0
  0
LINE
  8
0
  6
CONTINUOUS
 62
     7
  5
220
 10
171.22644
 20
-75.178264
 30
0.0
 11
175.47644
 21
-75.178264
 31
0.0
  0
LINE
  8
0
  6
CONTINUOUS
 62
     7
  5
221
 10
175.47644
 20
-75.178264
 30
0.0
 11
179.72644
 21
-75.178264
 31
0.0
  0
LINE
  8
0
  6
CONTINUOUS
 62
     7
  5
222
 10
160.72644
 20
-75.178264
 30
0.0
 11
156.47644
 21
-75.178264
 31
0.0
  0
LINE
  8
0
  6
CONTINUOUS
 62
     7
  5
223
 10
156.47644
 20
-75.178264
 30
0.0
 11
152.22644
 21
-75.178264
 31
0.0
  0
LINE
  8
0
  6
CONTINUOUS
 62
     7
  5
224
 10
194.97644
 20
-22.428264
 30
0.0
 11
194.97644
 21
-26.928264
 31
0.0
  0
LINE
  8
0
  6
CONTINUOUS
 62
     7
  5
225
 10
136.97644
 20
-58.928264
 30
0.0
 11
136.97644
 21
-54.428264
 31
0.0
  0
CIRCLE
  8
0
  6
CONTINUOUS
 62
     7
  5
226
 10
131.97644
 20
-40.678264
 30
0.0
 40
2.51
210
0.0
220
0.0
230
1.0
  0
ARC
  8
0
  6
CONTINUOUS
 62
     7
  5
227
 10
131.97644
 20
-54.428264
 30
0.0
 40
5.0
 50
0.0
 51
90.0
210
0.0
220
0.0
230
1.0
  0
LINE
  8
0
  6
CONTINUOUS
 62
     7
  5
228
 10
204.47644
 20
-49.428264
 30
0.0
 11
204.47644
 21
-31.928264
 31
0.0
  0
LINE
  8
0
  6
CONTINUOUS
 62
     7
  5
229
 10
136.97644
 20
-58.928264
 30
0.0
 11
194.97644
 21
-58.928264
 31
0.0
  0
LINE
  8
0
  6
CONTINUOUS
 62
     7
  5
22A
 10
194.97644
 20
-22.428264
 30
0.0
 11
136.97644
 21
-22.428264
 31
0.0
  0
ARC
  8
0
  6
CONTINUOUS
 62
     7
  5
22B
 10
199.97644
 20
-26.928264
 30
0.0
 40
5.0
 50
180.0
 51
270.0
210
0.0
220
0.0
230
1.0
  0
LINE
  8
0
  6
CONTINUOUS
 62
     7
  5
22C
 10
127.47644
 20
-31.928264
 30
0.0
 11
127.47644
 21
-49.428264
 31
0.0
  0
LINE
  8
0
  6
CONTINUOUS
 62
     7
  5
22D
 10
204.47644
 20
-49.428264
 30
0.0
 11
199.97644
 21
-49.428264
 31
0.0
  0
LINE
  8
0
  6
CONTINUOUS
 62
     7
  5
22E
 10
194.97644
 20
-54.428264
 30
0.0
 11
194.97644
 21
-58.928264
 31
0.0
  0
ARC
  8
0
  6
CONTINUOUS
 62
     7
  5
22F
 10
199.97644
 20
-54.428264
 30
0.0
 40
5.0
 50
90.0
 51
180.0
210
0.0
220
0.0
230
1.0
  0
CIRCLE
  8
0
  6
CONTINUOUS
 62
     7
  5
230
 10
199.97644
 20
-40.678264
 30
0.0
 40
2.51
210
0.0
220
0.0
230
1.0
  0
LINE
  8
0
  6
CONTINUOUS
 62
     7
  5
231
 10
127.47644
 20
-31.928264
 30
0.0
 11
131.97644
 21
-31.928264
 31
0.0
  0
LINE
  8
0
  6
CONTINUOUS
 62
     7
  5
232
 10
136.97644
 20
-26.928264
 30
0.0
 11
136.97644
 21
-22.428264
 31
0.0
  0
ARC
  8
0
  6
CONTINUOUS
 62
     7
  5
233
 10
131.97644
 20
-26.928264
 30
0.0
 40
5.0
 50
270.0
 51
360.0
210
0.0
220
0.0
230
1.0
  0
LINE
  8
0
  6
CONTINUOUS
 62
     7
  5
234
 10
199.97644
 20
-31.928264
 30
0.0
 11
204.47644
 21
-31.928264
 31
0.0
  0
LINE
  8
0
  6
CONTINUOUS
 62
     7
  5
235
 10
131.97644
 20
-49.428264
 30
0.0
 11
127.47644
 21
-49.428264
 31
0.0
  0
LINE
  8
0
  6
CONTINUOUS
 62
     7
  5
236
 10
128.97644
 20
-58.928264
 30
0.0
 11
127.47644
 21
-57.428264
 31
0.0
  0
CIRCLE
  8
0
  6
CONTINUOUS
 62
     7
  5
237
 10
131.97644
 20
-54.678264
 30
0.0
 40
2.6
210
0.0
220
0.0
230
1.0
  0
LINE
  8
0
  6
CONTINUOUS
 62
     7
  5
238
 10
136.97644
 20
-58.928264
 30
0.0
 11
128.97644
 21
-58.928264
 31
0.0
  0
LINE
  8
0
  6
CONTINUOUS
 62
     7
  5
239
 10
127.47644
 20
-57.428264
 30
0.0
 11
127.47644
 21
-49.428264
 31
0.0
  0
CIRCLE
  8
0
  6
CONTINUOUS
 62
     7
  5
23A
 10
199.97644
 20
-54.678264
 30
0.0
 40
2.6
210
0.0
220
0.0
230
1.0
  0
LINE
  8
0
  6
CONTINUOUS
 62
     7
  5
23B
 10
202.97644
 20
-58.928264
 30
0.0
 11
204.47644
 21
-57.428264
 31
0.0
  0
LINE
  8
0
  6
CONTINUOUS
 62
     7
  5
23C
 10
204.47644
 20
-57.428264
 30
0.0
 11
204.47644
 21
-49.428264
 31
0.0
  0
LINE
  8
0
  6
CONTINUOUS
 62
     7
  5
23D
 10
194.97644
 20
-58.928264
 30
0.0
 11
202.97644
 21
-58.928264
 31
0.0
  0
CIRCLE
  8
0
  6
CONTINUOUS
 62
     7
  5
23E
 10
131.97644
 20
-26.678264
 30
0.0
 40
2.6
210
0.0
220
0.0
230
1.0
  0
LINE
  8
0
  6
CONTINUOUS
 62
     7
  5
23F
 10
128.97644
 20
-22.428264
 30
0.0
 11
127.47644
 21
-23.928264
 31
0.0
  0
LINE
  8
0
  6
CONTINUOUS
 62
     7
  5
240
 10
136.97644
 20
-22.428264
 30
0.0
 11
128.97644
 21
-22.428264
 31
0.0
  0
LINE
  8
0
  6
CONTINUOUS
 62
     7
  5
241
 10
127.47644
 20
-23.928264
 30
0.0
 11
127.47644
 21
-31.928264
 31
0.0
  0
CIRCLE
  8
0
  6
CONTINUOUS
 62
     7
  5
242
 10
199.97644
 20
-26.678264
 30
0.0
 40
2.6
210
0.0
220
0.0
230
1.0
  0
LINE
  8
0
  6
CONTINUOUS
 62
     7
  5
243
 10
202.97644
 20
-22.428264
 30
0.0
 11
204.47644
 21
-23.928264
 31
0.0
  0
LINE
  8
0
  6
CONTINUOUS
 62
     7
  5
244
 10
204.47644
 20
-23.928264
 30
0.0
 11
204.47644
 21
-31.928264
 31
0.0
  0
LINE
  8
0
  6
CONTINUOUS
 62
     7
  5
245
 10
194.97644
 20
-22.428264
 30
0.0
 11
202.97644
 21
-22.428264
 31
0.0
  0
ARC
  8
0
  6
CONTINUOUS
 62
     7
  5
246
 10
132.47644
 20
-26.178264
 30
0.0
 40
4.0
 50
69.635865
 51
90.0
210
0.0
220
0.0
230
1.0
  0
ARC
  8
0
  6
CONTINUOUS
 62
     7
  5
247
 10
132.47644
 20
-26.178264
 30
0.0
 40
4.0
 50
90.0
 51
110.364135
210
0.0
220
0.0
230
1.0
  0
LINE
  8
0
  6
CONTINUOUS
 62
     7
  5
248
 10
127.97644
 20
-19.178264
 30
0.0
 11
126.47644
 21
-20.678264
 31
0.0
  0
LINE
  8
0
  6
CONTINUOUS
 62
     7
  5
249
 10
127.97644
 20
-19.178264
 30
0.0
 11
205.47644
 21
-19.178264
 31
0.0
  0
LINE
  8
0
  6
CONTINUOUS
 62
     7
  5
24A
 10
205.47644
 20
-62.178264
 30
0.0
 11
205.47644
 21
-19.178264
 31
0.0
  0
LINE
  8
0
  6
CONTINUOUS
 62
     7
  5
24B
 10
127.97644
 20
-62.178264
 30
0.0
 11
205.47644
 21
-62.178264
 31
0.0
  0
LINE
  8
0
  6
CONTINUOUS
 62
     7
  5
24C
 10
126.47644
 20
-60.678264
 30
0.0
 11
127.97644
 21
-62.178264
 31
0.0
  0
LINE
  8
0
  6
CONTINUOUS
 62
     7
  5
24D
 10
126.47644
 20
-60.678264
 30
0.0
 11
126.47644
 21
-20.678264
 31
0.0
  0
LINE
  8
0
  6
CONTINUOUS
 62
     7
  5
24E
 10
149.97644
 20
-10.678264
 30
0.0
 11
165.97644
 21
-10.678264
 31
0.0
  0
LINE
  8
0
  6
CONTINUOUS
 62
     9
  5
24F
 10
165.97644
 20
-10.678264
 30
0.0
 11
165.97644
 21
-12.178264
 31
0.0
  0
LINE
  8
0
  6
CONTINUOUS
 62
     7
  5
250
 10
165.97644
 20
-12.178264
 30
0.0
 11
149.97644
 21
-12.178264
 31
0.0
  0
LINE
  8
0
  6
CONTINUOUS
 62
     9
  5
251
 10
149.97644
 20
-10.678264
 30
0.0
 11
149.97644
 21
-12.178264
 31
0.0
  0
LINE
  8
0
  6
CONTINUOUS
 62
     7
  5
252
 10
183.47644
 20
-12.178264
 30
0.0
 11
165.97644
 21
-12.178264
 31
0.0
  0
LINE
  8
0
  6
CONTINUOUS
 62
     7
  5
253
 10
165.97644
 20
-10.678264
 30
0.0
 11
181.97644
 21
-10.678264
 31
0.0
  0
LINE
  8
0
  6
CONTINUOUS
 62
     9
  5
254
 10
165.97644
 20
-19.178264
 30
0.0
 11
165.97644
 21
-12.178264
 31
0.0
  0
LINE
  8
0
  6
CONTINUOUS
 62
     9
  5
255
 10
149.97644
 20
-19.178264
 30
0.0
 11
149.97644
 21
-12.178264
 31
0.0
  0
LINE
  8
0
  6
CONTINUOUS
 62
     7
  5
256
 10
133.97644
 20
-10.678264
 30
0.0
 11
149.97644
 21
-10.678264
 31
0.0
  0
LINE
  8
0
  6
CONTINUOUS
 62
     7
  5
257
 10
149.97644
 20
-12.178264
 30
0.0
 11
132.47644
 21
-12.178264
 31
0.0
  0
LINE
  8
0
  6
CONTINUOUS
 62
     7
  5
258
 10
171.22644
 20
-70.178264
 30
0.0
 11
171.22644
 21
-75.178264
 31
0.0
  0
LINE
  8
0
  6
CONTINUOUS
 62
     7
  5
259
 10
179.72644
 20
-75.178264
 30
0.0
 11
179.72644
 21
-70.178264
 31
0.0
  0
LINE
  8
0
  6
CONTINUOUS
 62
     7
  5
25A
 10
152.22644
 20
-70.178264
 30
0.0
 11
152.22644
 21
-75.178264
 31
0.0
  0
LINE
  8
0
  6
CONTINUOUS
 62
     7
  5
25B
 10
160.72644
 20
-75.178264
 30
0.0
 11
160.72644
 21
-70.178264
 31
0.0
  0
LINE
  8
0
  6
CONTINUOUS
 62
     7
  5
25C
 10
165.941909
 20
-70.178383
 30
0.0
 11
166.010971
 21
-70.178383
 31
0.0
  0
LINE
  8
0
  6
CONTINUOUS
 62
     7
  5
25D
 10
183.47644
 20
-12.178264
 30
0.0
 11
181.97644
 21
-10.678264
 31
0.0
  0
LINE
  8
0
  6
CONTINUOUS
 62
     7
  5
25E
 10
183.47644
 20
-19.178264
 30
0.0
 11
183.47644
 21
-12.178264
 31
0.0
  0
LINE
  8
0
  6
CONTINUOUS
 62
     7
  5
25F
 10
133.97644
 20
-10.678264
 30
0.0
 11
132.47644
 21
-12.178264
 31
0.0
  0
LINE
  8
0
  6
CONTINUOUS
 62
     7
  5
260
 10
132.47644
 20
-12.178264
 30
0.0
 11
132.47644
 21
-19.178264
 31
0.0
  0
ENDBLK
  8
0
  5
261
  0
BLOCK
  8
0
  5
264
  2
AID963
 70
     0
 10
0.0
 20
0.0
 30
0.0
  3
#auxiliary draft view
  0
LINE
  8
0
  6
CONTINUOUS
 62
     7
  5
265
 10
140.97644
 20
395.867762
 30
0.0
 11
140.97644
 21
387.867762
 31
0.0
  0
LINE
  8
0
  6
CONTINUOUS
 62
     7
  5
266
 10
130.97644
 20
387.867762
 30
0.0
 11
130.97644
 21
395.867762
 31
0.0
  0
LINE
  8
0
  6
CONTINUOUS
 62
     7
  5
267
 10
130.97644
 20
395.867762
 30
0.0
 11
140.97644
 21
395.867762
 31
0.0
  0
LINE
  8
0
  6
CONTINUOUS
 62
     7
  5
268
 10
190.97644
 20
387.867762
 30
0.0
 11
190.97644
 21
395.867762
 31
0.0
  0
LINE
  8
0
  6
CONTINUOUS
 62
     7
  5
269
 10
190.97644
 20
395.867762
 30
0.0
 11
140.97644
 21
395.867762
 31
0.0
  0
LINE
  8
0
  6
CONTINUOUS
 62
     7
  5
26A
 10
200.97644
 20
395.867762
 30
0.0
 11
200.97644
 21
387.867762
 31
0.0
  0
LINE
  8
0
  6
CONTINUOUS
 62
     7
  5
26B
 10
190.97644
 20
395.867762
 30
0.0
 11
200.97644
 21
395.867762
 31
0.0
  0
LINE
  8
0
  6
CONTINUOUS
 62
     7
  5
26C
 10
171.22644
 20
400.867762
 30
0.0
 11
179.72644
 21
400.867762
 31
0.0
  0
LINE
  8
0
  6
CONTINUOUS
 62
     7
  5
26D
 10
160.72644
 20
400.867762
 30
0.0
 11
152.22644
 21
400.867762
 31
0.0
  0
LINE
  8
0
  6
CONTINUOUS
 62
     7
  5
26E
 10
199.97644
 20
375.117762
 30
0.0
 11
204.47644
 21
375.117762
 31
0.0
  0
CIRCLE
  8
0
  6
CONTINUOUS
 62
     7
  5
26F
 10
199.97644
 20
366.367762
 30
0.0
 40
2.51
210
0.0
220
0.0
230
1.0
  0
ARC
  8
0
  6
CONTINUOUS
 62
     7
  5
270
 10
199.97644
 20
352.617762
 30
0.0
 40
5.0
 50
90.0
 51
180.0
210
0.0
220
0.0
230
1.0
  0
ARC
  8
0
  6
CONTINUOUS
 62
     7
  5
271
 10
131.97644
 20
380.117762
 30
0.0
 40
5.0
 50
270.0
 51
360.0
210
0.0
220
0.0
230
1.0
  0
ARC
  8
0
  6
CONTINUOUS
 62
     7
  5
272
 10
199.97644
 20
380.117762
 30
0.0
 40
5.0
 50
180.0
 51
270.0
210
0.0
220
0.0
230
1.0
  0
LINE
  8
0
  6
CONTINUOUS
 62
     7
  5
273
 10
204.47644
 20
357.617762
 30
0.0
 11
199.97644
 21
357.617762
 31
0.0
  0
LINE
  8
0
  6
CONTINUOUS
 62
     7
  5
274
 10
127.47644
 20
375.117762
 30
0.0
 11
131.97644
 21
375.117762
 31
0.0
  0
LINE
  8
0
  6
CONTINUOUS
 62
     7
  5
275
 10
131.97644
 20
357.617762
 30
0.0
 11
127.47644
 21
357.617762
 31
0.0
  0
LINE
  8
0
  6
CONTINUOUS
 62
     7
  5
276
 10
136.97644
 20
380.117762
 30
0.0
 11
136.97644
 21
384.617762
 31
0.0
  0
LINE
  8
0
  6
CONTINUOUS
 62
     7
  5
277
 10
127.47644
 20
357.617762
 30
0.0
 11
127.47644
 21
375.117762
 31
0.0
  0
LINE
  8
0
  6
CONTINUOUS
 62
     7
  5
278
 10
204.47644
 20
375.117762
 30
0.0
 11
204.47644
 21
357.617762
 31
0.0
  0
LINE
  8
0
  6
CONTINUOUS
 62
     7
  5
279
 10
194.97644
 20
352.617762
 30
0.0
 11
194.97644
 21
348.117762
 31
0.0
  0
LINE
  8
0
  6
CONTINUOUS
 62
     7
  5
27A
 10
136.97644
 20
384.617762
 30
0.0
 11
194.97644
 21
384.617762
 31
0.0
  0
ARC
  8
0
  6
CONTINUOUS
 62
     7
  5
27B
 10
131.97644
 20
352.617762
 30
0.0
 40
5.0
 50
0.0
 51
90.0
210
0.0
220
0.0
230
1.0
  0
LINE
  8
0
  6
CONTINUOUS
 62
     7
  5
27C
 10
136.97644
 20
348.117762
 30
0.0
 11
136.97644
 21
352.617762
 31
0.0
  0
LINE
  8
0
  6
CONTINUOUS
 62
     7
  5
27D
 10
194.97644
 20
348.117762
 30
0.0
 11
136.97644
 21
348.117762
 31
0.0
  0
CIRCLE
  8
0
  6
CONTINUOUS
 62
     7
  5
27E
 10
131.97644
 20
366.367762
 30
0.0
 40
2.51
210
0.0
220
0.0
230
1.0
  0
LINE
  8
0
  6
CONTINUOUS
 62
     7
  5
27F
 10
194.97644
 20
384.617762
 30
0.0
 11
194.97644
 21
380.117762
 31
0.0
  0
LINE
  8
0
  6
CONTINUOUS
 62
     7
  5
280
 10
202.97644
 20
348.117762
 30
0.0
 11
204.47644
 21
349.617762
 31
0.0
  0
CIRCLE
  8
0
  6
CONTINUOUS
 62
     7
  5
281
 10
199.97644
 20
352.367762
 30
0.0
 40
2.6
210
0.0
220
0.0
230
1.0
  0
LINE
  8
0
  6
CONTINUOUS
 62
     7
  5
282
 10
204.47644
 20
349.617762
 30
0.0
 11
204.47644
 21
357.617762
 31
0.0
  0
LINE
  8
0
  6
CONTINUOUS
 62
     7
  5
283
 10
194.97644
 20
348.117762
 30
0.0
 11
202.97644
 21
348.117762
 31
0.0
  0
CIRCLE
  8
0
  6
CONTINUOUS
 62
     7
  5
284
 10
199.97644
 20
380.367762
 30
0.0
 40
2.6
210
0.0
220
0.0
230
1.0
  0
LINE
  8
0
  6
CONTINUOUS
 62
     7
  5
285
 10
202.97644
 20
384.617762
 30
0.0
 11
204.47644
 21
383.117762
 31
0.0
  0
LINE
  8
0
  6
CONTINUOUS
 62
     7
  5
286
 10
204.47644
 20
383.117762
 30
0.0
 11
204.47644
 21
375.117762
 31
0.0
  0
LINE
  8
0
  6
CONTINUOUS
 62
     7
  5
287
 10
194.97644
 20
384.617762
 30
0.0
 11
202.97644
 21
384.617762
 31
0.0
  0
CIRCLE
  8
0
  6
CONTINUOUS
 62
     7
  5
288
 10
131.97644
 20
380.367762
 30
0.0
 40
2.6
210
0.0
220
0.0
230
1.0
  0
LINE
  8
0
  6
CONTINUOUS
 62
     7
  5
289
 10
128.97644
 20
384.617762
 30
0.0
 11
127.47644
 21
383.117762
 31
0.0
  0
LINE
  8
0
  6
CONTINUOUS
 62
     7
  5
28A
 10
127.47644
 20
383.117762
 30
0.0
 11
127.47644
 21
375.117762
 31
0.0
  0
LINE
  8
0
  6
CONTINUOUS
 62
     7
  5
28B
 10
136.97644
 20
384.617762
 30
0.0
 11
128.97644
 21
384.617762
 31
0.0
  0
CIRCLE
  8
0
  6
CONTINUOUS
 62
     7
  5
28C
 10
131.97644
 20
352.367762
 30
0.0
 40
2.6
210
0.0
220
0.0
230
1.0
  0
LINE
  8
0
  6
CONTINUOUS
 62
     7
  5
28D
 10
128.97644
 20
348.117762
 30
0.0
 11
127.47644
 21
349.617762
 31
0.0
  0
LINE
  8
0
  6
CONTINUOUS
 62
     7
  5
28E
 10
127.47644
 20
349.617762
 30
0.0
 11
127.47644
 21
357.617762
 31
0.0
  0
LINE
  8
0
  6
CONTINUOUS
 62
     7
  5
28F
 10
136.97644
 20
348.117762
 30
0.0
 11
128.97644
 21
348.117762
 31
0.0
  0
ARC
  8
0
  6
CONTINUOUS
 62
     7
  5
290
 10
132.47644
 20
351.867762
 30
0.0
 40
4.0
 50
249.635865
 51
290.364135
210
0.0
220
0.0
230
1.0
  0
LINE
  8
0
  6
CONTINUOUS
 62
     7
  5
291
 10
205.47644
 20
387.867762
 30
0.0
 11
205.47644
 21
344.867762
 31
0.0
  0
LINE
  8
0
  6
CONTINUOUS
 62
     7
  5
292
 10
205.47644
 20
344.867762
 30
0.0
 11
127.97644
 21
344.867762
 31
0.0
  0
LINE
  8
0
  6
CONTINUOUS
 62
     7
  5
293
 10
126.47644
 20
346.367762
 30
0.0
 11
127.97644
 21
344.867762
 31
0.0
  0
LINE
  8
0
  6
CONTINUOUS
 62
     7
  5
294
 10
126.47644
 20
386.367762
 30
0.0
 11
126.47644
 21
346.367762
 31
0.0
  0
LINE
  8
0
  6
CONTINUOUS
 62
     7
  5
295
 10
127.97644
 20
387.867762
 30
0.0
 11
126.47644
 21
386.367762
 31
0.0
  0
LINE
  8
0
  6
CONTINUOUS
 62
     7
  5
296
 10
205.47644
 20
387.867762
 30
0.0
 11
127.97644
 21
387.867762
 31
0.0
  0
LINE
  8
0
  6
CONTINUOUS
 62
     7
  5
297
 10
132.47644
 20
337.867762
 30
0.0
 11
149.97644
 21
337.867762
 31
0.0
  0
LINE
  8
0
  6
CONTINUOUS
 62
     9
  5
298
 10
149.97644
 20
337.867762
 30
0.0
 11
149.97644
 21
336.367762
 31
0.0
  0
LINE
  8
0
  6
CONTINUOUS
 62
     7
  5
299
 10
149.97644
 20
336.367762
 30
0.0
 11
133.97644
 21
336.367762
 31
0.0
  0
LINE
  8
0
  6
CONTINUOUS
 62
     9
  5
29A
 10
165.97644
 20
344.867762
 30
0.0
 11
165.97644
 21
337.867762
 31
0.0
  0
LINE
  8
0
  6
CONTINUOUS
 62
     7
  5
29B
 10
149.97644
 20
337.867762
 30
0.0
 11
165.97644
 21
337.867762
 31
0.0
  0
LINE
  8
0
  6
CONTINUOUS
 62
     9
  5
29C
 10
149.97644
 20
344.867762
 30
0.0
 11
149.97644
 21
337.867762
 31
0.0
  0
LINE
  8
0
  6
CONTINUOUS
 62
     9
  5
29D
 10
165.97644
 20
337.867762
 30
0.0
 11
165.97644
 21
336.367762
 31
0.0
  0
LINE
  8
0
  6
CONTINUOUS
 62
     7
  5
29E
 10
165.97644
 20
336.367762
 30
0.0
 11
149.97644
 21
336.367762
 31
0.0
  0
LINE
  8
0
  6
CONTINUOUS
 62
     7
  5
29F
 10
181.97644
 20
336.367762
 30
0.0
 11
165.97644
 21
336.367762
 31
0.0
  0
LINE
  8
0
  6
CONTINUOUS
 62
     7
  5
2A0
 10
165.97644
 20
337.867762
 30
0.0
 11
183.47644
 21
337.867762
 31
0.0
  0
LINE
  8
0
  6
CONTINUOUS
 62
     7
  5
2A1
 10
179.72644
 20
395.867762
 30
0.0
 11
179.72644
 21
400.867762
 31
0.0
  0
LINE
  8
0
  6
CONTINUOUS
 62
     7
  5
2A2
 10
171.22644
 20
400.867762
 30
0.0
 11
171.22644
 21
395.867762
 31
0.0
  0
LINE
  8
0
  6
CONTINUOUS
 62
     7
  5
2A3
 10
160.72644
 20
395.867762
 30
0.0
 11
160.72644
 21
400.867762
 31
0.0
  0
LINE
  8
0
  6
CONTINUOUS
 62
     7
  5
2A4
 10
152.22644
 20
400.867762
 30
0.0
 11
152.22644
 21
395.867762
 31
0.0
  0
LINE
  8
0
  6
CONTINUOUS
 62
     7
  5
2A5
 10
166.010971
 20
395.867881
 30
0.0
 11
165.941909
 21
395.867881
 31
0.0
  0
LINE
  8
0
  6
CONTINUOUS
 62
     7
  5
2A6
 10
132.47644
 20
337.867762
 30
0.0
 11
133.97644
 21
336.367762
 31
0.0
  0
LINE
  8
0
  6
CONTINUOUS
 62
     7
  5
2A7
 10
132.47644
 20
344.867762
 30
0.0
 11
132.47644
 21
337.867762
 31
0.0
  0
LINE
  8
0
  6
CONTINUOUS
 62
     7
  5
2A8
 10
181.97644
 20
336.367762
 30
0.0
 11
183.47644
 21
337.867762
 31
0.0
  0
LINE
  8
0
  6
CONTINUOUS
 62
     7
  5
2A9
 10
183.47644
 20
337.867762
 30
0.0
 11
183.47644
 21
344.867762
 31
0.0
  0
ENDBLK
  8
0
  5
2AA
  0
BLOCK
  8
0
  5
2AD
  2
AID1105
 70
     0
 10
0.0
 20
0.0
 30
0.0
  3
#auxiliary draft view
  0
LINE
  8
0
  6
CONTINUOUS
 62
     7
  5
2AE
 10
454.767653
 20
35.698282
 30
0.0
 11
454.767653
 21
31.098282
 31
0.0
  0
LINE
  8
0
  6
CONTINUOUS
 62
     7
  5
2AF
 10
453.267653
 20
31.098282
 30
0.0
 11
454.767653
 21
31.098282
 31
0.0
  0
LINE
  8
0
  6
CONTINUOUS
 62
     7
  5
2B0
 10
453.267653
 20
31.098282
 30
0.0
 11
453.267653
 21
35.698282
 31
0.0
  0
LINE
  8
0
  6
CONTINUOUS
 62
     7
  5
2B1
 10
453.267653
 20
35.698282
 30
0.0
 11
454.767653
 21
35.698282
 31
0.0
  0
LINE
  8
0
  6
CONTINUOUS
 62
     7
  5
2B2
 10
454.767653
 20
284.698282
 30
0.0
 11
454.767653
 21
280.098282
 31
0.0
  0
LINE
  8
0
  6
CONTINUOUS
 62
     7
  5
2B3
 10
453.267653
 20
280.098282
 30
0.0
 11
453.267653
 21
284.698282
 31
0.0
  0
LINE
  8
0
  6
CONTINUOUS
 62
     7
  5
2B4
 10
453.267653
 20
280.098282
 30
0.0
 11
454.767653
 21
280.098282
 31
0.0
  0
LINE
  8
0
  6
CONTINUOUS
 62
     7
  5
2B5
 10
453.267653
 20
284.698282
 30
0.0
 11
454.767653
 21
284.698282
 31
0.0
  0
LINE
  8
0
  6
CONTINUOUS
 62
     7
  5
2B6
 10
379.267653
 20
284.698282
 30
0.0
 11
379.267653
 21
280.098282
 31
0.0
  0
LINE
  8
0
  6
CONTINUOUS
 62
     7
  5
2B7
 10
387.267653
 20
284.698282
 30
0.0
 11
379.267653
 21
284.698282
 31
0.0
  0
LINE
  8
0
  6
CONTINUOUS
 62
     7
  5
2B8
 10
387.267653
 20
289.898282
 30
0.0
 11
387.267653
 21
284.698282
 31
0.0
  0
LINE
  8
0
  6
CONTINUOUS
 62
     7
  5
2B9
 10
445.267653
 20
289.898282
 30
0.0
 11
445.267653
 21
284.698282
 31
0.0
  0
LINE
  8
0
  6
CONTINUOUS
 62
     7
  5
2BA
 10
445.267653
 20
274.898282
 30
0.0
 11
445.267653
 21
280.098282
 31
0.0
  0
LINE
  8
0
  6
CONTINUOUS
 62
     7
  5
2BB
 10
387.267653
 20
274.898282
 30
0.0
 11
387.267653
 21
280.098282
 31
0.0
  0
LINE
  8
0
  6
CONTINUOUS
 62
     7
  5
2BC
 10
387.267653
 20
280.098282
 30
0.0
 11
379.267653
 21
280.098282
 31
0.0
  0
LINE
  8
0
  6
CONTINUOUS
 62
     7
  5
2BD
 10
387.267653
 20
274.898282
 30
0.0
 11
445.267653
 21
274.898282
 31
0.0
  0
LINE
  8
0
  6
CONTINUOUS
 62
     7
  5
2BE
 10
445.267653
 20
280.098282
 30
0.0
 11
453.267653
 21
280.098282
 31
0.0
  0
LINE
  8
0
  6
CONTINUOUS
 62
     7
  5
2BF
 10
445.267653
 20
284.698282
 30
0.0
 11
453.267653
 21
284.698282
 31
0.0
  0
LINE
  8
0
  6
CONTINUOUS
 62
     7
  5
2C0
 10
387.267653
 20
289.898282
 30
0.0
 11
445.267653
 21
289.898282
 31
0.0
  0
LINE
  8
0
  6
CONTINUOUS
 62
     7
  5
2C1
 10
379.267653
 20
35.698282
 30
0.0
 11
379.267653
 21
31.098282
 31
0.0
  0
LINE
  8
0
  6
CONTINUOUS
 62
     7
  5
2C2
 10
387.267653
 20
35.698282
 30
0.0
 11
379.267653
 21
35.698282
 31
0.0
  0
LINE
  8
0
  6
CONTINUOUS
 62
     7
  5
2C3
 10
387.267653
 20
40.898282
 30
0.0
 11
387.267653
 21
35.698282
 31
0.0
  0
LINE
  8
0
  6
CONTINUOUS
 62
     7
  5
2C4
 10
445.267653
 20
40.898282
 30
0.0
 11
445.267653
 21
35.698282
 31
0.0
  0
LINE
  8
0
  6
CONTINUOUS
 62
     7
  5
2C5
 10
445.267653
 20
25.898282
 30
0.0
 11
445.267653
 21
31.098282
 31
0.0
  0
LINE
  8
0
  6
CONTINUOUS
 62
     7
  5
2C6
 10
387.267653
 20
25.898282
 30
0.0
 11
387.267653
 21
31.098282
 31
0.0
  0
LINE
  8
0
  6
CONTINUOUS
 62
     7
  5
2C7
 10
387.267653
 20
31.098282
 30
0.0
 11
379.267653
 21
31.098282
 31
0.0
  0
LINE
  8
0
  6
CONTINUOUS
 62
     7
  5
2C8
 10
445.267653
 20
31.098282
 30
0.0
 11
453.267653
 21
31.098282
 31
0.0
  0
LINE
  8
0
  6
CONTINUOUS
 62
     7
  5
2C9
 10
387.267653
 20
25.898282
 30
0.0
 11
445.267653
 21
25.898282
 31
0.0
  0
LINE
  8
0
  6
CONTINUOUS
 62
     7
  5
2CA
 10
445.267653
 20
35.698282
 30
0.0
 11
453.267653
 21
35.698282
 31
0.0
  0
LINE
  8
0
  6
CONTINUOUS
 62
     7
  5
2CB
 10
387.267653
 20
40.898282
 30
0.0
 11
445.267653
 21
40.898282
 31
0.0
  0
LINE
  8
0
  6
CONTINUOUS
 62
     7
  5
2CC
 10
377.767653
 20
280.098282
 30
0.0
 11
377.767653
 21
284.698282
 31
0.0
  0
LINE
  8
0
  6
CONTINUOUS
 62
     7
  5
2CD
 10
379.267653
 20
284.698282
 30
0.0
 11
377.767653
 21
284.698282
 31
0.0
  0
LINE
  8
0
  6
CONTINUOUS
 62
     7
  5
2CE
 10
379.267653
 20
280.098282
 30
0.0
 11
377.767653
 21
280.098282
 31
0.0
  0
LINE
  8
0
  6
CONTINUOUS
 62
     7
  5
2CF
 10
377.767653
 20
31.098282
 30
0.0
 11
377.767653
 21
35.698282
 31
0.0
  0
LINE
  8
0
  6
CONTINUOUS
 62
     7
  5
2D0
 10
379.267653
 20
31.098282
 30
0.0
 11
377.767653
 21
31.098282
 31
0.0
  0
LINE
  8
0
  6
CONTINUOUS
 62
     7
  5
2D1
 10
379.267653
 20
35.698282
 30
0.0
 11
377.767653
 21
35.698282
 31
0.0
  0
LINE
  8
0
  6
CONTINUOUS
 62
     9
  5
2D2
 10
450.267653
 20
289.898282
 30
0.0
 11
450.267653
 21
284.698282
 31
0.0
  0
LINE
  8
0
  6
CONTINUOUS
 62
     7
  5
2D3
 10
445.267653
 20
289.898282
 30
0.0
 11
450.267653
 21
289.898282
 31
0.0
  0
LINE
  8
0
  6
CONTINUOUS
 62
     9
  5
2D4
 10
450.267653
 20
40.898282
 30
0.0
 11
450.267653
 21
35.698282
 31
0.0
  0
LINE
  8
0
  6
CONTINUOUS
 62
     7
  5
2D5
 10
445.267653
 20
40.898282
 30
0.0
 11
450.267653
 21
40.898282
 31
0.0
  0
LINE
  8
0
  6
CONTINUOUS
 62
     9
  5
2D6
 10
450.267653
 20
25.898282
 30
0.0
 11
450.267653
 21
31.098282
 31
0.0
  0
LINE
  8
0
  6
CONTINUOUS
 62
     7
  5
2D7
 10
450.267653
 20
25.898282
 30
0.0
 11
445.267653
 21
25.898282
 31
0.0
  0
LINE
  8
0
  6
CONTINUOUS
 62
     9
  5
2D8
 10
450.267653
 20
274.898282
 30
0.0
 11
450.267653
 21
280.098282
 31
0.0
  0
LINE
  8
0
  6
CONTINUOUS
 62
     7
  5
2D9
 10
450.267653
 20
274.898282
 30
0.0
 11
445.267653
 21
274.898282
 31
0.0
  0
LINE
  8
0
  6
CONTINUOUS
 62
     9
  5
2DA
 10
382.267653
 20
25.898282
 30
0.0
 11
382.267653
 21
31.098282
 31
0.0
  0
LINE
  8
0
  6
CONTINUOUS
 62
     7
  5
2DB
 10
387.267653
 20
25.898282
 30
0.0
 11
382.267653
 21
25.898282
 31
0.0
  0
LINE
  8
0
  6
CONTINUOUS
 62
     9
  5
2DC
 10
382.267653
 20
40.898282
 30
0.0
 11
382.267653
 21
35.698282
 31
0.0
  0
LINE
  8
0
  6
CONTINUOUS
 62
     7
  5
2DD
 10
382.267653
 20
40.898282
 30
0.0
 11
387.267653
 21
40.898282
 31
0.0
  0
LINE
  8
0
  6
CONTINUOUS
 62
     9
  5
2DE
 10
382.267653
 20
274.898282
 30
0.0
 11
382.267653
 21
280.098282
 31
0.0
  0
LINE
  8
0
  6
CONTINUOUS
 62
     7
  5
2DF
 10
387.267653
 20
274.898282
 30
0.0
 11
382.267653
 21
274.898282
 31
0.0
  0
LINE
  8
0
  6
CONTINUOUS
 62
     9
  5
2E0
 10
382.267653
 20
289.898282
 30
0.0
 11
382.267653
 21
284.698282
 31
0.0
  0
LINE
  8
0
  6
CONTINUOUS
 62
     7
  5
2E1
 10
382.267653
 20
289.898282
 30
0.0
 11
387.267653
 21
289.898282
 31
0.0
  0
LINE
  8
0
  6
CONTINUOUS
 62
     7
  5
2E2
 10
454.767653
 20
40.898282
 30
0.0
 11
454.767653
 21
35.698282
 31
0.0
  0
LINE
  8
0
  6
CONTINUOUS
 62
     7
  5
2E3
 10
454.767653
 20
40.898282
 30
0.0
 11
450.267653
 21
40.898282
 31
0.0
  0
LINE
  8
0
  6
CONTINUOUS
 62
     7
  5
2E4
 10
454.767653
 20
25.898282
 30
0.0
 11
454.767653
 21
31.098282
 31
0.0
  0
LINE
  8
0
  6
CONTINUOUS
 62
     7
  5
2E5
 10
450.267653
 20
25.898282
 30
0.0
 11
454.767653
 21
25.898282
 31
0.0
  0
LINE
  8
0
  6
CONTINUOUS
 62
     7
  5
2E6
 10
454.767653
 20
274.898282
 30
0.0
 11
454.767653
 21
280.098282
 31
0.0
  0
LINE
  8
0
  6
CONTINUOUS
 62
     7
  5
2E7
 10
450.267653
 20
274.898282
 30
0.0
 11
454.767653
 21
274.898282
 31
0.0
  0
LINE
  8
0
  6
CONTINUOUS
 62
     7
  5
2E8
 10
454.767653
 20
289.898282
 30
0.0
 11
454.767653
 21
284.698282
 31
0.0
  0
LINE
  8
0
  6
CONTINUOUS
 62
     7
  5
2E9
 10
454.767653
 20
289.898282
 30
0.0
 11
450.267653
 21
289.898282
 31
0.0
  0
LINE
  8
0
  6
CONTINUOUS
 62
     7
  5
2EA
 10
377.767653
 20
25.898282
 30
0.0
 11
377.767653
 21
31.098282
 31
0.0
  0
LINE
  8
0
  6
CONTINUOUS
 62
     7
  5
2EB
 10
377.767653
 20
25.898282
 30
0.0
 11
382.267653
 21
25.898282
 31
0.0
  0
LINE
  8
0
  6
CONTINUOUS
 62
     7
  5
2EC
 10
377.767653
 20
40.898282
 30
0.0
 11
377.767653
 21
35.698282
 31
0.0
  0
LINE
  8
0
  6
CONTINUOUS
 62
     7
  5
2ED
 10
382.267653
 20
40.898282
 30
0.0
 11
377.767653
 21
40.898282
 31
0.0
  0
LINE
  8
0
  6
CONTINUOUS
 62
     7
  5
2EE
 10
377.767653
 20
289.898282
 30
0.0
 11
377.767653
 21
284.698282
 31
0.0
  0
LINE
  8
0
  6
CONTINUOUS
 62
     7
  5
2EF
 10
382.267653
 20
289.898282
 30
0.0
 11
377.767653
 21
289.898282
 31
0.0
  0
LINE
  8
0
  6
CONTINUOUS
 62
     7
  5
2F0
 10
377.767653
 20
274.898282
 30
0.0
 11
377.767653
 21
280.098282
 31
0.0
  0
LINE
  8
0
  6
CONTINUOUS
 62
     7
  5
2F1
 10
377.767653
 20
274.898282
 30
0.0
 11
382.267653
 21
274.898282
 31
0.0
  0
ARC
  8
0
  6
CONTINUOUS
 62
     7
  5
2F2
 10
432.267653
 20
116.898282
 30
0.0
 40
17.5
 50
270.0
 51
90.0
210
0.0
220
0.0
230
1.0
  0
LINE
  8
0
  6
CONTINUOUS
 62
     9
  5
2F3
 10
432.267653
 20
99.398282
 30
0.0
 11
432.267653
 21
100.898282
 31
0.0
  0
ARC
  8
0
  6
CONTINUOUS
 62
     7
  5
2F4
 10
432.267653
 20
116.898282
 30
0.0
 40
16.0
 50
270.0
 51
90.0
210
0.0
220
0.0
230
1.0
  0
LINE
  8
0
  6
CONTINUOUS
 62
     9
  5
2F5
 10
432.267653
 20
132.898282
 30
0.0
 11
432.267653
 21
134.398282
 31
0.0
  0
CIRCLE
  8
0
  6
CONTINUOUS
 62
     7
  5
2F6
 10
416.267653
 20
116.898282
 30
0.0
 40
8.0
210
0.0
220
0.0
230
1.0
  0
LINE
  8
0
  6
CONTINUOUS
 62
     7
  5
2F7
 10
416.267653
 20
100.898282
 30
0.0
 11
432.267653
 21
100.898282
 31
0.0
  0
ARC
  8
0
  6
CONTINUOUS
 62
     7
  5
2F8
 10
416.267653
 20
116.898282
 30
0.0
 40
16.0
 50
90.0
 51
270.0
210
0.0
220
0.0
230
1.0
  0
LINE
  8
0
  6
CONTINUOUS
 62
     7
  5
2F9
 10
432.267653
 20
132.898282
 30
0.0
 11
416.267653
 21
132.898282
 31
0.0
  0
LINE
  8
0
  6
CONTINUOUS
 62
     7
  5
2FA
 10
432.267653
 20
99.398282
 30
0.0
 11
416.267653
 21
99.398282
 31
0.0
  0
LINE
  8
0
  6
CONTINUOUS
 62
     9
  5
2FB
 10
416.267653
 20
99.398282
 30
0.0
 11
416.267653
 21
100.898282
 31
0.0
  0
LINE
  8
0
  6
CONTINUOUS
 62
     9
  5
2FC
 10
416.267653
 20
132.898282
 30
0.0
 11
416.267653
 21
134.398282
 31
0.0
  0
LINE
  8
0
  6
CONTINUOUS
 62
     7
  5
2FD
 10
416.267653
 20
134.398282
 30
0.0
 11
432.267653
 21
134.398282
 31
0.0
  0
ARC
  8
0
  6
CONTINUOUS
 62
     7
  5
2FE
 10
416.267653
 20
116.898282
 30
0.0
 40
17.5
 50
90.0
 51
270.0
210
0.0
220
0.0
230
1.0
  0
LINE
  8
0
  6
CONTINUOUS
 62
     7
  5
2FF
 10
454.267653
 20
179.898282
 30
0.0
 11
454.267653
 21
191.898282
 31
0.0
  0
LINE
  8
0
  6
CONTINUOUS
 62
     7
  5
300
 10
455.767653
 20
191.898282
 30
0.0
 11
455.767653
 21
179.898282
 31
0.0
  0
LINE
  8
0
  6
CONTINUOUS
 62
     7
  5
301
 10
454.267653
 20
191.898282
 30
0.0
 11
455.767653
 21
191.898282
 31
0.0
  0
LINE
  8
0
  6
CONTINUOUS
 62
     7
  5
302
 10
455.767653
 20
179.898282
 30
0.0
 11
454.267653
 21
179.898282
 31
0.0
  0
CIRCLE
  8
0
  6
CONTINUOUS
 62
     7
  5
303
 10
416.267653
 20
171.898282
 30
0.0
 40
4.25
210
0.0
220
0.0
230
1.0
  0
CIRCLE
  8
0
  6
CONTINUOUS
 62
     7
  5
304
 10
416.267653
 20
61.898282
 30
0.0
 40
4.25
210
0.0
220
0.0
230
1.0
  0
ARC
  8
0
  6
CONTINUOUS
 62
     7
  5
305
 10
451.267653
 20
90.201048
 30
0.0
 40
6.0
 50
140.0
 51
180.0
210
0.0
220
0.0
230
1.0
  0
LINE
  8
0
  6
CONTINUOUS
 62
     7
  5
306
 10
445.267653
 20
59.898282
 30
0.0
 11
445.267653
 21
90.201048
 31
0.0
  0
ARC
  8
0
  6
CONTINUOUS
 62
     7
  5
307
 10
451.267653
 20
59.898282
 30
0.0
 40
6.0
 50
180.0
 51
270.0
210
0.0
220
0.0
230
1.0
  0
LINE
  8
0
  6
CONTINUOUS
 62
     7
  5
308
 10
454.267653
 20
41.898282
 30
0.0
 11
454.267653
 21
53.898282
 31
0.0
  0
LINE
  8
0
  6
CONTINUOUS
 62
     7
  5
309
 10
376.767653
 20
191.898282
 30
0.0
 11
376.767653
 21
41.898282
 31
0.0
  0
ARC
  8
0
  6
CONTINUOUS
 62
     7
  5
30A
 10
451.267653
 20
173.898282
 30
0.0
 40
6.0
 50
90.0
 51
180.0
210
0.0
220
0.0
230
1.0
  0
LINE
  8
0
  6
CONTINUOUS
 62
     7
  5
30B
 10
445.267653
 20
143.595516
 30
0.0
 11
445.267653
 21
173.898282
 31
0.0
  0
ARC
  8
0
  6
CONTINUOUS
 62
     7
  5
30C
 10
451.267653
 20
143.595516
 30
0.0
 40
6.0
 50
180.0
 51
220.0
210
0.0
220
0.0
230
1.0
  0
LINE
  8
0
  6
CONTINUOUS
 62
     7
  5
30D
 10
454.267653
 20
103.110652
 30
0.0
 11
454.267653
 21
130.685913
 31
0.0
  0
LINE
  8
0
  6
CONTINUOUS
 62
     7
  5
30E
 10
454.267653
 20
53.898282
 30
0.0
 11
451.267653
 21
53.898282
 31
0.0
  0
LINE
  8
0
  6
CONTINUOUS
 62
     7
  5
30F
 10
454.267653
 20
191.898282
 30
0.0
 11
376.767653
 21
191.898282
 31
0.0
  0
LINE
  8
0
  6
CONTINUOUS
 62
     7
  5
310
 10
454.267653
 20
130.685913
 30
0.0
 11
446.671386
 21
139.738791
 31
0.0
  0
LINE
  8
0
  6
CONTINUOUS
 62
     7
  5
311
 10
376.767653
 20
41.898282
 30
0.0
 11
454.267653
 21
41.898282
 31
0.0
  0
LINE
  8
0
  6
CONTINUOUS
 62
     7
  5
312
 10
451.267653
 20
179.898282
 30
0.0
 11
454.267653
 21
179.898282
 31
0.0
  0
LINE
  8
0
  6
CONTINUOUS
 62
     7
  5
313
 10
446.671386
 20
94.057774
 30
0.0
 11
454.267653
 21
103.110652
 31
0.0
  0
LINE
  8
0
  6
CONTINUOUS
 62
     7
  5
314
 10
455.767653
 20
53.898282
 30
0.0
 11
455.767653
 21
41.898282
 31
0.0
  0
LINE
  8
0
  6
CONTINUOUS
 62
     7
  5
315
 10
454.267653
 20
53.898282
 30
0.0
 11
455.767653
 21
53.898282
 31
0.0
  0
LINE
  8
0
  6
CONTINUOUS
 62
     7
  5
316
 10
455.767653
 20
41.898282
 30
0.0
 11
454.267653
 21
41.898282
 31
0.0
  0
LINE
  8
0
  6
CONTINUOUS
 62
     7
  5
317
 10
455.767653
 20
128.898282
 30
0.0
 11
455.767653
 21
104.898282
 31
0.0
  0
LINE
  8
0
  6
CONTINUOUS
 62
     7
  5
318
 10
454.267653
 20
130.685913
 30
0.0
 11
455.767653
 21
128.898282
 31
0.0
  0
LINE
  8
0
  6
CONTINUOUS
 62
     7
  5
319
 10
455.767653
 20
104.898282
 30
0.0
 11
454.267653
 21
103.110652
 31
0.0
  0
LINE
  8
0
  6
CONTINUOUS
 62
     7
  5
31A
 10
455.767653
 20
128.898282
 30
0.0
 11
455.767653
 21
179.898282
 31
0.0
  0
LINE
  8
0
  6
CONTINUOUS
 62
     7
  5
31B
 10
455.767653
 20
104.898282
 30
0.0
 11
455.767653
 21
53.898282
 31
0.0
  0
LINE
  8
0
  6
CONTINUOUS
 62
     7
  5
31C
 10
420.267653
 20
192.898282
 30
0.0
 11
412.267653
 21
192.898282
 31
0.0
  0
LINE
  8
0
  6
CONTINUOUS
 62
     7
  5
31D
 10
421.267653
 20
274.898282
 30
0.0
 11
421.267653
 21
191.898282
 31
0.0
  0
LINE
  8
0
  6
CONTINUOUS
 62
     7
  5
31E
 10
421.267653
 20
41.898282
 30
0.0
 11
421.267653
 21
40.898282
 31
0.0
  0
LINE
  8
0
  6
CONTINUOUS
 62
     7
  5
31F
 10
431.267653
 20
40.898282
 30
0.0
 11
431.267653
 21
41.898282
 31
0.0
  0
LINE
  8
0
  6
CONTINUOUS
 62
     7
  5
320
 10
431.267653
 20
191.898282
 30
0.0
 11
431.267653
 21
274.898282
 31
0.0
  0
LINE
  8
0
  6
CONTINUOUS
 62
     7
  5
321
 10
386.767653
 20
274.898282
 30
0.0
 11
386.767653
 21
191.898282
 31
0.0
  0
LINE
  8
0
  6
CONTINUOUS
 62
     7
  5
322
 10
386.767653
 20
41.898282
 30
0.0
 11
386.767653
 21
40.898282
 31
0.0
  0
LINE
  8
0
  6
CONTINUOUS
 62
     7
  5
323
 10
402.767653
 20
40.898282
 30
0.0
 11
402.767653
 21
41.898282
 31
0.0
  0
LINE
  8
0
  6
CONTINUOUS
 62
     7
  5
324
 10
402.767653
 20
191.898282
 30
0.0
 11
402.767653
 21
274.898282
 31
0.0
  0
LINE
  8
0
  6
CONTINUOUS
 62
     7
  5
325
 10
445.767653
 20
40.898282
 30
0.0
 11
445.767653
 21
41.898282
 31
0.0
  0
LINE
  8
0
  6
CONTINUOUS
 62
     7
  5
326
 10
445.767653
 20
191.898282
 30
0.0
 11
445.767653
 21
274.898282
 31
0.0
  0
LINE
  8
0
  6
CONTINUOUS
 62
     7
  5
327
 10
420.267653
 20
191.898282
 30
0.0
 11
420.267653
 21
192.898282
 31
0.0
  0
LINE
  8
0
  6
CONTINUOUS
 62
     7
  5
328
 10
412.267653
 20
192.898282
 30
0.0
 11
412.267653
 21
191.898282
 31
0.0
  0
LINE
  8
0
  6
CONTINUOUS
 62
     7
  5
329
 10
412.267653
 20
41.898282
 30
0.0
 11
412.267653
 21
40.898282
 31
0.0
  0
LINE
  8
0
  6
CONTINUOUS
 62
     7
  5
32A
 10
420.267653
 20
40.898282
 30
0.0
 11
420.267653
 21
41.898282
 31
0.0
  0
ENDBLK
  8
0
  5
32B
  0
ENDSEC
  0
SECTION
  2
ENTITIES
  0
INSERT
  8
0
  5
B8
  2
AID3
 10
0.0
 20
0.0
 30
0.0
  0
INSERT
  8
0
  5
129
  2
AID295
 10
0.0
 20
0.0
 30
0.0
  0
INSERT
  8
0
  5
216
  2
AID517
 10
0.0
 20
0.0
 30
0.0
  0
INSERT
  8
0
  5
262
  2
AID815
 10
0.0
 20
0.0
 30
0.0
  0
INSERT
  8
0
  5
2AB
  2
AID963
 10
0.0
 20
0.0
 30
0.0
  0
INSERT
  8
0
  5
32C
  2
AID1105
 10
0.0
 20
0.0
 30
0.0
  0
LINE
  8
0
  6
CENTER
 62
     1
  5
32D
 10
126.37644
 20
352.367762
 30
0.0
 11
137.57644
 21
352.367762
 31
0.0
  0
LINE
  8
0
  6
CENTER
 62
     1
  5
32E
 10
131.97644
 20
346.767762
 30
0.0
 11
131.97644
 21
357.967762
 31
0.0
  0
LINE
  8
0
  6
CENTER
 62
     1
  5
32F
 10
131.97644
 20
360.857762
 30
0.0
 11
131.97644
 21
371.877762
 31
0.0
  0
LINE
  8
0
  6
CENTER
 62
     1
  5
330
 10
126.37644
 20
380.367762
 30
0.0
 11
137.57644
 21
380.367762
 31
0.0
  0
LINE
  8
0
  6
CENTER
 62
     1
  5
331
 10
131.97644
 20
374.767762
 30
0.0
 11
131.97644
 21
385.967762
 31
0.0
  0
LINE
  8
0
  6
CENTER
 62
     1
  5
332
 10
194.37644
 20
352.367762
 30
0.0
 11
205.57644
 21
352.367762
 31
0.0
  0
LINE
  8
0
  6
CENTER
 62
     1
  5
333
 10
199.97644
 20
346.767762
 30
0.0
 11
199.97644
 21
357.967762
 31
0.0
  0
LINE
  8
0
  6
CENTER
 62
     1
  5
334
 10
199.97644
 20
360.857762
 30
0.0
 11
199.97644
 21
371.877762
 31
0.0
  0
LINE
  8
0
  6
CENTER
 62
     1
  5
335
 10
194.37644
 20
380.367762
 30
0.0
 11
205.57644
 21
380.367762
 31
0.0
  0
LINE
  8
0
  6
CENTER
 62
     1
  5
336
 10
199.97644
 20
374.767762
 30
0.0
 11
199.97644
 21
385.967762
 31
0.0
  0
LINE
  8
0
  6
CENTER
 62
     1
  5
337
 10
7.064774
 20
76.898282
 30
0.0
 11
18.064774
 21
76.898282
 31
0.0
  0
LINE
  8
0
  6
CENTER
 62
     1
  5
338
 10
22.314774
 20
77.898282
 30
0.0
 11
34.314774
 21
77.898282
 31
0.0
  0
LINE
  8
0
  6
CENTER
 62
     1
  5
339
 10
28.314774
 20
71.898282
 30
0.0
 11
28.314774
 21
83.898282
 31
0.0
  0
LINE
  8
0
  6
CENTER
 62
     1
  5
33A
 10
22.314774
 20
155.898282
 30
0.0
 11
34.314774
 21
155.898282
 31
0.0
  0
LINE
  8
0
  6
CENTER
 62
     1
  5
33B
 10
28.314774
 20
149.898282
 30
0.0
 11
28.314774
 21
161.898282
 31
0.0
  0
LINE
  8
0
  6
CENTER
 62
     1
  5
33C
 10
39.054774
 20
93.648282
 30
0.0
 11
50.074774
 21
93.648282
 31
0.0
  0
LINE
  8
0
  6
CENTER
 62
     1
  5
33D
 10
39.054774
 20
140.148282
 30
0.0
 11
50.074774
 21
140.148282
 31
0.0
  0
LINE
  8
0
  6
CENTER
 62
     1
  5
33E
 10
54.814774
 20
77.898282
 30
0.0
 11
66.814774
 21
77.898282
 31
0.0
  0
LINE
  8
0
  6
CENTER
 62
     1
  5
33F
 10
60.814774
 20
71.898282
 30
0.0
 11
60.814774
 21
83.898282
 31
0.0
  0
LINE
  8
0
  6
CENTER
 62
     1
  5
340
 10
54.814774
 20
155.898282
 30
0.0
 11
66.814774
 21
155.898282
 31
0.0
  0
LINE
  8
0
  6
CENTER
 62
     1
  5
341
 10
60.814774
 20
149.898282
 30
0.0
 11
60.814774
 21
161.898282
 31
0.0
  0
LINE
  8
0
  6
CENTER
 62
     1
  5
342
 10
37.112447
 20
76.898282
 30
0.0
 11
20.064774
 21
76.898282
 31
0.0
  0
LINE
  8
0
  6
CENTER
 62
     1
  5
343
 10
7.064774
 20
156.898282
 30
0.0
 11
34.064774
 21
156.898282
 31
0.0
  0
LINE
  8
0
  6
CENTER
 62
     1
  5
344
 10
138.202577
 20
94.624419
 30
0.0
 11
149.202577
 21
94.624419
 31
0.0
  0
LINE
  8
0
  6
CENTER
 62
     1
  5
345
 10
143.702577
 20
89.124419
 30
0.0
 11
143.702577
 21
100.124419
 31
0.0
  0
LINE
  8
0
  6
CENTER
 62
     1
  5
346
 10
138.202577
 20
139.172146
 30
0.0
 11
149.202577
 21
139.172146
 31
0.0
  0
LINE
  8
0
  6
CENTER
 62
     1
  5
347
 10
143.702577
 20
133.672146
 30
0.0
 11
143.702577
 21
144.672146
 31
0.0
  0
LINE
  8
0
  6
CENTER
 62
     1
  5
348
 10
156.47644
 20
69.648282
 30
0.0
 11
156.47644
 21
84.148282
 31
0.0
  0
LINE
  8
0
  6
CENTER
 62
     1
  5
349
 10
156.47644
 20
149.648282
 30
0.0
 11
156.47644
 21
164.148282
 31
0.0
  0
LINE
  8
0
  6
CENTER
 62
     1
  5
34A
 10
158.72644
 20
61.898282
 30
0.0
 11
173.22644
 21
61.898282
 31
0.0
  0
LINE
  8
0
  6
CENTER
 62
     1
  5
34B
 10
142.27644
 20
116.898282
 30
0.0
 11
189.67644
 21
116.898282
 31
0.0
  0
LINE
  8
0
  6
CENTER
 62
     1
  5
34C
 10
158.72644
 20
171.898282
 30
0.0
 11
173.22644
 21
171.898282
 31
0.0
  0
LINE
  8
0
  6
CENTER
 62
     1
  5
34D
 10
175.47644
 20
69.648282
 30
0.0
 11
175.47644
 21
84.148282
 31
0.0
  0
LINE
  8
0
  6
CENTER
 62
     1
  5
34E
 10
175.47644
 20
149.648282
 30
0.0
 11
175.47644
 21
164.148282
 31
0.0
  0
LINE
  8
0
  6
CENTER
 62
     1
  5
34F
 10
182.750304
 20
94.624419
 30
0.0
 11
193.750304
 21
94.624419
 31
0.0
  0
LINE
  8
0
  6
CENTER
 62
     1
  5
350
 10
188.250304
 20
89.124419
 30
0.0
 11
188.250304
 21
100.124419
 31
0.0
  0
LINE
  8
0
  6
CENTER
 62
     1
  5
351
 10
182.750304
 20
139.172146
 30
0.0
 11
193.750304
 21
139.172146
 31
0.0
  0
LINE
  8
0
  6
CENTER
 62
     1
  5
352
 10
188.250304
 20
133.672146
 30
0.0
 11
188.250304
 21
144.672146
 31
0.0
  0
LINE
  8
0
  6
CENTER
 62
     1
  5
353
 10
149.22644
 20
156.898282
 30
0.0
 11
182.72644
 21
156.898282
 31
0.0
  0
LINE
  8
0
  6
CENTER
 62
     1
  5
354
 10
149.22644
 20
76.898282
 30
0.0
 11
182.72644
 21
76.898282
 31
0.0
  0
LINE
  8
0
  6
CENTER
 62
     1
  5
355
 10
277.134573
 20
47.898282
 30
0.0
 11
291.134573
 21
47.898282
 31
0.0
  0
LINE
  8
0
  6
CENTER
 62
     1
  5
356
 10
284.134573
 20
40.898282
 30
0.0
 11
284.134573
 21
54.898282
 31
0.0
  0
LINE
  8
0
  6
CENTER
 62
     1
  5
357
 10
277.134573
 20
185.898282
 30
0.0
 11
291.134573
 21
185.898282
 31
0.0
  0
LINE
  8
0
  6
CENTER
 62
     1
  5
358
 10
284.134573
 20
178.898282
 30
0.0
 11
284.134573
 21
192.898282
 31
0.0
  0
LINE
  8
0
  6
CENTER
 62
     1
  5
359
 10
416.267653
 20
195.898282
 30
0.0
 11
416.267653
 21
188.898282
 31
0.0
  0
LINE
  8
0
  6
CENTER
 62
     1
  5
35A
 10
409.017653
 20
61.898282
 30
0.0
 11
423.517653
 21
61.898282
 31
0.0
  0
LINE
  8
0
  6
CENTER
 62
     1
  5
35B
 10
416.267653
 20
54.648282
 30
0.0
 11
416.267653
 21
69.148282
 31
0.0
  0
LINE
  8
0
  6
CENTER
 62
     1
  5
35C
 10
405.267653
 20
116.898282
 30
0.0
 11
427.267653
 21
116.898282
 31
0.0
  0
LINE
  8
0
  6
CENTER
 62
     1
  5
35D
 10
416.267653
 20
105.898282
 30
0.0
 11
416.267653
 21
127.898282
 31
0.0
  0
LINE
  8
0
  6
CENTER
 62
     1
  5
35E
 10
409.017653
 20
171.898282
 30
0.0
 11
423.517653
 21
171.898282
 31
0.0
  0
LINE
  8
0
  6
CENTER
 62
     1
  5
35F
 10
416.267653
 20
164.648282
 30
0.0
 11
416.267653
 21
179.148282
 31
0.0
  0
LINE
  8
0
  6
CENTER
 62
     1
  5
360
 10
126.37644
 20
-54.678264
 30
0.0
 11
137.57644
 21
-54.678264
 31
0.0
  0
LINE
  8
0
  6
CENTER
 62
     1
  5
361
 10
131.97644
 20
-60.278264
 30
0.0
 11
131.97644
 21
-49.078264
 31
0.0
  0
LINE
  8
0
  6
CENTER
 62
     1
  5
362
 10
131.97644
 20
-46.188264
 30
0.0
 11
131.97644
 21
-35.168264
 31
0.0
  0
LINE
  8
0
  6
CENTER
 62
     1
  5
363
 10
126.37644
 20
-26.678264
 30
0.0
 11
137.57644
 21
-26.678264
 31
0.0
  0
LINE
  8
0
  6
CENTER
 62
     1
  5
364
 10
131.97644
 20
-32.278264
 30
0.0
 11
131.97644
 21
-21.078264
 31
0.0
  0
LINE
  8
0
  6
CENTER
 62
     1
  5
365
 10
194.37644
 20
-54.678264
 30
0.0
 11
205.57644
 21
-54.678264
 31
0.0
  0
LINE
  8
0
  6
CENTER
 62
     1
  5
366
 10
199.97644
 20
-60.278264
 30
0.0
 11
199.97644
 21
-49.078264
 31
0.0
  0
LINE
  8
0
  6
CENTER
 62
     1
  5
367
 10
199.97644
 20
-46.188264
 30
0.0
 11
199.97644
 21
-35.168264
 31
0.0
  0
LINE
  8
0
  6
CENTER
 62
     1
  5
368
 10
194.37644
 20
-26.678264
 30
0.0
 11
205.57644
 21
-26.678264
 31
0.0
  0
LINE
  8
0
  6
CENTER
 62
     1
  5
369
 10
199.97644
 20
-32.278264
 30
0.0
 11
199.97644
 21
-21.078264
 31
0.0
  0
LINE
  8
0
  6
CENTER
 62
     1
  5
36A
 10
126.46644
 20
366.367762
 30
0.0
 11
205.48644
 21
366.367762
 31
0.0
  0
LINE
  8
0
  6
CENTER
 62
     1
  5
36B
 10
126.46644
 20
-40.678264
 30
0.0
 11
205.48644
 21
-40.678264
 31
0.0
  0
LINE
  8
0
  6
CENTER
 62
     1
  5
36C
 10
165.97644
 20
54.648282
 30
0.0
 11
165.97644
 21
179.148282
 31
0.0
  0
LINE
  8
0
  6
CENTER
 62
     1
  5
36D
 10
44.564774
 20
88.138282
 30
0.0
 11
44.564774
 21
145.658282
 31
0.0
  0
LINE
  8
0
  6
CENTER
 62
     1
  5
36E
 10
36.054774
 20
116.898282
 30
0.0
 11
53.074774
 21
116.898282
 31
0.0
  0
LINE
  8
0
  6
CENTER
 62
     1
  5
36F
 10
165.97644
 20
357.857762
 30
0.0
 11
165.97644
 21
374.877762
 31
0.0
  0
LINE
  8
0
  6
CENTER
 62
     1
  5
370
 10
165.97644
 20
-49.188264
 30
0.0
 11
165.97644
 21
-32.168264
 31
0.0
  0
LINE
  8
0
  6
CENTER
 62
     1
  5
371
 10
144.47644
 20
277.898282
 30
0.0
 11
144.47644
 21
188.898282
 31
0.0
  0
LINE
  8
0
  6
CENTER
 62
     1
  5
372
 10
187.47644
 20
277.898282
 30
0.0
 11
187.47644
 21
188.898282
 31
0.0
  0
LINE
  8
0
  6
CENTER
 62
     1
  5
373
 10
297.834573
 20
277.898282
 30
0.0
 11
297.834573
 21
188.898282
 31
0.0
  0
LINE
  8
0
  6
CENTER
 62
     1
  5
374
 10
394.767653
 20
277.898282
 30
0.0
 11
394.767653
 21
188.898282
 31
0.0
  0
LINE
  8
0
  6
CENTER
 62
     1
  5
375
 10
438.517653
 20
188.898282
 30
0.0
 11
438.517653
 21
277.898282
 31
0.0
  0
LINE
  8
0
  6
CENTER
 62
     1
  5
376
 10
46.064774
 20
277.898282
 30
0.0
 11
46.064774
 21
188.898282
 31
0.0
  0
ENDSEC
  0
EOF
