  0
SECTION
  2
HEADER
  9
$ACADVER
  1
AC1009
  9
$DWGCODEPAGE
  3
ansi_1252
  9
$INSBASE
 10
0.0
 20
0.0
 30
0.0
  9
$EXTMIN
 10
-20.278373
 20
-18.952891
 30
0.0
  9
$EXTMAX
 10
410.09956
 20
316.942175
 30
5.0
  9
$LIMMIN
 10
-20.278373
 20
-18.952891
  9
$LIMMAX
 10
410.09956
 20
316.942175
  9
$ORTHOMODE
 70
     0
  9
$REGENMODE
 70
     1
  9
$FILLMODE
 70
     1
  9
$QTEXTMODE
 70
     0
  9
$MIRRTEXT
 70
     1
  9
$DRAGMODE
 70
     2
  9
$LTSCALE
 40
10.0
  9
$OSMODE
 70
     0
  9
$ATTMODE
 70
     1
  9
$TEXTSIZE
 40
0.2
  9
$TRACEWID
 40
0.05
  9
$TEXTSTYLE
  7
STANDARD
  9
$CLAYER
  8
0
  9
$CELTYPE
  6
CONTINUOUS
  9
$CECOLOR
 62
   256
  9
$DIMSCALE
 40
1.0
  9
$DIMASZ
 40
1.25
  9
$DIMEXO
 40
1.0
  9
$DIMDLI
 40
0.38
  9
$DIMRND
 40
0.0
  9
$DIMDLE
 40
0.0
  9
$DIMEXE
 40
0.75
  9
$DIMTP
 40
0.0
  9
$DIMTM
 40
0.0
  9
$DIMTXT
 40
2.5
  9
$DIMCEN
 40
0.09
  9
$DIMTSZ
 40
0.0
  9
$DIMTOL
 70
     0
  9
$DIMLIM
 70
     0
  9
$DIMTIH
 70
     0
  9
$DIMTOH
 70
     0
  9
$DIMSE1
 70
     0
  9
$DIMSE2
 70
     0
  9
$DIMTAD
 70
     1
  9
$DIMZIN
 70
     0
  9
$DIMBLK
  1

  9
$DIMASO
 70
     1
  9
$DIMSHO
 70
     1
  9
$DIMPOST
  1

  9
$DIMAPOST
  1

  9
$DIMALT
 70
     0
  9
$DIMALTD
 70
     2
  9
$DIMALTF
 40
25.4
  9
$DIMLFAC
 40
1.0
  9
$DIMTOFL
 70
     0
  9
$DIMTVP
 40
0.0
  9
$DIMTIX
 70
     0
  9
$DIMSOXD
 70
     0
  9
$DIMSAH
 70
     0
  9
$DIMBLK1
  1

  9
$DIMBLK2
  1

  9
$DIMSTYLE
  2
STANDARD
  9
$DIMCLRD
 70
     7
  9
$DIMCLRE
 70
     7
  9
$DIMCLRT
 70
     7
  9
$DIMTFAC
 40
0.8
  9
$DIMGAP
 40
1.25
  9
$LUNITS
 70
     2
  9
$LUPREC
 70
     4
  9
$AXISMODE
 70
     0
  9
$AXISUNIT
 10
0.0
 20
0.0
  9
$SKETCHINC
 40
0.1
  9
$FILLETRAD
 40
0.0
  9
$AUNITS
 70
     0
  9
$AUPREC
 70
     0
  9
$MENU
  1
acad
  9
$ELEVATION
 40
0.0
  9
$PELEVATION
 40
0.0
  9
$THICKNESS
 40
0.0
  9
$LIMCHECK
 70
     0
  9
$BLIPMODE
 70
     1
  9
$CHAMFERA
 40
0.0
  9
$CHAMFERB
 40
0.0
  9
$SKPOLY
 70
     0
  9
$TDCREATE
 40
2454335.373217593
  9
$TDUPDATE
 40
2454335.289861111
  9
$TDINDWG
 40
0.0000000000
  9
$TDUSRTIMER
 40
0.0000000000
  9
$USRTIMER
 70
     1
  9
$ANGBASE
 50
0.0
  9
$ANGDIR
 70
     0
  9
$PDMODE
 70
     0
  9
$PDSIZE
 40
0.0
  9
$PLINEWID
 40
0.0
  9
$COORDS
 70
     0
  9
$SPLFRAME
 70
     0
  9
$SPLINETYPE
 70
     6
  9
$SPLINESEGS
 70
     8
  9
$ATTDIA
 70
     0
  9
$ATTREQ
 70
     1
  9
$HANDLING
 70
     1
  9
$HANDSEED
  5
E1
  9
$SURFTAB1
 70
     6
  9
$SURFTAB2
 70
     6
  9
$SURFTYPE
 70
     6
  9
$SURFU
 70
     6
  9
$SURFV
 70
     6
  9
$UCSNAME
  2

  9
$UCSORG
 10
0.0
 20
0.0
 30
0.0
  9
$UCSXDIR
 10
1.0
 20
0.0
 30
0.0
  9
$UCSYDIR
 10
0.0
 20
1.0
 30
0.0
  9
$PUCSNAME
  2

  9
$PUCSORG
 10
0.0
 20
0.0
 30
0.0
  9
$PUCSXDIR
 10
1.0
 20
0.0
 30
0.0
  9
$PUCSYDIR
 10
0.0
 20
1.0
 30
0.0
  9
$USERI1
 70
     0
  9
$USERI2
 70
     0
  9
$USERI3
 70
     0
  9
$USERI4
 70
     0
  9
$USERI5
 70
     0
  9
$USERR1
 40
0.0
  9
$USERR2
 40
0.0
  9
$USERR3
 40
0.0
  9
$USERR4
 40
0.0
  9
$USERR5
 40
0.0
  9
$WORLDVIEW
 70
     1
  9
$SHADEDGE
 70
     3
  9
$SHADEDIF
 70
    70
  9
$TILEMODE
 70
     1
  9
$MAXACTVP
 70
    16
  9
$PINSBASE
 10
0.0
 20
0.0
 30
0.0
  9
$PLIMCHECK
 70
     0
  9
$PEXTMIN
 10
1.000000E+20
 20
1.000000E+20
 30
1.000000E+20
  9
$PEXTMAX
 10
-1.000000E+20
 20
-1.000000E+20
 30
-1.000000E+20
  9
$PLIMMIN
 10
0.0
 20
0.0
  9
$PLIMMAX
 10
12.0
 20
9.0
  9
$UNITMODE
 70
     0
  9
$VISRETAIN
 70
     0
  9
$PLINEGEN
 70
     1
  9
$PSLTSCALE
 70
     0
  9
$TREEDEPTH
 70
  3020
  0
ENDSEC
  0
SECTION
  2
TABLES
  0
TABLE
  2
VPORT
 70
     1
  0
VPORT
  2
*ACTIVE
 70
     0
 10
0.0
 20
0.0
 11
1.0
 21
1.0
 12
6.591288
 22
4.579184
 13
0.0
 23
0.0
 14
1.0
 24
1.0
 15
0.0
 25
0.0
 16
0.0
 26
0.0
 36
1.0
 17
0.0
 27
0.0
 37
0.0
 40
9.158369
 41
0.688564
 42
50.0
 43
0.0
 44
0.0
 50
0.0
 51
0.0
 71
     0
 72
   100
 73
     1
 74
     1
 75
     0
 76
     0
 77
     0
 78
     0
  0
ENDTAB
  0
TABLE
  2
LTYPE
 70
     3
  0
LTYPE
  2
CONTINUOUS
 70
    64
  3
Solid line
 72
    65
 73
     0
 40
0.0
  0
LTYPE
  2
DOT
 70
    64
  3
...............................................
 72
    65
 73
     2
 40
0.5
 49
0.25
 49
-0.25
  0
LTYPE
  2
CENTER
 70
    64
  3
____ _ ____ _ ____ _ ____ _ ____ _ ____ _ ____
 72
    65
 73
     4
 40
2.0
 49
1.25
 49
-0.25
 49
0.25
 49
-0.25
  0
ENDTAB
  0
TABLE
  2
LAYER
 70
     1
  0
LAYER
  2
0
 70
     0
 62
     7
  6
CONTINUOUS
  0
ENDTAB
  0
TABLE
  2
STYLE
 70
     1
  0
STYLE
  2
STANDARD
 70
     0
 40
0.0
 41
1.0
 50
0.0
 71
     0
 42
0.0
  3
IsonormD
  4

  0
ENDTAB
  0
TABLE
  2
VIEW
 70
     0
  0
ENDTAB
  0
TABLE
  2
UCS
 70
     0
  0
ENDTAB
  0
TABLE
  2
APPID
 70
     2
  0
APPID
  2
ACAD
 70
     0
  0
APPID
  2
TopSolid_Draft
 70
     0
  0
ENDTAB
  0
TABLE
  2
DIMSTYLE
 70
     1
  0
DIMSTYLE
  2
STANDARD
 70
     0
  3

  4

  5

  6

  7

 40
1.0
 41
1.25
 42
1.0
 43
0.38
 44
0.75
 45
0.0
 46
0.0
 47
0.0
 48
0.0
 71
     0
 72
     0
 73
     0
 74
     0
 75
     0
 76
     0
 77
     1
 78
     0
140
2.5
141
0.09
142
0.0
143
25.4
144
1.0
145
0.0
146
0.8
147
1.25
170
     0
171
     2
172
     0
173
     0
174
     0
175
     0
176
     7
177
     7
178
     7
  0
ENDTAB
  0
ENDSEC
  0
SECTION
  2
BLOCKS
  0
BLOCK
  8
0
  5
25
  2
AID3
 70
     0
 10
0.0
 20
0.0
 30
0.0
  3
#draft view
  0
LINE
  8
0
  6
CONTINUOUS
 62
     7
  5
26
 10
250.776653
 20
196.908989
 30
0.0
 11
250.776653
 21
154.908989
 31
0.0
  0
LINE
  8
0
  6
CONTINUOUS
 62
     7
  5
27
 10
214.776653
 20
196.908989
 30
0.0
 11
214.776653
 21
154.908989
 31
0.0
  0
LINE
  8
0
  6
CONTINUOUS
 62
     7
  5
28
 10
250.776653
 20
196.908989
 30
0.0
 11
214.776653
 21
196.908989
 31
0.0
  0
LINE
  8
0
  6
CONTINUOUS
 62
     7
  5
29
 10
250.776653
 20
154.908989
 30
0.0
 11
214.776653
 21
154.908989
 31
0.0
  0
LINE
  8
0
  6
CONTINUOUS
 62
     7
  5
2A
 10
218.276653
 20
149.308989
 30
0.0
 11
223.276653
 21
149.308989
 31
0.0
  0
LINE
  8
0
  6
CONTINUOUS
 62
     7
  5
2B
 10
222.876653
 20
148.908989
 30
0.0
 11
218.676653
 21
148.908989
 31
0.0
  0
LINE
  8
0
  6
CONTINUOUS
 62
     7
  5
2C
 10
242.276653
 20
149.308989
 30
0.0
 11
247.276653
 21
149.308989
 31
0.0
  0
LINE
  8
0
  6
CONTINUOUS
 62
     7
  5
2D
 10
246.876653
 20
148.908989
 30
0.0
 11
242.676653
 21
148.908989
 31
0.0
  0
LINE
  8
0
  6
CONTINUOUS
 62
     7
  5
2E
 10
144.776653
 20
116.908989
 30
0.0
 11
152.776653
 21
116.908989
 31
0.0
  0
LINE
  8
0
  6
CONTINUOUS
 62
     7
  5
2F
 10
144.776653
 20
183.908989
 30
0.0
 11
144.776653
 21
116.908989
 31
0.0
  0
LINE
  8
0
  6
CONTINUOUS
 62
     7
  5
30
 10
152.776653
 20
183.908989
 30
0.0
 11
152.776653
 21
116.908989
 31
0.0
  0
LINE
  8
0
  6
CONTINUOUS
 62
     7
  5
31
 10
144.776653
 20
183.908989
 30
0.0
 11
152.776653
 21
183.908989
 31
0.0
  0
LINE
  8
0
  6
CONTINUOUS
 62
     7
  5
32
 10
141.576653
 20
170.658989
 30
0.0
 11
141.576653
 21
175.908989
 31
0.0
  0
LINE
  8
0
  6
CONTINUOUS
 62
     7
  5
33
 10
141.576653
 20
175.908989
 30
0.0
 11
141.576653
 21
181.158989
 31
0.0
  0
LINE
  8
0
  6
CONTINUOUS
 62
     7
  5
34
 10
155.976653
 20
170.658989
 30
0.0
 11
155.976653
 21
175.908989
 31
0.0
  0
LINE
  8
0
  6
CONTINUOUS
 62
     7
  5
35
 10
155.976653
 20
175.908989
 30
0.0
 11
155.976653
 21
181.158989
 31
0.0
  0
LINE
  8
0
  6
CONTINUOUS
 62
     7
  5
36
 10
136.576653
 20
180.158989
 30
0.0
 11
136.576653
 21
175.908989
 31
0.0
  0
LINE
  8
0
  6
CONTINUOUS
 62
     7
  5
37
 10
136.576653
 20
175.908989
 30
0.0
 11
136.576653
 21
171.658989
 31
0.0
  0
LINE
  8
0
  6
CONTINUOUS
 62
     7
  5
38
 10
161.176653
 20
173.408989
 30
0.0
 11
161.176653
 21
175.908989
 31
0.0
  0
LINE
  8
0
  6
CONTINUOUS
 62
     7
  5
39
 10
161.176653
 20
175.908989
 30
0.0
 11
161.176653
 21
178.408989
 31
0.0
  0
LINE
  8
0
  6
CONTINUOUS
 62
     7
  5
3A
 10
161.576653
 20
178.008989
 30
0.0
 11
161.576653
 21
175.908989
 31
0.0
  0
LINE
  8
0
  6
CONTINUOUS
 62
     7
  5
3B
 10
161.576653
 20
175.908989
 30
0.0
 11
161.576653
 21
173.808989
 31
0.0
  0
LINE
  8
0
  6
DOT
 62
     9
  5
3D
 10
250.776653
 20
194.408989
 30
0.0
 11
214.776653
 21
194.408989
 31
0.0
  0
LINE
  8
0
  6
DOT
 62
     9
  5
3E
 10
214.776653
 20
157.408989
 30
0.0
 11
250.776653
 21
157.408989
 31
0.0
  0
LINE
  8
0
  6
CONTINUOUS
 62
     7
  5
3F
 10
223.276653
 20
149.308989
 30
0.0
 11
223.276653
 21
154.908989
 31
0.0
  0
LINE
  8
0
  6
CONTINUOUS
 62
     7
  5
40
 10
218.276653
 20
154.908989
 30
0.0
 11
218.276653
 21
149.308989
 31
0.0
  0
LINE
  8
0
  6
CONTINUOUS
 62
     7
  5
41
 10
218.276653
 20
149.308989
 30
0.0
 11
218.676653
 21
148.908989
 31
0.0
  0
LINE
  8
0
  6
CONTINUOUS
 62
     7
  5
42
 10
222.876653
 20
148.908989
 30
0.0
 11
223.276653
 21
149.308989
 31
0.0
  0
LINE
  8
0
  6
CONTINUOUS
 62
     7
  5
43
 10
247.276653
 20
149.308989
 30
0.0
 11
247.276653
 21
154.908989
 31
0.0
  0
LINE
  8
0
  6
CONTINUOUS
 62
     7
  5
44
 10
242.276653
 20
154.908989
 30
0.0
 11
242.276653
 21
149.308989
 31
0.0
  0
LINE
  8
0
  6
CONTINUOUS
 62
     7
  5
45
 10
242.276653
 20
149.308989
 30
0.0
 11
242.676653
 21
148.908989
 31
0.0
  0
LINE
  8
0
  6
CONTINUOUS
 62
     7
  5
46
 10
246.876653
 20
148.908989
 30
0.0
 11
247.276653
 21
149.308989
 31
0.0
  0
LINE
  8
0
  6
DOT
 62
     9
  5
47
 10
152.776653
 20
138.908989
 30
0.0
 11
144.776653
 21
138.908989
 31
0.0
  0
LINE
  8
0
  6
DOT
 62
     9
  5
48
 10
144.776653
 20
122.908989
 30
0.0
 11
152.776653
 21
122.908989
 31
0.0
  0
LINE
  8
0
  6
CONTINUOUS
 62
     7
  5
49
 10
144.776653
 20
181.158989
 30
0.0
 11
141.576653
 21
181.158989
 31
0.0
  0
LINE
  8
0
  6
CONTINUOUS
 62
     7
  5
4A
 10
141.576653
 20
170.658989
 30
0.0
 11
144.776653
 21
170.658989
 31
0.0
  0
LINE
  8
0
  6
CONTINUOUS
 62
     7
  5
4B
 10
152.776653
 20
170.658989
 30
0.0
 11
155.976653
 21
170.658989
 31
0.0
  0
LINE
  8
0
  6
CONTINUOUS
 62
     7
  5
4C
 10
155.976653
 20
181.158989
 30
0.0
 11
152.776653
 21
181.158989
 31
0.0
  0
LINE
  8
0
  6
CONTINUOUS
 62
     7
  5
4D
 10
141.576653
 20
180.158989
 30
0.0
 11
136.576653
 21
180.158989
 31
0.0
  0
LINE
  8
0
  6
CONTINUOUS
 62
     7
  5
4E
 10
136.576653
 20
171.658989
 30
0.0
 11
141.576653
 21
171.658989
 31
0.0
  0
LINE
  8
0
  6
CONTINUOUS
 62
     7
  5
4F
 10
155.976653
 20
173.408989
 30
0.0
 11
161.176653
 21
173.408989
 31
0.0
  0
LINE
  8
0
  6
CONTINUOUS
 62
     7
  5
50
 10
161.176653
 20
178.408989
 30
0.0
 11
155.976653
 21
178.408989
 31
0.0
  0
LINE
  8
0
  6
CONTINUOUS
 62
     7
  5
51
 10
161.176653
 20
173.408989
 30
0.0
 11
161.576653
 21
173.808989
 31
0.0
  0
LINE
  8
0
  6
CONTINUOUS
 62
     7
  5
52
 10
161.576653
 20
178.008989
 30
0.0
 11
161.176653
 21
178.408989
 31
0.0
  0
ENDBLK
  8
0
  5
53
  0
BLOCK
  8
0
  5
56
  2
AID125
 70
     0
 10
0.0
 20
0.0
 30
0.0
  3
#auxiliary draft view
  0
LINE
  8
0
  6
CONTINUOUS
 62
     7
  5
57
 10
-19.778373
 20
196.908989
 30
0.0
 11
-19.778373
 21
154.908989
 31
0.0
  0
LINE
  8
0
  6
CONTINUOUS
 62
     7
  5
58
 10
29.221627
 20
196.908989
 30
0.0
 11
-19.778373
 21
196.908989
 31
0.0
  0
CIRCLE
  8
0
  6
CONTINUOUS
 62
     7
  5
59
 10
1.221627
 20
175.908989
 30
0.0
 40
18.5
210
0.0
220
0.0
230
1.0
  0
LINE
  8
0
  6
CONTINUOUS
 62
     7
  5
5A
 10
29.221627
 20
154.908989
 30
0.0
 11
29.221627
 21
196.908989
 31
0.0
  0
LINE
  8
0
  6
CONTINUOUS
 62
     7
  5
5B
 10
-19.778373
 20
154.908989
 30
0.0
 11
29.221627
 21
154.908989
 31
0.0
  0
LINE
  8
0
  6
CONTINUOUS
 62
     7
  5
5C
 10
20.721627
 20
149.308989
 30
0.0
 11
23.221627
 21
149.308989
 31
0.0
  0
LINE
  8
0
  6
CONTINUOUS
 62
     7
  5
5D
 10
23.221627
 20
149.308989
 30
0.0
 11
25.721627
 21
149.308989
 31
0.0
  0
LINE
  8
0
  6
CONTINUOUS
 62
     7
  5
5E
 10
25.321627
 20
148.908989
 30
0.0
 11
23.221627
 21
148.908989
 31
0.0
  0
LINE
  8
0
  6
CONTINUOUS
 62
     7
  5
5F
 10
23.221627
 20
148.908989
 30
0.0
 11
21.121627
 21
148.908989
 31
0.0
  0
CIRCLE
  8
0
  6
CONTINUOUS
 62
     7
  5
60
 10
1.221627
 20
175.908989
 30
0.0
 40
2.1
210
0.0
220
0.0
230
1.0
  0
CIRCLE
  8
0
  6
CONTINUOUS
 62
     7
  5
61
 10
1.221627
 20
175.908989
 30
0.0
 40
2.5
210
0.0
220
0.0
230
1.0
  0
CIRCLE
  8
0
  6
CONTINUOUS
 62
     7
  5
62
 10
1.221627
 20
175.908989
 30
0.0
 40
5.25
210
0.0
220
0.0
230
1.0
  0
CIRCLE
  8
0
  6
CONTINUOUS
 62
     7
  5
63
 10
1.221627
 20
175.908989
 30
0.0
 40
2.75
210
0.0
220
0.0
230
1.0
  0
CIRCLE
  8
0
  6
CONTINUOUS
 62
     7
  5
64
 10
1.221627
 20
130.908989
 30
0.0
 40
8.0
210
0.0
220
0.0
230
1.0
  0
LINE
  8
0
  6
CONTINUOUS
 62
     7
  5
65
 10
-8.778373
 20
183.908989
 30
0.0
 11
-8.778373
 21
160.344606
 31
0.0
  0
LINE
  8
0
  6
CONTINUOUS
 62
     7
  5
66
 10
-8.778373
 20
154.908989
 30
0.0
 11
-8.778373
 21
116.908989
 31
0.0
  0
LINE
  8
0
  6
CONTINUOUS
 62
     7
  5
67
 10
11.221627
 20
183.908989
 30
0.0
 11
-8.778373
 21
183.908989
 31
0.0
  0
LINE
  8
0
  6
CONTINUOUS
 62
     7
  5
68
 10
11.221627
 20
116.908989
 30
0.0
 11
11.221627
 21
154.908989
 31
0.0
  0
LINE
  8
0
  6
CONTINUOUS
 62
     7
  5
69
 10
11.221627
 20
160.344606
 30
0.0
 11
11.221627
 21
183.908989
 31
0.0
  0
LINE
  8
0
  6
CONTINUOUS
 62
     7
  5
6A
 10
-8.778373
 20
116.908989
 30
0.0
 11
11.221627
 21
116.908989
 31
0.0
  0
LINE
  8
0
  6
CONTINUOUS
 62
     7
  5
6B
 10
25.721627
 20
149.308989
 30
0.0
 11
25.721627
 21
154.908989
 31
0.0
  0
LINE
  8
0
  6
CONTINUOUS
 62
     7
  5
6C
 10
20.721627
 20
154.908989
 30
0.0
 11
20.721627
 21
149.308989
 31
0.0
  0
LINE
  8
0
  6
CONTINUOUS
 62
     7
  5
6D
 10
20.721627
 20
149.308989
 30
0.0
 11
21.121627
 21
148.908989
 31
0.0
  0
LINE
  8
0
  6
CONTINUOUS
 62
     7
  5
6E
 10
25.321627
 20
148.908989
 30
0.0
 11
25.721627
 21
149.308989
 31
0.0
  0
ENDBLK
  8
0
  5
6F
  0
BLOCK
  8
0
  5
72
  2
AID177
 70
     0
 10
0.0
 20
0.0
 30
0.0
  3
#auxiliary draft view
  0
ARC
  8
0
  6
CONTINUOUS
 62
     7
  5
73
 10
389.09956
 20
175.908989
 30
0.0
 40
18.5
 50
302.720443
 51
180.0
210
0.0
220
0.0
230
1.0
  0
ARC
  8
0
  6
CONTINUOUS
 62
     7
  5
74
 10
389.09956
 20
175.908989
 30
0.0
 40
18.5
 50
180.0
 51
237.279557
210
0.0
220
0.0
230
1.0
  0
LINE
  8
0
  6
CONTINUOUS
 62
     7
  5
75
 10
410.09956
 20
196.908989
 30
0.0
 11
410.09956
 21
154.908989
 31
0.0
  0
LINE
  8
0
  6
CONTINUOUS
 62
     7
  5
76
 10
410.09956
 20
154.908989
 30
0.0
 11
399.09956
 21
154.908989
 31
0.0
  0
LINE
  8
0
  6
CONTINUOUS
 62
     7
  5
77
 10
379.09956
 20
154.908989
 30
0.0
 11
361.09956
 21
154.908989
 31
0.0
  0
LINE
  8
0
  6
CONTINUOUS
 62
     7
  5
78
 10
361.09956
 20
196.908989
 30
0.0
 11
410.09956
 21
196.908989
 31
0.0
  0
LINE
  8
0
  6
CONTINUOUS
 62
     7
  5
79
 10
361.09956
 20
154.908989
 30
0.0
 11
361.09956
 21
196.908989
 31
0.0
  0
LINE
  8
0
  6
CONTINUOUS
 62
     7
  5
7A
 10
364.59956
 20
149.308989
 30
0.0
 11
369.59956
 21
149.308989
 31
0.0
  0
LINE
  8
0
  6
CONTINUOUS
 62
     7
  5
7B
 10
369.19956
 20
148.908989
 30
0.0
 11
364.99956
 21
148.908989
 31
0.0
  0
LINE
  8
0
  6
CONTINUOUS
 62
     7
  5
7C
 10
387.09956
 20
177.063689
 30
0.0
 11
389.09956
 21
178.21839
 31
0.0
  0
LINE
  8
0
  6
CONTINUOUS
 62
     7
  5
7D
 10
387.09956
 20
174.754288
 30
0.0
 11
387.09956
 21
177.063689
 31
0.0
  0
LINE
  8
0
  6
CONTINUOUS
 62
     7
  5
7E
 10
389.09956
 20
173.599588
 30
0.0
 11
387.09956
 21
174.754288
 31
0.0
  0
LINE
  8
0
  6
CONTINUOUS
 62
     7
  5
7F
 10
391.09956
 20
174.754288
 30
0.0
 11
389.09956
 21
173.599588
 31
0.0
  0
LINE
  8
0
  6
CONTINUOUS
 62
     7
  5
80
 10
391.09956
 20
177.063689
 30
0.0
 11
391.09956
 21
174.754288
 31
0.0
  0
LINE
  8
0
  6
CONTINUOUS
 62
     7
  5
81
 10
389.09956
 20
178.21839
 30
0.0
 11
391.09956
 21
177.063689
 31
0.0
  0
CIRCLE
  8
0
  6
CONTINUOUS
 62
     7
  5
82
 10
389.09956
 20
175.908989
 30
0.0
 40
4.25
210
0.0
220
0.0
230
1.0
  0
CIRCLE
  8
0
  6
CONTINUOUS
 62
     7
  5
83
 10
389.09956
 20
175.908989
 30
0.0
 40
5.25
210
0.0
220
0.0
230
1.0
  0
CIRCLE
  8
0
  6
CONTINUOUS
 62
     7
  5
84
 10
389.09956
 20
130.908989
 30
0.0
 40
8.0
210
0.0
220
0.0
230
1.0
  0
LINE
  8
0
  6
CONTINUOUS
 62
     7
  5
85
 10
379.09956
 20
116.908989
 30
0.0
 11
379.09956
 21
183.908989
 31
0.0
  0
LINE
  8
0
  6
CONTINUOUS
 62
     7
  5
86
 10
379.09956
 20
183.908989
 30
0.0
 11
399.09956
 21
183.908989
 31
0.0
  0
LINE
  8
0
  6
CONTINUOUS
 62
     7
  5
87
 10
399.09956
 20
183.908989
 30
0.0
 11
399.09956
 21
116.908989
 31
0.0
  0
LINE
  8
0
  6
CONTINUOUS
 62
     7
  5
88
 10
399.09956
 20
116.908989
 30
0.0
 11
379.09956
 21
116.908989
 31
0.0
  0
LINE
  8
0
  6
CONTINUOUS
 62
     7
  5
89
 10
369.59956
 20
149.308989
 30
0.0
 11
369.59956
 21
154.908989
 31
0.0
  0
LINE
  8
0
  6
CONTINUOUS
 62
     7
  5
8A
 10
364.59956
 20
154.908989
 30
0.0
 11
364.59956
 21
149.308989
 31
0.0
  0
LINE
  8
0
  6
CONTINUOUS
 62
     7
  5
8B
 10
364.59956
 20
149.308989
 30
0.0
 11
364.99956
 21
148.908989
 31
0.0
  0
LINE
  8
0
  6
CONTINUOUS
 62
     7
  5
8C
 10
369.19956
 20
148.908989
 30
0.0
 11
369.59956
 21
149.308989
 31
0.0
  0
ENDBLK
  8
0
  5
8D
  0
BLOCK
  8
0
  5
90
  2
AID233
 70
     0
 10
0.0
 20
0.0
 30
0.0
  3
#auxiliary draft view
  0
LINE
  8
0
  6
CONTINUOUS
 62
     7
  5
91
 10
250.776653
 20
-18.952891
 30
0.0
 11
214.776653
 21
-18.952891
 31
0.0
  0
LINE
  8
0
  6
CONTINUOUS
 62
     7
  5
92
 10
214.776653
 20
30.047109
 30
0.0
 11
214.776653
 21
-18.952891
 31
0.0
  0
LINE
  8
0
  6
CONTINUOUS
 62
     7
  5
93
 10
250.776653
 20
30.047109
 30
0.0
 11
214.776653
 21
30.047109
 31
0.0
  0
LINE
  8
0
  6
CONTINUOUS
 62
     7
  5
94
 10
250.776653
 20
30.047109
 30
0.0
 11
250.776653
 21
-18.952891
 31
0.0
  0
LINE
  8
0
  6
CONTINUOUS
 62
     7
  5
95
 10
144.776653
 20
12.047109
 30
0.0
 11
144.776653
 21
-7.952891
 31
0.0
  0
LINE
  8
0
  6
CONTINUOUS
 62
     7
  5
96
 10
152.776653
 20
12.047109
 30
0.0
 11
152.776653
 21
-7.952891
 31
0.0
  0
LINE
  8
0
  6
CONTINUOUS
 62
     7
  5
97
 10
144.776653
 20
-7.952891
 30
0.0
 11
152.776653
 21
-7.952891
 31
0.0
  0
LINE
  8
0
  6
CONTINUOUS
 62
     7
  5
98
 10
144.776653
 20
12.047109
 30
0.0
 11
152.776653
 21
12.047109
 31
0.0
  0
LINE
  8
0
  6
CONTINUOUS
 62
     7
  5
99
 10
155.976653
 20
-3.202891
 30
0.0
 11
155.976653
 21
7.297109
 31
0.0
  0
LINE
  8
0
  6
CONTINUOUS
 62
     7
  5
9A
 10
141.576653
 20
-3.202891
 30
0.0
 11
141.576653
 21
7.297109
 31
0.0
  0
LINE
  8
0
  6
CONTINUOUS
 62
     7
  5
9B
 10
136.576653
 20
6.297109
 30
0.0
 11
136.576653
 21
-2.202891
 31
0.0
  0
LINE
  8
0
  6
CONTINUOUS
 62
     7
  5
9C
 10
161.576653
 20
4.147109
 30
0.0
 11
161.576653
 21
-0.052891
 31
0.0
  0
LINE
  8
0
  6
CONTINUOUS
 62
     7
  5
9D
 10
161.176653
 20
-0.452891
 30
0.0
 11
161.176653
 21
4.547109
 31
0.0
  0
LINE
  8
0
  6
CONTINUOUS
 62
     7
  5
9E
 10
152.776653
 20
-3.202891
 30
0.0
 11
155.976653
 21
-3.202891
 31
0.0
  0
LINE
  8
0
  6
CONTINUOUS
 62
     7
  5
9F
 10
155.976653
 20
7.297109
 30
0.0
 11
152.776653
 21
7.297109
 31
0.0
  0
LINE
  8
0
  6
CONTINUOUS
 62
     7
  5
A0
 10
144.776653
 20
7.297109
 30
0.0
 11
141.576653
 21
7.297109
 31
0.0
  0
LINE
  8
0
  6
CONTINUOUS
 62
     7
  5
A1
 10
141.576653
 20
-3.202891
 30
0.0
 11
144.776653
 21
-3.202891
 31
0.0
  0
LINE
  8
0
  6
CONTINUOUS
 62
     7
  5
A2
 10
141.576653
 20
6.297109
 30
0.0
 11
136.576653
 21
6.297109
 31
0.0
  0
LINE
  8
0
  6
CONTINUOUS
 62
     7
  5
A3
 10
136.576653
 20
-2.202891
 30
0.0
 11
141.576653
 21
-2.202891
 31
0.0
  0
LINE
  8
0
  6
CONTINUOUS
 62
     7
  5
A4
 10
161.176653
 20
-0.452891
 30
0.0
 11
161.576653
 21
-0.052891
 31
0.0
  0
LINE
  8
0
  6
CONTINUOUS
 62
     7
  5
A5
 10
161.576653
 20
4.147109
 30
0.0
 11
161.176653
 21
4.547109
 31
0.0
  0
LINE
  8
0
  6
CONTINUOUS
 62
     7
  5
A6
 10
155.976653
 20
-0.452891
 30
0.0
 11
161.176653
 21
-0.452891
 31
0.0
  0
LINE
  8
0
  6
CONTINUOUS
 62
     7
  5
A7
 10
161.176653
 20
4.547109
 30
0.0
 11
155.976653
 21
4.547109
 31
0.0
  0
ENDBLK
  8
0
  5
A8
  0
BLOCK
  8
0
  5
AB
  2
AID283
 70
     0
 10
0.0
 20
0.0
 30
0.0
  3
#auxiliary draft view
  0
CIRCLE
  8
0
  6
CONTINUOUS
 62
     7
  5
AC
 10
220.776653
 20
273.942175
 30
0.0
 40
2.1
210
0.0
220
0.0
230
1.0
  0
CIRCLE
  8
0
  6
CONTINUOUS
 62
     7
  5
AD
 10
220.776653
 20
273.942175
 30
0.0
 40
2.5
210
0.0
220
0.0
230
1.0
  0
CIRCLE
  8
0
  6
CONTINUOUS
 62
     7
  5
AE
 10
244.776653
 20
273.942175
 30
0.0
 40
2.1
210
0.0
220
0.0
230
1.0
  0
CIRCLE
  8
0
  6
CONTINUOUS
 62
     7
  5
AF
 10
244.776653
 20
273.942175
 30
0.0
 40
2.5
210
0.0
220
0.0
230
1.0
  0
LINE
  8
0
  6
CONTINUOUS
 62
     7
  5
B0
 10
250.776653
 20
316.942175
 30
0.0
 11
214.776653
 21
316.942175
 31
0.0
  0
LINE
  8
0
  6
CONTINUOUS
 62
     7
  5
B1
 10
250.776653
 20
316.942175
 30
0.0
 11
250.776653
 21
267.942175
 31
0.0
  0
LINE
  8
0
  6
CONTINUOUS
 62
     7
  5
B2
 10
250.776653
 20
267.942175
 30
0.0
 11
214.776653
 21
267.942175
 31
0.0
  0
LINE
  8
0
  6
CONTINUOUS
 62
     7
  5
B3
 10
214.776653
 20
316.942175
 30
0.0
 11
214.776653
 21
267.942175
 31
0.0
  0
LINE
  8
0
  6
CONTINUOUS
 62
     7
  5
B4
 10
144.776653
 20
285.942175
 30
0.0
 11
152.776653
 21
285.942175
 31
0.0
  0
LINE
  8
0
  6
CONTINUOUS
 62
     7
  5
B5
 10
152.776653
 20
305.942175
 30
0.0
 11
152.776653
 21
285.942175
 31
0.0
  0
LINE
  8
0
  6
CONTINUOUS
 62
     7
  5
B6
 10
144.776653
 20
305.942175
 30
0.0
 11
144.776653
 21
285.942175
 31
0.0
  0
LINE
  8
0
  6
CONTINUOUS
 62
     7
  5
B7
 10
144.776653
 20
305.942175
 30
0.0
 11
152.776653
 21
305.942175
 31
0.0
  0
LINE
  8
0
  6
CONTINUOUS
 62
     7
  5
B8
 10
141.576653
 20
290.692175
 30
0.0
 11
141.576653
 21
301.192175
 31
0.0
  0
LINE
  8
0
  6
CONTINUOUS
 62
     7
  5
B9
 10
155.976653
 20
290.692175
 30
0.0
 11
155.976653
 21
301.192175
 31
0.0
  0
LINE
  8
0
  6
CONTINUOUS
 62
     7
  5
BA
 10
136.576653
 20
300.192175
 30
0.0
 11
136.576653
 21
291.692175
 31
0.0
  0
LINE
  8
0
  6
CONTINUOUS
 62
     7
  5
BB
 10
161.176653
 20
293.442175
 30
0.0
 11
161.176653
 21
298.442175
 31
0.0
  0
LINE
  8
0
  6
CONTINUOUS
 62
     7
  5
BC
 10
161.576653
 20
298.042175
 30
0.0
 11
161.576653
 21
293.842175
 31
0.0
  0
LINE
  8
0
  6
CONTINUOUS
 62
     7
  5
BD
 10
144.776653
 20
301.192175
 30
0.0
 11
141.576653
 21
301.192175
 31
0.0
  0
LINE
  8
0
  6
CONTINUOUS
 62
     7
  5
BE
 10
141.576653
 20
290.692175
 30
0.0
 11
144.776653
 21
290.692175
 31
0.0
  0
LINE
  8
0
  6
CONTINUOUS
 62
     7
  5
BF
 10
152.776653
 20
290.692175
 30
0.0
 11
155.976653
 21
290.692175
 31
0.0
  0
LINE
  8
0
  6
CONTINUOUS
 62
     7
  5
C0
 10
155.976653
 20
301.192175
 30
0.0
 11
152.776653
 21
301.192175
 31
0.0
  0
LINE
  8
0
  6
CONTINUOUS
 62
     7
  5
C1
 10
141.576653
 20
300.192175
 30
0.0
 11
136.576653
 21
300.192175
 31
0.0
  0
LINE
  8
0
  6
CONTINUOUS
 62
     7
  5
C2
 10
136.576653
 20
291.692175
 30
0.0
 11
141.576653
 21
291.692175
 31
0.0
  0
LINE
  8
0
  6
CONTINUOUS
 62
     7
  5
C3
 10
161.176653
 20
293.442175
 30
0.0
 11
161.576653
 21
293.842175
 31
0.0
  0
LINE
  8
0
  6
CONTINUOUS
 62
     7
  5
C4
 10
161.576653
 20
298.042175
 30
0.0
 11
161.176653
 21
298.442175
 31
0.0
  0
LINE
  8
0
  6
CONTINUOUS
 62
     7
  5
C5
 10
155.976653
 20
293.442175
 30
0.0
 11
161.176653
 21
293.442175
 31
0.0
  0
LINE
  8
0
  6
CONTINUOUS
 62
     7
  5
C6
 10
161.176653
 20
298.442175
 30
0.0
 11
155.976653
 21
298.442175
 31
0.0
  0
ENDBLK
  8
0
  5
C7
  0
ENDSEC
  0
SECTION
  2
ENTITIES
  0
INSERT
  8
0
  5
54
  2
AID3
 10
0.0
 20
0.0
 30
0.0
  0
INSERT
  8
0
  5
70
  2
AID125
 10
0.0
 20
0.0
 30
0.0
  0
INSERT
  8
0
  5
8E
  2
AID177
 10
0.0
 20
0.0
 30
0.0
  0
INSERT
  8
0
  5
A9
  2
AID233
 10
0.0
 20
0.0
 30
0.0
  0
INSERT
  8
0
  5
C8
  2
AID283
 10
0.0
 20
0.0
 30
0.0
  0
LINE
  8
0
  6
CENTER
 62
     1
  5
CA
 10
215.276653
 20
273.942175
 30
0.0
 11
226.276653
 21
273.942175
 31
0.0
  0
LINE
  8
0
  6
CENTER
 62
     1
  5
CB
 10
220.776653
 20
268.442175
 30
0.0
 11
220.776653
 21
279.442175
 31
0.0
  0
LINE
  8
0
  6
CENTER
 62
     1
  5
CC
 10
239.276653
 20
273.942175
 30
0.0
 11
250.276653
 21
273.942175
 31
0.0
  0
LINE
  8
0
  6
CENTER
 62
     1
  5
CD
 10
244.776653
 20
268.442175
 30
0.0
 11
244.776653
 21
279.442175
 31
0.0
  0
LINE
  8
0
  6
CENTER
 62
     1
  5
CE
 10
254.576653
 20
295.942175
 30
0.0
 11
133.576653
 21
295.942175
 31
0.0
  0
LINE
  8
0
  6
CENTER
 62
     1
  5
CF
 10
141.776653
 20
130.908989
 30
0.0
 11
155.776653
 21
130.908989
 31
0.0
  0
LINE
  8
0
  6
CENTER
 62
     1
  5
D0
 10
211.776653
 20
175.908989
 30
0.0
 11
253.776653
 21
175.908989
 31
0.0
  0
LINE
  8
0
  6
CENTER
 62
     1
  5
D1
 10
164.576653
 20
175.908989
 30
0.0
 11
133.576653
 21
175.908989
 31
0.0
  0
LINE
  8
0
  6
CENTER
 62
     1
  5
D2
 10
244.776653
 20
145.908989
 30
0.0
 11
244.776653
 21
157.908989
 31
0.0
  0
LINE
  8
0
  6
CENTER
 62
     1
  5
D3
 10
220.776653
 20
145.908989
 30
0.0
 11
220.776653
 21
157.908989
 31
0.0
  0
LINE
  8
0
  6
CENTER
 62
     1
  5
D4
 10
-9.778373
 20
130.908989
 30
0.0
 11
12.221627
 21
130.908989
 31
0.0
  0
LINE
  8
0
  6
CENTER
 62
     1
  5
D5
 10
1.221627
 20
119.908989
 30
0.0
 11
1.221627
 21
141.908989
 31
0.0
  0
LINE
  8
0
  6
CENTER
 62
     1
  5
D6
 10
-20.278373
 20
175.908989
 30
0.0
 11
22.721627
 21
175.908989
 31
0.0
  0
LINE
  8
0
  6
CENTER
 62
     1
  5
D7
 10
1.221627
 20
154.408989
 30
0.0
 11
1.221627
 21
197.408989
 31
0.0
  0
LINE
  8
0
  6
CENTER
 62
     1
  5
D8
 10
23.221627
 20
145.908989
 30
0.0
 11
23.221627
 21
157.908989
 31
0.0
  0
LINE
  8
0
  6
CENTER
 62
     1
  5
D9
 10
378.09956
 20
130.908989
 30
0.0
 11
400.09956
 21
130.908989
 31
0.0
  0
LINE
  8
0
  6
CENTER
 62
     1
  5
DA
 10
389.09956
 20
119.908989
 30
0.0
 11
389.09956
 21
141.908989
 31
0.0
  0
LINE
  8
0
  6
CENTER
 62
     1
  5
DB
 10
380.84956
 20
175.908989
 30
0.0
 11
397.34956
 21
175.908989
 31
0.0
  0
LINE
  8
0
  6
CENTER
 62
     1
  5
DC
 10
389.09956
 20
167.658989
 30
0.0
 11
389.09956
 21
184.158989
 31
0.0
  0
LINE
  8
0
  6
CENTER
 62
     1
  5
DD
 10
367.09956
 20
145.908989
 30
0.0
 11
367.09956
 21
157.908989
 31
0.0
  0
LINE
  8
0
  6
CENTER
 62
     1
  5
DE
 10
254.576653
 20
2.047109
 30
0.0
 11
133.576653
 21
2.047109
 31
0.0
  0
ENDSEC
  0
EOF
