  0
SECTION
  2
HEADER
  9
$ACADVER
  1
AC1009
  9
$DWGCODEPAGE
  3
ansi_1252
  9
$INSBASE
 10
0.0
 20
0.0
 30
0.0
  9
$EXTMIN
 10
0.0
 20
-0.007326
 30
0.0
  9
$EXTMAX
 10
395.463693
 20
309.231362
 30
5.0
  9
$LIMMIN
 10
0.0
 20
-0.007326
  9
$LIMMAX
 10
395.463693
 20
309.231362
  9
$ORTHOMODE
 70
     0
  9
$REGENMODE
 70
     1
  9
$FILLMODE
 70
     1
  9
$QTEXTMODE
 70
     0
  9
$MIRRTEXT
 70
     1
  9
$DRAGMODE
 70
     2
  9
$LTSCALE
 40
10.0
  9
$OSMODE
 70
     0
  9
$ATTMODE
 70
     1
  9
$TEXTSIZE
 40
0.2
  9
$TRACEWID
 40
0.05
  9
$TEXTSTYLE
  7
STANDARD
  9
$CLAYER
  8
0
  9
$CELTYPE
  6
CONTINUOUS
  9
$CECOLOR
 62
   256
  9
$DIMSCALE
 40
1.0
  9
$DIMASZ
 40
1.25
  9
$DIMEXO
 40
1.0
  9
$DIMDLI
 40
0.38
  9
$DIMRND
 40
0.0
  9
$DIMDLE
 40
0.0
  9
$DIMEXE
 40
0.75
  9
$DIMTP
 40
0.0
  9
$DIMTM
 40
0.0
  9
$DIMTXT
 40
2.5
  9
$DIMCEN
 40
0.09
  9
$DIMTSZ
 40
0.0
  9
$DIMTOL
 70
     0
  9
$DIMLIM
 70
     0
  9
$DIMTIH
 70
     0
  9
$DIMTOH
 70
     0
  9
$DIMSE1
 70
     0
  9
$DIMSE2
 70
     0
  9
$DIMTAD
 70
     1
  9
$DIMZIN
 70
     0
  9
$DIMBLK
  1

  9
$DIMASO
 70
     1
  9
$DIMSHO
 70
     1
  9
$DIMPOST
  1

  9
$DIMAPOST
  1

  9
$DIMALT
 70
     0
  9
$DIMALTD
 70
     2
  9
$DIMALTF
 40
25.4
  9
$DIMLFAC
 40
1.0
  9
$DIMTOFL
 70
     0
  9
$DIMTVP
 40
0.0
  9
$DIMTIX
 70
     0
  9
$DIMSOXD
 70
     0
  9
$DIMSAH
 70
     0
  9
$DIMBLK1
  1

  9
$DIMBLK2
  1

  9
$DIMSTYLE
  2
STANDARD
  9
$DIMCLRD
 70
     7
  9
$DIMCLRE
 70
     7
  9
$DIMCLRT
 70
     7
  9
$DIMTFAC
 40
0.8
  9
$DIMGAP
 40
1.25
  9
$LUNITS
 70
     2
  9
$LUPREC
 70
     4
  9
$AXISMODE
 70
     0
  9
$AXISUNIT
 10
0.0
 20
0.0
  9
$SKETCHINC
 40
0.1
  9
$FILLETRAD
 40
0.0
  9
$AUNITS
 70
     0
  9
$AUPREC
 70
     0
  9
$MENU
  1
acad
  9
$ELEVATION
 40
0.0
  9
$PELEVATION
 40
0.0
  9
$THICKNESS
 40
0.0
  9
$LIMCHECK
 70
     0
  9
$BLIPMODE
 70
     1
  9
$CHAMFERA
 40
0.0
  9
$CHAMFERB
 40
0.0
  9
$SKPOLY
 70
     0
  9
$TDCREATE
 40
2454894.654398148
  9
$TDUPDATE
 40
2454894.612372685
  9
$TDINDWG
 40
0.0000000000
  9
$TDUSRTIMER
 40
0.0000000000
  9
$USRTIMER
 70
     1
  9
$ANGBASE
 50
0.0
  9
$ANGDIR
 70
     0
  9
$PDMODE
 70
     0
  9
$PDSIZE
 40
0.0
  9
$PLINEWID
 40
0.0
  9
$COORDS
 70
     0
  9
$SPLFRAME
 70
     0
  9
$SPLINETYPE
 70
     6
  9
$SPLINESEGS
 70
     8
  9
$ATTDIA
 70
     0
  9
$ATTREQ
 70
     1
  9
$HANDLING
 70
     1
  9
$HANDSEED
  5
128
  9
$SURFTAB1
 70
     6
  9
$SURFTAB2
 70
     6
  9
$SURFTYPE
 70
     6
  9
$SURFU
 70
     6
  9
$SURFV
 70
     6
  9
$UCSNAME
  2

  9
$UCSORG
 10
0.0
 20
0.0
 30
0.0
  9
$UCSXDIR
 10
1.0
 20
0.0
 30
0.0
  9
$UCSYDIR
 10
0.0
 20
1.0
 30
0.0
  9
$PUCSNAME
  2

  9
$PUCSORG
 10
0.0
 20
0.0
 30
0.0
  9
$PUCSXDIR
 10
1.0
 20
0.0
 30
0.0
  9
$PUCSYDIR
 10
0.0
 20
1.0
 30
0.0
  9
$USERI1
 70
     0
  9
$USERI2
 70
     0
  9
$USERI3
 70
     0
  9
$USERI4
 70
     0
  9
$USERI5
 70
     0
  9
$USERR1
 40
0.0
  9
$USERR2
 40
0.0
  9
$USERR3
 40
0.0
  9
$USERR4
 40
0.0
  9
$USERR5
 40
0.0
  9
$WORLDVIEW
 70
     1
  9
$SHADEDGE
 70
     3
  9
$SHADEDIF
 70
    70
  9
$TILEMODE
 70
     1
  9
$MAXACTVP
 70
    16
  9
$PINSBASE
 10
0.0
 20
0.0
 30
0.0
  9
$PLIMCHECK
 70
     0
  9
$PEXTMIN
 10
1.000000E+20
 20
1.000000E+20
 30
1.000000E+20
  9
$PEXTMAX
 10
-1.000000E+20
 20
-1.000000E+20
 30
-1.000000E+20
  9
$PLIMMIN
 10
0.0
 20
0.0
  9
$PLIMMAX
 10
12.0
 20
9.0
  9
$UNITMODE
 70
     0
  9
$VISRETAIN
 70
     0
  9
$PLINEGEN
 70
     1
  9
$PSLTSCALE
 70
     0
  9
$TREEDEPTH
 70
  3020
  0
ENDSEC
  0
SECTION
  2
TABLES
  0
TABLE
  2
VPORT
 70
     1
  0
VPORT
  2
*ACTIVE
 70
     0
 10
0.0
 20
0.0
 11
1.0
 21
1.0
 12
6.591288
 22
4.579184
 13
0.0
 23
0.0
 14
1.0
 24
1.0
 15
0.0
 25
0.0
 16
0.0
 26
0.0
 36
1.0
 17
0.0
 27
0.0
 37
0.0
 40
9.158369
 41
0.688564
 42
50.0
 43
0.0
 44
0.0
 50
0.0
 51
0.0
 71
     0
 72
   100
 73
     1
 74
     1
 75
     0
 76
     0
 77
     0
 78
     0
  0
ENDTAB
  0
TABLE
  2
LTYPE
 70
     2
  0
LTYPE
  2
CONTINUOUS
 70
    64
  3
Solid line
 72
    65
 73
     0
 40
0.0
  0
LTYPE
  2
CENTER
 70
    64
  3
____ _ ____ _ ____ _ ____ _ ____ _ ____ _ ____
 72
    65
 73
     4
 40
2.0
 49
1.25
 49
-0.25
 49
0.25
 49
-0.25
  0
ENDTAB
  0
TABLE
  2
LAYER
 70
     1
  0
LAYER
  2
0
 70
     0
 62
     7
  6
CONTINUOUS
  0
ENDTAB
  0
TABLE
  2
STYLE
 70
     1
  0
STYLE
  2
STANDARD
 70
     0
 40
0.0
 41
1.0
 50
0.0
 71
     0
 42
0.0
  3
IsonormD
  4

  0
ENDTAB
  0
TABLE
  2
VIEW
 70
     0
  0
ENDTAB
  0
TABLE
  2
UCS
 70
     0
  0
ENDTAB
  0
TABLE
  2
APPID
 70
     2
  0
APPID
  2
ACAD
 70
     0
  0
APPID
  2
TopSolid_Draft
 70
     0
  0
ENDTAB
  0
TABLE
  2
DIMSTYLE
 70
     1
  0
DIMSTYLE
  2
STANDARD
 70
     0
  3

  4

  5

  6

  7

 40
1.0
 41
1.25
 42
1.0
 43
0.38
 44
0.75
 45
0.0
 46
0.0
 47
0.0
 48
0.0
 71
     0
 72
     0
 73
     0
 74
     0
 75
     0
 76
     0
 77
     1
 78
     0
140
2.5
141
0.09
142
0.0
143
25.4
144
1.0
145
0.0
146
0.8
147
1.25
170
     0
171
     2
172
     0
173
     0
174
     0
175
     0
176
     7
177
     7
178
     7
  0
ENDTAB
  0
ENDSEC
  0
SECTION
  2
BLOCKS
  0
BLOCK
  8
0
  5
25
  2
AID3
 70
     0
 10
0.0
 20
0.0
 30
0.0
  3
#draft view
  0
CIRCLE
  8
0
  6
CONTINUOUS
 62
     7
  5
26
 10
232.52676
 20
123.005349
 30
0.0
 40
3.0
210
0.0
220
0.0
230
1.0
  0
CIRCLE
  8
0
  6
CONTINUOUS
 62
     7
  5
27
 10
182.52676
 20
123.005349
 30
0.0
 40
3.0
210
0.0
220
0.0
230
1.0
  0
CIRCLE
  8
0
  6
CONTINUOUS
 62
     7
  5
28
 10
232.52676
 20
173.005349
 30
0.0
 40
3.0
210
0.0
220
0.0
230
1.0
  0
CIRCLE
  8
0
  6
CONTINUOUS
 62
     7
  5
29
 10
182.52676
 20
173.005349
 30
0.0
 40
3.0
210
0.0
220
0.0
230
1.0
  0
LINE
  8
0
  6
CONTINUOUS
 62
     7
  5
2A
 10
231.27676
 20
173.727037
 30
0.0
 11
232.52676
 21
174.448724
 31
0.0
  0
LINE
  8
0
  6
CONTINUOUS
 62
     7
  5
2B
 10
231.27676
 20
172.283661
 30
0.0
 11
231.27676
 21
173.727037
 31
0.0
  0
LINE
  8
0
  6
CONTINUOUS
 62
     7
  5
2C
 10
232.52676
 20
171.561973
 30
0.0
 11
231.27676
 21
172.283661
 31
0.0
  0
LINE
  8
0
  6
CONTINUOUS
 62
     7
  5
2D
 10
233.77676
 20
172.283661
 30
0.0
 11
232.52676
 21
171.561973
 31
0.0
  0
LINE
  8
0
  6
CONTINUOUS
 62
     7
  5
2E
 10
233.77676
 20
173.727037
 30
0.0
 11
233.77676
 21
172.283661
 31
0.0
  0
LINE
  8
0
  6
CONTINUOUS
 62
     7
  5
2F
 10
232.52676
 20
174.448724
 30
0.0
 11
233.77676
 21
173.727037
 31
0.0
  0
CIRCLE
  8
0
  6
CONTINUOUS
 62
     7
  5
30
 10
232.52676
 20
173.005349
 30
0.0
 40
2.75
210
0.0
220
0.0
230
1.0
  0
LINE
  8
0
  6
CONTINUOUS
 62
     7
  5
31
 10
231.27676
 20
123.727037
 30
0.0
 11
232.52676
 21
124.448724
 31
0.0
  0
LINE
  8
0
  6
CONTINUOUS
 62
     7
  5
32
 10
231.27676
 20
122.283661
 30
0.0
 11
231.27676
 21
123.727037
 31
0.0
  0
LINE
  8
0
  6
CONTINUOUS
 62
     7
  5
33
 10
232.52676
 20
121.561973
 30
0.0
 11
231.27676
 21
122.283661
 31
0.0
  0
LINE
  8
0
  6
CONTINUOUS
 62
     7
  5
34
 10
233.77676
 20
122.283661
 30
0.0
 11
232.52676
 21
121.561973
 31
0.0
  0
LINE
  8
0
  6
CONTINUOUS
 62
     7
  5
35
 10
233.77676
 20
123.727037
 30
0.0
 11
233.77676
 21
122.283661
 31
0.0
  0
LINE
  8
0
  6
CONTINUOUS
 62
     7
  5
36
 10
232.52676
 20
124.448724
 30
0.0
 11
233.77676
 21
123.727037
 31
0.0
  0
CIRCLE
  8
0
  6
CONTINUOUS
 62
     7
  5
37
 10
232.52676
 20
123.005349
 30
0.0
 40
2.75
210
0.0
220
0.0
230
1.0
  0
LINE
  8
0
  6
CONTINUOUS
 62
     7
  5
38
 10
181.27676
 20
123.727037
 30
0.0
 11
182.52676
 21
124.448724
 31
0.0
  0
LINE
  8
0
  6
CONTINUOUS
 62
     7
  5
39
 10
181.27676
 20
122.283661
 30
0.0
 11
181.27676
 21
123.727037
 31
0.0
  0
LINE
  8
0
  6
CONTINUOUS
 62
     7
  5
3A
 10
182.52676
 20
121.561973
 30
0.0
 11
181.27676
 21
122.283661
 31
0.0
  0
LINE
  8
0
  6
CONTINUOUS
 62
     7
  5
3B
 10
183.77676
 20
122.283661
 30
0.0
 11
182.52676
 21
121.561973
 31
0.0
  0
CIRCLE
  8
0
  6
CONTINUOUS
 62
     7
  5
3C
 10
182.52676
 20
123.005349
 30
0.0
 40
2.75
210
0.0
220
0.0
230
1.0
  0
LINE
  8
0
  6
CONTINUOUS
 62
     7
  5
3D
 10
182.52676
 20
124.448724
 30
0.0
 11
183.77676
 21
123.727037
 31
0.0
  0
LINE
  8
0
  6
CONTINUOUS
 62
     7
  5
3E
 10
183.77676
 20
123.727037
 30
0.0
 11
183.77676
 21
122.283661
 31
0.0
  0
LINE
  8
0
  6
CONTINUOUS
 62
     7
  5
3F
 10
181.27676
 20
172.283661
 30
0.0
 11
181.27676
 21
173.727037
 31
0.0
  0
LINE
  8
0
  6
CONTINUOUS
 62
     7
  5
40
 10
182.52676
 20
171.561973
 30
0.0
 11
181.27676
 21
172.283661
 31
0.0
  0
CIRCLE
  8
0
  6
CONTINUOUS
 62
     7
  5
41
 10
182.52676
 20
173.005349
 30
0.0
 40
2.75
210
0.0
220
0.0
230
1.0
  0
LINE
  8
0
  6
CONTINUOUS
 62
     7
  5
42
 10
183.77676
 20
172.283661
 30
0.0
 11
182.52676
 21
171.561973
 31
0.0
  0
LINE
  8
0
  6
CONTINUOUS
 62
     7
  5
43
 10
182.52676
 20
174.448724
 30
0.0
 11
183.77676
 21
173.727037
 31
0.0
  0
LINE
  8
0
  6
CONTINUOUS
 62
     7
  5
44
 10
183.77676
 20
173.727037
 30
0.0
 11
183.77676
 21
172.283661
 31
0.0
  0
LINE
  8
0
  6
CONTINUOUS
 62
     7
  5
45
 10
181.27676
 20
173.727037
 30
0.0
 11
182.52676
 21
174.448724
 31
0.0
  0
ARC
  8
0
  6
CONTINUOUS
 62
     7
  5
46
 10
184.52676
 20
121.505349
 30
0.0
 40
2.0
 50
270.0
 51
360.0
210
0.0
220
0.0
230
1.0
  0
ARC
  8
0
  6
CONTINUOUS
 62
     7
  5
47
 10
180.52676
 20
124.505349
 30
0.0
 40
2.0
 50
90.0
 51
180.0
210
0.0
220
0.0
230
1.0
  0
LINE
  8
0
  6
CONTINUOUS
 62
     7
  5
48
 10
180.52676
 20
126.505349
 30
0.0
 11
184.52676
 21
126.505349
 31
0.0
  0
ARC
  8
0
  6
CONTINUOUS
 62
     7
  5
49
 10
184.52676
 20
124.505349
 30
0.0
 40
2.0
 50
0.0
 51
90.0
210
0.0
220
0.0
230
1.0
  0
ARC
  8
0
  6
CONTINUOUS
 62
     7
  5
4A
 10
180.52676
 20
121.505349
 30
0.0
 40
2.0
 50
180.0
 51
270.0
210
0.0
220
0.0
230
1.0
  0
LINE
  8
0
  6
CONTINUOUS
 62
     7
  5
4B
 10
184.52676
 20
119.505349
 30
0.0
 11
180.52676
 21
119.505349
 31
0.0
  0
LINE
  8
0
  6
CONTINUOUS
 62
     7
  5
4C
 10
178.52676
 20
121.505349
 30
0.0
 11
178.52676
 21
124.505349
 31
0.0
  0
LINE
  8
0
  6
CONTINUOUS
 62
     7
  5
4D
 10
186.52676
 20
124.505349
 30
0.0
 11
186.52676
 21
121.505349
 31
0.0
  0
LINE
  8
0
  6
CONTINUOUS
 62
     7
  5
4E
 10
228.52676
 20
121.505349
 30
0.0
 11
228.52676
 21
124.505349
 31
0.0
  0
ARC
  8
0
  6
CONTINUOUS
 62
     7
  5
4F
 10
234.52676
 20
124.505349
 30
0.0
 40
2.0
 50
0.0
 51
90.0
210
0.0
220
0.0
230
1.0
  0
LINE
  8
0
  6
CONTINUOUS
 62
     7
  5
50
 10
236.52676
 20
124.505349
 30
0.0
 11
236.52676
 21
121.505349
 31
0.0
  0
LINE
  8
0
  6
CONTINUOUS
 62
     7
  5
51
 10
230.52676
 20
126.505349
 30
0.0
 11
234.52676
 21
126.505349
 31
0.0
  0
ARC
  8
0
  6
CONTINUOUS
 62
     7
  5
52
 10
234.52676
 20
121.505349
 30
0.0
 40
2.0
 50
270.0
 51
360.0
210
0.0
220
0.0
230
1.0
  0
LINE
  8
0
  6
CONTINUOUS
 62
     7
  5
53
 10
234.52676
 20
119.505349
 30
0.0
 11
230.52676
 21
119.505349
 31
0.0
  0
ARC
  8
0
  6
CONTINUOUS
 62
     7
  5
54
 10
230.52676
 20
124.505349
 30
0.0
 40
2.0
 50
90.0
 51
180.0
210
0.0
220
0.0
230
1.0
  0
ARC
  8
0
  6
CONTINUOUS
 62
     7
  5
55
 10
230.52676
 20
121.505349
 30
0.0
 40
2.0
 50
180.0
 51
270.0
210
0.0
220
0.0
230
1.0
  0
LINE
  8
0
  6
CONTINUOUS
 62
     7
  5
56
 10
207.52676
 20
130.31475
 30
0.0
 11
209.52676
 21
129.160049
 31
0.0
  0
CIRCLE
  8
0
  6
CONTINUOUS
 62
     7
  5
57
 10
207.52676
 20
128.005349
 30
0.0
 40
4.25
210
0.0
220
0.0
230
1.0
  0
LINE
  8
0
  6
CONTINUOUS
 62
     7
  5
58
 10
205.52676
 20
126.850648
 30
0.0
 11
205.52676
 21
129.160049
 31
0.0
  0
LINE
  8
0
  6
CONTINUOUS
 62
     7
  5
59
 10
205.52676
 20
129.160049
 30
0.0
 11
207.52676
 21
130.31475
 31
0.0
  0
LINE
  8
0
  6
CONTINUOUS
 62
     7
  5
5A
 10
209.52676
 20
129.160049
 30
0.0
 11
209.52676
 21
126.850648
 31
0.0
  0
LINE
  8
0
  6
CONTINUOUS
 62
     7
  5
5B
 10
209.52676
 20
126.850648
 30
0.0
 11
207.52676
 21
125.695948
 31
0.0
  0
LINE
  8
0
  6
CONTINUOUS
 62
     7
  5
5C
 10
207.52676
 20
125.695948
 30
0.0
 11
205.52676
 21
126.850648
 31
0.0
  0
ARC
  8
0
  6
CONTINUOUS
 62
     7
  5
5D
 10
218.109765
 20
132.505349
 30
0.0
 40
6.0
 50
203.035684
 51
270.0
210
0.0
220
0.0
230
1.0
  0
ARC
  8
0
  6
CONTINUOUS
 62
     7
  5
5E
 10
229.141138
 20
121.505349
 30
0.0
 40
2.0
 50
214.228866
 51
270.0
210
0.0
220
0.0
230
1.0
  0
ARC
  8
0
  6
CONTINUOUS
 62
     7
  5
5F
 10
192.52676
 20
117.005349
 30
0.0
 40
6.0
 50
90.0
 51
145.771134
210
0.0
220
0.0
230
1.0
  0
ARC
  8
0
  6
CONTINUOUS
 62
     7
  5
60
 10
207.52676
 20
128.005349
 30
0.0
 40
5.5
 50
23.035684
 51
156.964316
210
0.0
220
0.0
230
1.0
  0
ARC
  8
0
  6
CONTINUOUS
 62
     7
  5
61
 10
222.52676
 20
117.005349
 30
0.0
 40
6.0
 50
34.228866
 51
90.0
210
0.0
220
0.0
230
1.0
  0
ARC
  8
0
  6
CONTINUOUS
 62
     7
  5
62
 10
185.912382
 20
121.505349
 30
0.0
 40
2.0
 50
270.0
 51
325.771134
210
0.0
220
0.0
230
1.0
  0
LINE
  8
0
  6
CONTINUOUS
 62
     7
  5
63
 10
192.52676
 20
123.005349
 30
0.0
 11
222.52676
 21
123.005349
 31
0.0
  0
ARC
  8
0
  6
CONTINUOUS
 62
     7
  5
64
 10
196.943755
 20
132.505349
 30
0.0
 40
6.0
 50
270.0
 51
336.964316
210
0.0
220
0.0
230
1.0
  0
CIRCLE
  8
0
  6
CONTINUOUS
 62
     7
  5
65
 10
207.52676
 20
128.005349
 30
0.0
 40
4.5
210
0.0
220
0.0
230
1.0
  0
LINE
  8
0
  6
CONTINUOUS
 62
     7
  5
66
 10
184.52676
 20
126.505349
 30
0.0
 11
196.943755
 21
126.505349
 31
0.0
  0
LINE
  8
0
  6
CONTINUOUS
 62
     7
  5
67
 10
218.109765
 20
126.505349
 30
0.0
 11
230.52676
 21
126.505349
 31
0.0
  0
LINE
  8
0
  6
CONTINUOUS
 62
     7
  5
68
 10
185.912382
 20
119.505349
 30
0.0
 11
184.52676
 21
119.505349
 31
0.0
  0
LINE
  8
0
  6
CONTINUOUS
 62
     7
  5
69
 10
230.52676
 20
119.505349
 30
0.0
 11
229.141138
 21
119.505349
 31
0.0
  0
LINE
  8
0
  6
CONTINUOUS
 62
     7
  5
6A
 10
236.52676
 20
174.505349
 30
0.0
 11
236.52676
 21
171.505349
 31
0.0
  0
ARC
  8
0
  6
CONTINUOUS
 62
     7
  5
6B
 10
230.52676
 20
171.505349
 30
0.0
 40
2.0
 50
180.0
 51
270.0
210
0.0
220
0.0
230
1.0
  0
LINE
  8
0
  6
CONTINUOUS
 62
     7
  5
6C
 10
228.52676
 20
171.505349
 30
0.0
 11
228.52676
 21
174.505349
 31
0.0
  0
LINE
  8
0
  6
CONTINUOUS
 62
     7
  5
6D
 10
230.52676
 20
176.505349
 30
0.0
 11
234.52676
 21
176.505349
 31
0.0
  0
ARC
  8
0
  6
CONTINUOUS
 62
     7
  5
6E
 10
234.52676
 20
174.505349
 30
0.0
 40
2.0
 50
0.0
 51
90.0
210
0.0
220
0.0
230
1.0
  0
ARC
  8
0
  6
CONTINUOUS
 62
     7
  5
6F
 10
230.52676
 20
174.505349
 30
0.0
 40
2.0
 50
90.0
 51
180.0
210
0.0
220
0.0
230
1.0
  0
ARC
  8
0
  6
CONTINUOUS
 62
     7
  5
70
 10
234.52676
 20
171.505349
 30
0.0
 40
2.0
 50
270.0
 51
360.0
210
0.0
220
0.0
230
1.0
  0
LINE
  8
0
  6
CONTINUOUS
 62
     7
  5
71
 10
234.52676
 20
169.505349
 30
0.0
 11
230.52676
 21
169.505349
 31
0.0
  0
ARC
  8
0
  6
CONTINUOUS
 62
     7
  5
72
 10
184.52676
 20
174.505349
 30
0.0
 40
2.0
 50
360.0
 51
90.0
210
0.0
220
0.0
230
1.0
  0
LINE
  8
0
  6
CONTINUOUS
 62
     7
  5
73
 10
178.52676
 20
171.505349
 30
0.0
 11
178.52676
 21
174.505349
 31
0.0
  0
LINE
  8
0
  6
CONTINUOUS
 62
     7
  5
74
 10
186.52676
 20
174.505349
 30
0.0
 11
186.52676
 21
171.505349
 31
0.0
  0
ARC
  8
0
  6
CONTINUOUS
 62
     7
  5
75
 10
180.52676
 20
174.505349
 30
0.0
 40
2.0
 50
90.0
 51
180.0
210
0.0
220
0.0
230
1.0
  0
LINE
  8
0
  6
CONTINUOUS
 62
     7
  5
76
 10
180.52676
 20
176.505349
 30
0.0
 11
184.52676
 21
176.505349
 31
0.0
  0
LINE
  8
0
  6
CONTINUOUS
 62
     7
  5
77
 10
184.52676
 20
169.505349
 30
0.0
 11
180.52676
 21
169.505349
 31
0.0
  0
ARC
  8
0
  6
CONTINUOUS
 62
     7
  5
78
 10
184.52676
 20
171.505349
 30
0.0
 40
2.0
 50
270.0
 51
360.0
210
0.0
220
0.0
230
1.0
  0
ARC
  8
0
  6
CONTINUOUS
 62
     7
  5
79
 10
180.52676
 20
171.505349
 30
0.0
 40
2.0
 50
180.0
 51
270.0
210
0.0
220
0.0
230
1.0
  0
LINE
  8
0
  6
CONTINUOUS
 62
     7
  5
7A
 10
205.52676
 20
169.160049
 30
0.0
 11
207.52676
 21
170.31475
 31
0.0
  0
LINE
  8
0
  6
CONTINUOUS
 62
     7
  5
7B
 10
207.52676
 20
165.695948
 30
0.0
 11
205.52676
 21
166.850648
 31
0.0
  0
LINE
  8
0
  6
CONTINUOUS
 62
     7
  5
7C
 10
209.52676
 20
166.850648
 30
0.0
 11
207.52676
 21
165.695948
 31
0.0
  0
LINE
  8
0
  6
CONTINUOUS
 62
     7
  5
7D
 10
209.52676
 20
169.160049
 30
0.0
 11
209.52676
 21
166.850648
 31
0.0
  0
LINE
  8
0
  6
CONTINUOUS
 62
     7
  5
7E
 10
207.52676
 20
170.31475
 30
0.0
 11
209.52676
 21
169.160049
 31
0.0
  0
CIRCLE
  8
0
  6
CONTINUOUS
 62
     7
  5
7F
 10
207.52676
 20
168.005349
 30
0.0
 40
4.25
210
0.0
220
0.0
230
1.0
  0
LINE
  8
0
  6
CONTINUOUS
 62
     7
  5
80
 10
205.52676
 20
166.850648
 30
0.0
 11
205.52676
 21
169.160049
 31
0.0
  0
ARC
  8
0
  6
CONTINUOUS
 62
     7
  5
81
 10
185.912382
 20
174.505349
 30
0.0
 40
2.0
 50
34.228866
 51
90.0
210
0.0
220
0.0
230
1.0
  0
ARC
  8
0
  6
CONTINUOUS
 62
     7
  5
82
 10
229.141138
 20
174.505349
 30
0.0
 40
2.0
 50
90.0
 51
145.771134
210
0.0
220
0.0
230
1.0
  0
ARC
  8
0
  6
CONTINUOUS
 62
     7
  5
83
 10
207.52676
 20
168.005349
 30
0.0
 40
5.5
 50
203.035684
 51
336.964316
210
0.0
220
0.0
230
1.0
  0
ARC
  8
0
  6
CONTINUOUS
 62
     7
  5
84
 10
196.943755
 20
163.505349
 30
0.0
 40
6.0
 50
23.035684
 51
90.0
210
0.0
220
0.0
230
0.9999999999999999
  0
LINE
  8
0
  6
CONTINUOUS
 62
     7
  5
85
 10
222.52676
 20
173.005349
 30
0.0
 11
192.52676
 21
173.005349
 31
0.0
  0
ARC
  8
0
  6
CONTINUOUS
 62
     7
  5
86
 10
192.52676
 20
179.005349
 30
0.0
 40
6.0
 50
214.228866
 51
270.0
210
0.0
220
0.0
230
1.0
  0
CIRCLE
  8
0
  6
CONTINUOUS
 62
     7
  5
87
 10
207.52676
 20
168.005349
 30
0.0
 40
4.5
210
0.0
220
0.0
230
1.0
  0
ARC
  8
0
  6
CONTINUOUS
 62
     7
  5
88
 10
218.109765
 20
163.505349
 30
0.0
 40
6.0
 50
90.0
 51
156.964316
210
0.0
220
0.0
230
1.0
  0
ARC
  8
0
  6
CONTINUOUS
 62
     7
  5
89
 10
222.52676
 20
179.005349
 30
0.0
 40
6.0
 50
270.0
 51
325.771134
210
0.0
220
0.0
230
1.0
  0
LINE
  8
0
  6
CONTINUOUS
 62
     7
  5
8A
 10
184.52676
 20
176.505349
 30
0.0
 11
185.912382
 21
176.505349
 31
0.0
  0
LINE
  8
0
  6
CONTINUOUS
 62
     7
  5
8B
 10
229.141138
 20
176.505349
 30
0.0
 11
230.52676
 21
176.505349
 31
0.0
  0
LINE
  8
0
  6
CONTINUOUS
 62
     7
  5
8C
 10
196.943755
 20
169.505349
 30
0.0
 11
184.52676
 21
169.505349
 31
0.0
  0
LINE
  8
0
  6
CONTINUOUS
 62
     7
  5
8D
 10
230.52676
 20
169.505349
 30
0.0
 11
218.109765
 21
169.505349
 31
0.0
  0
ENDBLK
  8
0
  5
8E
  0
BLOCK
  8
0
  5
91
  2
AID215
 70
     0
 10
0.0
 20
0.0
 30
0.0
  3
#auxiliary draft view
  0
LINE
  8
0
  6
CONTINUOUS
 62
     7
  5
92
 10
389.463693
 20
126.005349
 30
0.0
 11
389.463693
 21
120.005349
 31
0.0
  0
LINE
  8
0
  6
CONTINUOUS
 62
     7
  5
93
 10
388.663693
 20
126.005349
 30
0.0
 11
388.663693
 21
120.005349
 31
0.0
  0
LINE
  8
0
  6
CONTINUOUS
 62
     7
  5
94
 10
389.463693
 20
176.005349
 30
0.0
 11
389.463693
 21
170.005349
 31
0.0
  0
LINE
  8
0
  6
CONTINUOUS
 62
     7
  5
95
 10
388.663693
 20
176.005349
 30
0.0
 11
388.663693
 21
170.005349
 31
0.0
  0
LINE
  8
0
  6
CONTINUOUS
 62
     7
  5
96
 10
392.463693
 20
120.255349
 30
0.0
 11
392.463693
 21
125.755349
 31
0.0
  0
LINE
  8
0
  6
CONTINUOUS
 62
     7
  5
97
 10
392.463693
 20
170.255349
 30
0.0
 11
392.463693
 21
175.755349
 31
0.0
  0
LINE
  8
0
  6
CONTINUOUS
 62
     9
  5
98
 10
358.663693
 20
124.505349
 30
0.0
 11
346.663693
 21
124.505349
 31
0.0
  0
LINE
  8
0
  6
CONTINUOUS
 62
     7
  5
99
 10
346.663693
 20
124.505349
 30
0.0
 11
346.663693
 21
126.505349
 31
0.0
  0
LINE
  8
0
  6
CONTINUOUS
 62
     7
  5
9A
 10
346.663693
 20
126.505349
 30
0.0
 11
358.663693
 21
126.505349
 31
0.0
  0
LINE
  8
0
  6
CONTINUOUS
 62
     7
  5
9B
 10
358.663693
 20
126.505349
 30
0.0
 11
358.663693
 21
124.505349
 31
0.0
  0
LINE
  8
0
  6
CONTINUOUS
 62
     9
  5
9C
 10
346.663693
 20
121.505349
 30
0.0
 11
358.663693
 21
121.505349
 31
0.0
  0
LINE
  8
0
  6
CONTINUOUS
 62
     7
  5
9D
 10
346.663693
 20
121.505349
 30
0.0
 11
346.663693
 21
124.505349
 31
0.0
  0
LINE
  8
0
  6
CONTINUOUS
 62
     7
  5
9E
 10
358.663693
 20
121.505349
 30
0.0
 11
358.663693
 21
124.505349
 31
0.0
  0
LINE
  8
0
  6
CONTINUOUS
 62
     7
  5
9F
 10
358.663693
 20
119.505349
 30
0.0
 11
346.663693
 21
119.505349
 31
0.0
  0
LINE
  8
0
  6
CONTINUOUS
 62
     7
  5
A0
 10
346.663693
 20
119.505349
 30
0.0
 11
346.663693
 21
121.505349
 31
0.0
  0
LINE
  8
0
  6
CONTINUOUS
 62
     7
  5
A1
 10
358.663693
 20
121.505349
 30
0.0
 11
358.663693
 21
119.505349
 31
0.0
  0
LINE
  8
0
  6
CONTINUOUS
 62
     9
  5
A2
 10
354.163693
 20
130.157523
 30
0.0
 11
346.663693
 21
130.157523
 31
0.0
  0
LINE
  8
0
  6
CONTINUOUS
 62
     7
  5
A3
 10
354.163693
 20
130.157523
 30
0.0
 11
354.163693
 21
126.505349
 31
0.0
  0
LINE
  8
0
  6
CONTINUOUS
 62
     7
  5
A4
 10
346.663693
 20
130.157523
 30
0.0
 11
346.663693
 21
126.505349
 31
0.0
  0
LINE
  8
0
  6
CONTINUOUS
 62
     7
  5
A5
 10
354.163693
 20
130.157523
 30
0.0
 11
354.163693
 21
133.505349
 31
0.0
  0
LINE
  8
0
  6
CONTINUOUS
 62
     7
  5
A6
 10
346.663693
 20
130.157523
 30
0.0
 11
346.663693
 21
133.505349
 31
0.0
  0
LINE
  8
0
  6
CONTINUOUS
 62
     7
  5
A7
 10
339.563693
 20
130.505349
 30
0.0
 11
339.563693
 21
125.505349
 31
0.0
  0
LINE
  8
0
  6
CONTINUOUS
 62
     7
  5
A8
 10
339.163693
 20
125.905349
 30
0.0
 11
339.163693
 21
130.105349
 31
0.0
  0
LINE
  8
0
  6
CONTINUOUS
 62
     9
  5
A9
 10
358.663693
 20
174.505349
 30
0.0
 11
346.663693
 21
174.505349
 31
0.0
  0
LINE
  8
0
  6
CONTINUOUS
 62
     7
  5
AA
 10
358.663693
 20
171.505349
 30
0.0
 11
358.663693
 21
174.505349
 31
0.0
  0
LINE
  8
0
  6
CONTINUOUS
 62
     9
  5
AB
 10
346.663693
 20
171.505349
 30
0.0
 11
358.663693
 21
171.505349
 31
0.0
  0
LINE
  8
0
  6
CONTINUOUS
 62
     7
  5
AC
 10
346.663693
 20
171.505349
 30
0.0
 11
346.663693
 21
174.505349
 31
0.0
  0
LINE
  8
0
  6
CONTINUOUS
 62
     7
  5
AD
 10
358.663693
 20
169.505349
 30
0.0
 11
346.663693
 21
169.505349
 31
0.0
  0
LINE
  8
0
  6
CONTINUOUS
 62
     7
  5
AE
 10
346.663693
 20
169.505349
 30
0.0
 11
346.663693
 21
171.505349
 31
0.0
  0
LINE
  8
0
  6
CONTINUOUS
 62
     7
  5
AF
 10
358.663693
 20
171.505349
 30
0.0
 11
358.663693
 21
169.505349
 31
0.0
  0
LINE
  8
0
  6
CONTINUOUS
 62
     7
  5
B0
 10
346.663693
 20
174.505349
 30
0.0
 11
346.663693
 21
176.505349
 31
0.0
  0
LINE
  8
0
  6
CONTINUOUS
 62
     7
  5
B1
 10
346.663693
 20
176.505349
 30
0.0
 11
358.663693
 21
176.505349
 31
0.0
  0
LINE
  8
0
  6
CONTINUOUS
 62
     7
  5
B2
 10
358.663693
 20
176.505349
 30
0.0
 11
358.663693
 21
174.505349
 31
0.0
  0
LINE
  8
0
  6
CONTINUOUS
 62
     9
  5
B3
 10
354.163693
 20
165.853175
 30
0.0
 11
346.663693
 21
165.853175
 31
0.0
  0
LINE
  8
0
  6
CONTINUOUS
 62
     7
  5
B4
 10
354.163693
 20
169.505349
 30
0.0
 11
354.163693
 21
165.853175
 31
0.0
  0
LINE
  8
0
  6
CONTINUOUS
 62
     7
  5
B5
 10
346.663693
 20
169.505349
 30
0.0
 11
346.663693
 21
165.853175
 31
0.0
  0
LINE
  8
0
  6
CONTINUOUS
 62
     7
  5
B6
 10
346.663693
 20
162.505349
 30
0.0
 11
346.663693
 21
165.853175
 31
0.0
  0
LINE
  8
0
  6
CONTINUOUS
 62
     7
  5
B7
 10
354.163693
 20
162.505349
 30
0.0
 11
354.163693
 21
165.853175
 31
0.0
  0
LINE
  8
0
  6
CONTINUOUS
 62
     7
  5
B8
 10
339.563693
 20
170.505349
 30
0.0
 11
339.563693
 21
165.505349
 31
0.0
  0
LINE
  8
0
  6
CONTINUOUS
 62
     7
  5
B9
 10
339.163693
 20
165.905349
 30
0.0
 11
339.163693
 21
170.105349
 31
0.0
  0
LINE
  8
0
  6
CONTINUOUS
 62
     7
  5
BA
 10
389.463693
 20
126.005349
 30
0.0
 11
388.663693
 21
126.005349
 31
0.0
  0
LINE
  8
0
  6
CONTINUOUS
 62
     7
  5
BB
 10
388.663693
 20
120.005349
 30
0.0
 11
389.463693
 21
120.005349
 31
0.0
  0
LINE
  8
0
  6
CONTINUOUS
 62
     7
  5
BC
 10
389.463693
 20
176.005349
 30
0.0
 11
388.663693
 21
176.005349
 31
0.0
  0
LINE
  8
0
  6
CONTINUOUS
 62
     7
  5
BD
 10
388.663693
 20
170.005349
 30
0.0
 11
389.463693
 21
170.005349
 31
0.0
  0
LINE
  8
0
  6
CONTINUOUS
 62
     7
  5
BE
 10
389.463693
 20
120.255349
 30
0.0
 11
392.463693
 21
120.255349
 31
0.0
  0
LINE
  8
0
  6
CONTINUOUS
 62
     7
  5
BF
 10
392.463693
 20
125.755349
 30
0.0
 11
389.463693
 21
125.755349
 31
0.0
  0
LINE
  8
0
  6
CONTINUOUS
 62
     7
  5
C0
 10
388.663693
 20
124.505349
 30
0.0
 11
358.663693
 21
124.505349
 31
0.0
  0
LINE
  8
0
  6
CONTINUOUS
 62
     7
  5
C1
 10
358.663693
 20
121.505349
 30
0.0
 11
388.663693
 21
121.505349
 31
0.0
  0
LINE
  8
0
  6
CONTINUOUS
 62
     7
  5
C2
 10
389.463693
 20
170.255349
 30
0.0
 11
392.463693
 21
170.255349
 31
0.0
  0
LINE
  8
0
  6
CONTINUOUS
 62
     7
  5
C3
 10
392.463693
 20
175.755349
 30
0.0
 11
389.463693
 21
175.755349
 31
0.0
  0
LINE
  8
0
  6
CONTINUOUS
 62
     7
  5
C4
 10
388.663693
 20
174.505349
 30
0.0
 11
358.663693
 21
174.505349
 31
0.0
  0
LINE
  8
0
  6
CONTINUOUS
 62
     7
  5
C5
 10
358.663693
 20
171.505349
 30
0.0
 11
388.663693
 21
171.505349
 31
0.0
  0
LINE
  8
0
  6
CONTINUOUS
 62
     7
  5
C6
 10
354.163693
 20
133.505349
 30
0.0
 11
346.663693
 21
133.505349
 31
0.0
  0
LINE
  8
0
  6
CONTINUOUS
 62
     7
  5
C7
 10
346.663693
 20
130.505349
 30
0.0
 11
339.563693
 21
130.505349
 31
0.0
  0
LINE
  8
0
  6
CONTINUOUS
 62
     7
  5
C8
 10
339.563693
 20
125.505349
 30
0.0
 11
346.663693
 21
125.505349
 31
0.0
  0
LINE
  8
0
  6
CONTINUOUS
 62
     7
  5
C9
 10
339.563693
 20
130.505349
 30
0.0
 11
339.163693
 21
130.105349
 31
0.0
  0
LINE
  8
0
  6
CONTINUOUS
 62
     7
  5
CA
 10
339.163693
 20
125.905349
 30
0.0
 11
339.563693
 21
125.505349
 31
0.0
  0
LINE
  8
0
  6
CONTINUOUS
 62
     7
  5
CB
 10
346.663693
 20
162.505349
 30
0.0
 11
354.163693
 21
162.505349
 31
0.0
  0
LINE
  8
0
  6
CONTINUOUS
 62
     7
  5
CC
 10
346.663693
 20
170.505349
 30
0.0
 11
339.563693
 21
170.505349
 31
0.0
  0
LINE
  8
0
  6
CONTINUOUS
 62
     7
  5
CD
 10
339.563693
 20
165.505349
 30
0.0
 11
346.663693
 21
165.505349
 31
0.0
  0
LINE
  8
0
  6
CONTINUOUS
 62
     7
  5
CE
 10
339.563693
 20
170.505349
 30
0.0
 11
339.163693
 21
170.105349
 31
0.0
  0
LINE
  8
0
  6
CONTINUOUS
 62
     7
  5
CF
 10
339.163693
 20
165.905349
 30
0.0
 11
339.563693
 21
165.505349
 31
0.0
  0
ENDBLK
  8
0
  5
D0
  0
BLOCK
  8
0
  5
D3
  2
AID343
 70
     0
 10
0.0
 20
0.0
 30
0.0
  3
#auxiliary draft view
  0
LINE
  8
0
  6
CONTINUOUS
 62
     7
  5
D4
 10
229.52676
 20
303.231362
 30
0.0
 11
235.52676
 21
303.231362
 31
0.0
  0
LINE
  8
0
  6
CONTINUOUS
 62
     7
  5
D5
 10
229.52676
 20
302.431362
 30
0.0
 11
235.52676
 21
302.431362
 31
0.0
  0
LINE
  8
0
  6
CONTINUOUS
 62
     7
  5
D6
 10
179.52676
 20
303.231362
 30
0.0
 11
185.52676
 21
303.231362
 31
0.0
  0
LINE
  8
0
  6
CONTINUOUS
 62
     7
  5
D7
 10
179.52676
 20
302.431362
 30
0.0
 11
185.52676
 21
302.431362
 31
0.0
  0
LINE
  8
0
  6
CONTINUOUS
 62
     7
  5
D8
 10
235.27676
 20
306.231362
 30
0.0
 11
229.77676
 21
306.231362
 31
0.0
  0
LINE
  8
0
  6
CONTINUOUS
 62
     7
  5
D9
 10
185.27676
 20
306.231362
 30
0.0
 11
179.77676
 21
306.231362
 31
0.0
  0
LINE
  8
0
  6
CONTINUOUS
 62
     9
  5
DA
 10
230.52676
 20
272.431362
 30
0.0
 11
230.52676
 21
267.931362
 31
0.0
  0
LINE
  8
0
  6
CONTINUOUS
 62
     7
  5
DB
 10
234.52676
 20
272.431362
 30
0.0
 11
230.52676
 21
272.431362
 31
0.0
  0
LINE
  8
0
  6
CONTINUOUS
 62
     9
  5
DC
 10
234.52676
 20
260.431362
 30
0.0
 11
234.52676
 21
272.431362
 31
0.0
  0
LINE
  8
0
  6
CONTINUOUS
 62
     9
  5
DD
 10
229.141138
 20
267.931362
 30
0.0
 11
229.141138
 21
260.431362
 31
0.0
  0
LINE
  8
0
  6
CONTINUOUS
 62
     7
  5
DE
 10
230.52676
 20
267.931362
 30
0.0
 11
229.141138
 21
267.931362
 31
0.0
  0
LINE
  8
0
  6
CONTINUOUS
 62
     7
  5
DF
 10
234.52676
 20
260.431362
 30
0.0
 11
229.141138
 21
260.431362
 31
0.0
  0
LINE
  8
0
  6
CONTINUOUS
 62
     9
  5
E0
 10
187.565976
 20
267.931362
 30
0.0
 11
187.565976
 21
260.431362
 31
0.0
  0
LINE
  8
0
  6
CONTINUOUS
 62
     9
  5
E1
 10
185.912382
 20
260.431362
 30
0.0
 11
185.912382
 21
267.931362
 31
0.0
  0
LINE
  8
0
  6
CONTINUOUS
 62
     7
  5
E2
 10
185.912382
 20
267.931362
 30
0.0
 11
187.565976
 21
267.931362
 31
0.0
  0
LINE
  8
0
  6
CONTINUOUS
 62
     7
  5
E3
 10
187.565976
 20
260.431362
 30
0.0
 11
185.912382
 21
260.431362
 31
0.0
  0
LINE
  8
0
  6
CONTINUOUS
 62
     9
  5
E4
 10
227.487544
 20
260.431362
 30
0.0
 11
227.487544
 21
267.931362
 31
0.0
  0
LINE
  8
0
  6
CONTINUOUS
 62
     7
  5
E5
 10
227.487544
 20
267.931362
 30
0.0
 11
229.141138
 21
267.931362
 31
0.0
  0
LINE
  8
0
  6
CONTINUOUS
 62
     7
  5
E6
 10
229.141138
 20
260.431362
 30
0.0
 11
227.487544
 21
260.431362
 31
0.0
  0
LINE
  8
0
  6
CONTINUOUS
 62
     9
  5
E7
 10
180.52676
 20
272.431362
 30
0.0
 11
180.52676
 21
260.431362
 31
0.0
  0
LINE
  8
0
  6
CONTINUOUS
 62
     9
  5
E8
 10
184.52676
 20
272.431362
 30
0.0
 11
184.52676
 21
267.931362
 31
0.0
  0
LINE
  8
0
  6
CONTINUOUS
 62
     7
  5
E9
 10
185.912382
 20
267.931362
 30
0.0
 11
184.52676
 21
267.931362
 31
0.0
  0
LINE
  8
0
  6
CONTINUOUS
 62
     7
  5
EA
 10
184.52676
 20
272.431362
 30
0.0
 11
180.52676
 21
272.431362
 31
0.0
  0
LINE
  8
0
  6
CONTINUOUS
 62
     7
  5
EB
 10
185.912382
 20
260.431362
 30
0.0
 11
180.52676
 21
260.431362
 31
0.0
  0
LINE
  8
0
  6
CONTINUOUS
 62
     7
  5
EC
 10
228.52676
 20
272.431362
 30
0.0
 11
228.52676
 21
267.931362
 31
0.0
  0
LINE
  8
0
  6
CONTINUOUS
 62
     7
  5
ED
 10
230.52676
 20
272.431362
 30
0.0
 11
228.52676
 21
272.431362
 31
0.0
  0
LINE
  8
0
  6
CONTINUOUS
 62
     7
  5
EE
 10
186.52676
 20
272.431362
 30
0.0
 11
186.52676
 21
267.931362
 31
0.0
  0
LINE
  8
0
  6
CONTINUOUS
 62
     7
  5
EF
 10
186.52676
 20
272.431362
 30
0.0
 11
184.52676
 21
272.431362
 31
0.0
  0
LINE
  8
0
  6
CONTINUOUS
 62
     7
  5
F0
 10
236.52676
 20
272.431362
 30
0.0
 11
236.52676
 21
260.431362
 31
0.0
  0
LINE
  8
0
  6
CONTINUOUS
 62
     7
  5
F1
 10
234.52676
 20
272.431362
 30
0.0
 11
236.52676
 21
272.431362
 31
0.0
  0
LINE
  8
0
  6
CONTINUOUS
 62
     7
  5
F2
 10
236.52676
 20
260.431362
 30
0.0
 11
234.52676
 21
260.431362
 31
0.0
  0
LINE
  8
0
  6
CONTINUOUS
 62
     7
  5
F3
 10
178.52676
 20
260.431362
 30
0.0
 11
178.52676
 21
272.431362
 31
0.0
  0
LINE
  8
0
  6
CONTINUOUS
 62
     7
  5
F4
 10
178.52676
 20
272.431362
 30
0.0
 11
180.52676
 21
272.431362
 31
0.0
  0
LINE
  8
0
  6
CONTINUOUS
 62
     7
  5
F5
 10
180.52676
 20
260.431362
 30
0.0
 11
178.52676
 21
260.431362
 31
0.0
  0
LINE
  8
0
  6
CONTINUOUS
 62
     9
  5
F6
 10
222.52676
 20
267.931362
 30
0.0
 11
222.52676
 21
260.431362
 31
0.0
  0
LINE
  8
0
  6
CONTINUOUS
 62
     7
  5
F7
 10
227.487544
 20
267.931362
 30
0.0
 11
222.52676
 21
267.931362
 31
0.0
  0
LINE
  8
0
  6
CONTINUOUS
 62
     7
  5
F8
 10
227.487544
 20
260.431362
 30
0.0
 11
222.52676
 21
260.431362
 31
0.0
  0
LINE
  8
0
  6
CONTINUOUS
 62
     9
  5
F9
 10
192.52676
 20
267.931362
 30
0.0
 11
192.52676
 21
260.431362
 31
0.0
  0
LINE
  8
0
  6
CONTINUOUS
 62
     7
  5
FA
 10
192.52676
 20
267.931362
 30
0.0
 11
187.565976
 21
267.931362
 31
0.0
  0
LINE
  8
0
  6
CONTINUOUS
 62
     7
  5
FB
 10
192.52676
 20
260.431362
 30
0.0
 11
187.565976
 21
260.431362
 31
0.0
  0
LINE
  8
0
  6
CONTINUOUS
 62
     7
  5
FC
 10
192.52676
 20
267.931362
 30
0.0
 11
222.52676
 21
267.931362
 31
0.0
  0
LINE
  8
0
  6
CONTINUOUS
 62
     7
  5
FD
 10
192.52676
 20
260.431362
 30
0.0
 11
222.52676
 21
260.431362
 31
0.0
  0
LINE
  8
0
  6
CONTINUOUS
 62
     7
  5
FE
 10
205.02676
 20
253.331362
 30
0.0
 11
210.02676
 21
253.331362
 31
0.0
  0
LINE
  8
0
  6
CONTINUOUS
 62
     7
  5
FF
 10
209.62676
 20
252.931362
 30
0.0
 11
205.42676
 21
252.931362
 31
0.0
  0
LINE
  8
0
  6
CONTINUOUS
 62
     7
  5
100
 10
229.52676
 20
303.231362
 30
0.0
 11
229.52676
 21
302.431362
 31
0.0
  0
LINE
  8
0
  6
CONTINUOUS
 62
     7
  5
101
 10
235.52676
 20
302.431362
 30
0.0
 11
235.52676
 21
303.231362
 31
0.0
  0
LINE
  8
0
  6
CONTINUOUS
 62
     7
  5
102
 10
179.52676
 20
303.231362
 30
0.0
 11
179.52676
 21
302.431362
 31
0.0
  0
LINE
  8
0
  6
CONTINUOUS
 62
     7
  5
103
 10
185.52676
 20
302.431362
 30
0.0
 11
185.52676
 21
303.231362
 31
0.0
  0
LINE
  8
0
  6
CONTINUOUS
 62
     7
  5
104
 10
235.27676
 20
303.231362
 30
0.0
 11
235.27676
 21
306.231362
 31
0.0
  0
LINE
  8
0
  6
CONTINUOUS
 62
     7
  5
105
 10
229.77676
 20
306.231362
 30
0.0
 11
229.77676
 21
303.231362
 31
0.0
  0
LINE
  8
0
  6
CONTINUOUS
 62
     7
  5
106
 10
231.02676
 20
302.431362
 30
0.0
 11
231.02676
 21
272.431362
 31
0.0
  0
LINE
  8
0
  6
CONTINUOUS
 62
     7
  5
107
 10
234.02676
 20
272.431362
 30
0.0
 11
234.02676
 21
302.431362
 31
0.0
  0
LINE
  8
0
  6
CONTINUOUS
 62
     7
  5
108
 10
185.27676
 20
303.231362
 30
0.0
 11
185.27676
 21
306.231362
 31
0.0
  0
LINE
  8
0
  6
CONTINUOUS
 62
     7
  5
109
 10
179.77676
 20
306.231362
 30
0.0
 11
179.77676
 21
303.231362
 31
0.0
  0
LINE
  8
0
  6
CONTINUOUS
 62
     7
  5
10A
 10
181.02676
 20
302.431362
 30
0.0
 11
181.02676
 21
272.431362
 31
0.0
  0
LINE
  8
0
  6
CONTINUOUS
 62
     7
  5
10B
 10
184.02676
 20
272.431362
 30
0.0
 11
184.02676
 21
302.431362
 31
0.0
  0
LINE
  8
0
  6
CONTINUOUS
 62
     7
  5
10C
 10
205.02676
 20
253.331362
 30
0.0
 11
205.42676
 21
252.931362
 31
0.0
  0
LINE
  8
0
  6
CONTINUOUS
 62
     7
  5
10D
 10
209.62676
 20
252.931362
 30
0.0
 11
210.02676
 21
253.331362
 31
0.0
  0
LINE
  8
0
  6
CONTINUOUS
 62
     7
  5
10E
 10
205.02676
 20
260.431362
 30
0.0
 11
205.02676
 21
253.331362
 31
0.0
  0
LINE
  8
0
  6
CONTINUOUS
 62
     7
  5
10F
 10
210.02676
 20
253.331362
 30
0.0
 11
210.02676
 21
260.431362
 31
0.0
  0
ENDBLK
  8
0
  5
110
  0
ENDSEC
  0
SECTION
  2
ENTITIES
  0
INSERT
  8
0
  5
8F
  2
AID3
 10
0.0
 20
0.0
 30
0.0
  0
INSERT
  8
0
  5
D1
  2
AID215
 10
0.0
 20
0.0
 30
0.0
  0
INSERT
  8
0
  5
111
  2
AID343
 10
0.0
 20
0.0
 30
0.0
  0
LINE
  8
0
  6
CENTER
 62
     1
  5
113
 10
232.52676
 20
265.481362
 30
0.0
 11
232.52676
 21
309.231362
 31
0.0
  0
LINE
  8
0
  6
CENTER
 62
     1
  5
114
 10
207.52676
 20
249.931362
 30
0.0
 11
207.52676
 21
265.931362
 31
0.0
  0
LINE
  8
0
  6
CENTER
 62
     1
  5
115
 10
182.52676
 20
309.231362
 30
0.0
 11
182.52676
 21
258.441214
 31
0.0
  0
LINE
  8
0
  6
CENTER
 62
     1
  5
116
 10
176.52676
 20
123.005349
 30
0.0
 11
188.52676
 21
123.005349
 31
0.0
  0
LINE
  8
0
  6
CENTER
 62
     1
  5
117
 10
182.52676
 20
117.005349
 30
0.0
 11
182.52676
 21
129.005349
 31
0.0
  0
LINE
  8
0
  6
CENTER
 62
     1
  5
118
 10
176.52676
 20
173.005349
 30
0.0
 11
188.52676
 21
173.005349
 31
0.0
  0
LINE
  8
0
  6
CENTER
 62
     1
  5
119
 10
182.52676
 20
167.005349
 30
0.0
 11
182.52676
 21
179.005349
 31
0.0
  0
LINE
  8
0
  6
CENTER
 62
     1
  5
11A
 10
200.02676
 20
128.005349
 30
0.0
 11
215.02676
 21
128.005349
 31
0.0
  0
LINE
  8
0
  6
CENTER
 62
     1
  5
11B
 10
207.52676
 20
120.505349
 30
0.0
 11
207.52676
 21
135.505349
 31
0.0
  0
LINE
  8
0
  6
CENTER
 62
     1
  5
11C
 10
200.02676
 20
168.005349
 30
0.0
 11
215.02676
 21
168.005349
 31
0.0
  0
LINE
  8
0
  6
CENTER
 62
     1
  5
11D
 10
207.52676
 20
160.505349
 30
0.0
 11
207.52676
 21
175.505349
 31
0.0
  0
LINE
  8
0
  6
CENTER
 62
     1
  5
11E
 10
226.52676
 20
123.005349
 30
0.0
 11
238.52676
 21
123.005349
 31
0.0
  0
LINE
  8
0
  6
CENTER
 62
     1
  5
11F
 10
232.52676
 20
117.005349
 30
0.0
 11
232.52676
 21
129.005349
 31
0.0
  0
LINE
  8
0
  6
CENTER
 62
     1
  5
120
 10
226.52676
 20
173.005349
 30
0.0
 11
238.52676
 21
173.005349
 31
0.0
  0
LINE
  8
0
  6
CENTER
 62
     1
  5
121
 10
232.52676
 20
167.005349
 30
0.0
 11
232.52676
 21
179.005349
 31
0.0
  0
LINE
  8
0
  6
CENTER
 62
     1
  5
122
 10
395.463693
 20
123.005349
 30
0.0
 11
344.673545
 21
123.005349
 31
0.0
  0
LINE
  8
0
  6
CENTER
 62
     1
  5
123
 10
336.163693
 20
128.005349
 30
0.0
 11
357.163693
 21
128.005349
 31
0.0
  0
LINE
  8
0
  6
CENTER
 62
     1
  5
124
 10
336.163693
 20
168.005349
 30
0.0
 11
352.163693
 21
168.005349
 31
0.0
  0
LINE
  8
0
  6
CENTER
 62
     1
  5
125
 10
351.713693
 20
173.005349
 30
0.0
 11
395.463693
 21
173.005349
 31
0.0
  0
ENDSEC
  0
EOF
