  0
SECTION
  2
HEADER
  9
$ACADVER
  1
AC1009
  9
$DWGCODEPAGE
  3
ansi_1252
  9
$INSBASE
 10
0.0
 20
0.0
 30
0.0
  9
$EXTMIN
 10
-19.460386
 20
-0.007326
 30
0.0
  9
$EXTMAX
 10
449.353306
 20
324.538535
 30
5.0
  9
$LIMMIN
 10
-19.460386
 20
-0.007326
  9
$LIMMAX
 10
449.353306
 20
324.538535
  9
$ORTHOMODE
 70
     0
  9
$REGENMODE
 70
     1
  9
$FILLMODE
 70
     1
  9
$QTEXTMODE
 70
     0
  9
$MIRRTEXT
 70
     1
  9
$DRAGMODE
 70
     2
  9
$LTSCALE
 40
10.0
  9
$OSMODE
 70
     0
  9
$ATTMODE
 70
     1
  9
$TEXTSIZE
 40
0.2
  9
$TRACEWID
 40
0.05
  9
$TEXTSTYLE
  7
STANDARD
  9
$CLAYER
  8
0
  9
$CELTYPE
  6
CONTINUOUS
  9
$CECOLOR
 62
   256
  9
$DIMSCALE
 40
1.0
  9
$DIMASZ
 40
1.25
  9
$DIMEXO
 40
1.0
  9
$DIMDLI
 40
0.38
  9
$DIMRND
 40
0.0
  9
$DIMDLE
 40
0.0
  9
$DIMEXE
 40
0.75
  9
$DIMTP
 40
0.0
  9
$DIMTM
 40
0.0
  9
$DIMTXT
 40
2.5
  9
$DIMCEN
 40
0.09
  9
$DIMTSZ
 40
0.0
  9
$DIMTOL
 70
     0
  9
$DIMLIM
 70
     0
  9
$DIMTIH
 70
     0
  9
$DIMTOH
 70
     0
  9
$DIMSE1
 70
     0
  9
$DIMSE2
 70
     0
  9
$DIMTAD
 70
     1
  9
$DIMZIN
 70
     0
  9
$DIMBLK
  1

  9
$DIMASO
 70
     1
  9
$DIMSHO
 70
     1
  9
$DIMPOST
  1

  9
$DIMAPOST
  1

  9
$DIMALT
 70
     0
  9
$DIMALTD
 70
     2
  9
$DIMALTF
 40
25.4
  9
$DIMLFAC
 40
1.0
  9
$DIMTOFL
 70
     0
  9
$DIMTVP
 40
0.0
  9
$DIMTIX
 70
     0
  9
$DIMSOXD
 70
     0
  9
$DIMSAH
 70
     0
  9
$DIMBLK1
  1

  9
$DIMBLK2
  1

  9
$DIMSTYLE
  2
STANDARD
  9
$DIMCLRD
 70
     7
  9
$DIMCLRE
 70
     7
  9
$DIMCLRT
 70
     7
  9
$DIMTFAC
 40
0.8
  9
$DIMGAP
 40
1.25
  9
$LUNITS
 70
     2
  9
$LUPREC
 70
     4
  9
$AXISMODE
 70
     0
  9
$AXISUNIT
 10
0.0
 20
0.0
  9
$SKETCHINC
 40
0.1
  9
$FILLETRAD
 40
0.0
  9
$AUNITS
 70
     0
  9
$AUPREC
 70
     0
  9
$MENU
  1
acad
  9
$ELEVATION
 40
0.0
  9
$PELEVATION
 40
0.0
  9
$THICKNESS
 40
0.0
  9
$LIMCHECK
 70
     0
  9
$BLIPMODE
 70
     1
  9
$CHAMFERA
 40
0.0
  9
$CHAMFERB
 40
0.0
  9
$SKPOLY
 70
     0
  9
$TDCREATE
 40
2454335.355648148
  9
$TDUPDATE
 40
2454335.270578704
  9
$TDINDWG
 40
0.0000000000
  9
$TDUSRTIMER
 40
0.0000000000
  9
$USRTIMER
 70
     1
  9
$ANGBASE
 50
0.0
  9
$ANGDIR
 70
     0
  9
$PDMODE
 70
     0
  9
$PDSIZE
 40
0.0
  9
$PLINEWID
 40
0.0
  9
$COORDS
 70
     0
  9
$SPLFRAME
 70
     0
  9
$SPLINETYPE
 70
     6
  9
$SPLINESEGS
 70
     8
  9
$ATTDIA
 70
     0
  9
$ATTREQ
 70
     1
  9
$HANDLING
 70
     1
  9
$HANDSEED
  5
1DF
  9
$SURFTAB1
 70
     6
  9
$SURFTAB2
 70
     6
  9
$SURFTYPE
 70
     6
  9
$SURFU
 70
     6
  9
$SURFV
 70
     6
  9
$UCSNAME
  2

  9
$UCSORG
 10
0.0
 20
0.0
 30
0.0
  9
$UCSXDIR
 10
1.0
 20
0.0
 30
0.0
  9
$UCSYDIR
 10
0.0
 20
1.0
 30
0.0
  9
$PUCSNAME
  2

  9
$PUCSORG
 10
0.0
 20
0.0
 30
0.0
  9
$PUCSXDIR
 10
1.0
 20
0.0
 30
0.0
  9
$PUCSYDIR
 10
0.0
 20
1.0
 30
0.0
  9
$USERI1
 70
     0
  9
$USERI2
 70
     0
  9
$USERI3
 70
     0
  9
$USERI4
 70
     0
  9
$USERI5
 70
     0
  9
$USERR1
 40
0.0
  9
$USERR2
 40
0.0
  9
$USERR3
 40
0.0
  9
$USERR4
 40
0.0
  9
$USERR5
 40
0.0
  9
$WORLDVIEW
 70
     1
  9
$SHADEDGE
 70
     3
  9
$SHADEDIF
 70
    70
  9
$TILEMODE
 70
     1
  9
$MAXACTVP
 70
    16
  9
$PINSBASE
 10
0.0
 20
0.0
 30
0.0
  9
$PLIMCHECK
 70
     0
  9
$PEXTMIN
 10
1.000000E+20
 20
1.000000E+20
 30
1.000000E+20
  9
$PEXTMAX
 10
-1.000000E+20
 20
-1.000000E+20
 30
-1.000000E+20
  9
$PLIMMIN
 10
0.0
 20
0.0
  9
$PLIMMAX
 10
12.0
 20
9.0
  9
$UNITMODE
 70
     0
  9
$VISRETAIN
 70
     0
  9
$PLINEGEN
 70
     1
  9
$PSLTSCALE
 70
     0
  9
$TREEDEPTH
 70
  3020
  0
ENDSEC
  0
SECTION
  2
TABLES
  0
TABLE
  2
VPORT
 70
     1
  0
VPORT
  2
*ACTIVE
 70
     0
 10
0.0
 20
0.0
 11
1.0
 21
1.0
 12
6.591288
 22
4.579184
 13
0.0
 23
0.0
 14
1.0
 24
1.0
 15
0.0
 25
0.0
 16
0.0
 26
0.0
 36
1.0
 17
0.0
 27
0.0
 37
0.0
 40
9.158369
 41
0.688564
 42
50.0
 43
0.0
 44
0.0
 50
0.0
 51
0.0
 71
     0
 72
   100
 73
     1
 74
     1
 75
     0
 76
     0
 77
     0
 78
     0
  0
ENDTAB
  0
TABLE
  2
LTYPE
 70
     2
  0
LTYPE
  2
CONTINUOUS
 70
    64
  3
Solid line
 72
    65
 73
     0
 40
0.0
  0
LTYPE
  2
CENTER
 70
    64
  3
____ _ ____ _ ____ _ ____ _ ____ _ ____ _ ____
 72
    65
 73
     4
 40
2.0
 49
1.25
 49
-0.25
 49
0.25
 49
-0.25
  0
ENDTAB
  0
TABLE
  2
LAYER
 70
     1
  0
LAYER
  2
0
 70
     0
 62
     7
  6
CONTINUOUS
  0
ENDTAB
  0
TABLE
  2
STYLE
 70
     1
  0
STYLE
  2
STANDARD
 70
     0
 40
0.0
 41
1.0
 50
0.0
 71
     0
 42
0.0
  3
IsonormD
  4

  0
ENDTAB
  0
TABLE
  2
VIEW
 70
     0
  0
ENDTAB
  0
TABLE
  2
UCS
 70
     0
  0
ENDTAB
  0
TABLE
  2
APPID
 70
     2
  0
APPID
  2
ACAD
 70
     0
  0
APPID
  2
TopSolid_Draft
 70
     0
  0
ENDTAB
  0
TABLE
  2
DIMSTYLE
 70
     1
  0
DIMSTYLE
  2
STANDARD
 70
     0
  3

  4

  5

  6

  7

 40
1.0
 41
1.25
 42
1.0
 43
0.38
 44
0.75
 45
0.0
 46
0.0
 47
0.0
 48
0.0
 71
     0
 72
     0
 73
     0
 74
     0
 75
     0
 76
     0
 77
     1
 78
     0
140
2.5
141
0.09
142
0.0
143
25.4
144
1.0
145
0.0
146
0.8
147
1.25
170
     0
171
     2
172
     0
173
     0
174
     0
175
     0
176
     7
177
     7
178
     7
  0
ENDTAB
  0
ENDSEC
  0
SECTION
  2
BLOCKS
  0
BLOCK
  8
0
  5
25
  2
AID3
 70
     0
 10
0.0
 20
0.0
 30
0.0
  3
#draft view
  0
LINE
  8
0
  6
CONTINUOUS
 62
     7
  5
26
 10
291.49464
 20
152.073335
 30
0.0
 11
291.49464
 21
170.073335
 31
0.0
  0
LINE
  8
0
  6
CONTINUOUS
 62
     7
  5
27
 10
291.99464
 20
169.573335
 30
0.0
 11
291.99464
 21
152.573335
 31
0.0
  0
LINE
  8
0
  6
CONTINUOUS
 62
     7
  5
28
 10
122.99464
 20
150.073335
 30
0.0
 11
133.99464
 21
150.073335
 31
0.0
  0
LINE
  8
0
  6
CONTINUOUS
 62
     7
  5
29
 10
122.99464
 20
178.073335
 30
0.0
 11
122.99464
 21
150.073335
 31
0.0
  0
LINE
  8
0
  6
CONTINUOUS
 62
     7
  5
2A
 10
122.99464
 20
178.073335
 30
0.0
 11
133.99464
 21
178.073335
 31
0.0
  0
LINE
  8
0
  6
CONTINUOUS
 62
     7
  5
2B
 10
133.99464
 20
178.073335
 30
0.0
 11
133.99464
 21
150.073335
 31
0.0
  0
LINE
  8
0
  6
CONTINUOUS
 62
     7
  5
2C
 10
289.99464
 20
152.073335
 30
0.0
 11
289.99464
 21
161.073335
 31
0.0
  0
LINE
  8
0
  6
CONTINUOUS
 62
     7
  5
2D
 10
289.99464
 20
161.073335
 30
0.0
 11
289.99464
 21
170.073335
 31
0.0
  0
LINE
  8
0
  6
CONTINUOUS
 62
     7
  5
2E
 10
297.99464
 20
156.073335
 30
0.0
 11
297.99464
 21
166.073335
 31
0.0
  0
LINE
  8
0
  6
CONTINUOUS
 62
     7
  5
2F
 10
291.49464
 20
170.073335
 30
0.0
 11
291.49464
 21
176.073335
 31
0.0
  0
LINE
  8
0
  6
CONTINUOUS
 62
     7
  5
30
 10
289.99464
 20
170.073335
 30
0.0
 11
289.99464
 21
176.073335
 31
0.0
  0
LINE
  8
0
  6
CONTINUOUS
 62
     7
  5
31
 10
291.99464
 20
175.573335
 30
0.0
 11
291.99464
 21
169.573335
 31
0.0
  0
LINE
  8
0
  6
CONTINUOUS
 62
     7
  5
32
 10
297.99464
 20
166.073335
 30
0.0
 11
297.99464
 21
172.073335
 31
0.0
  0
LINE
  8
0
  6
CONTINUOUS
 62
     7
  5
33
 10
138.99464
 20
179.073335
 30
0.0
 11
138.99464
 21
148.073335
 31
0.0
  0
LINE
  8
0
  6
CONTINUOUS
 62
     7
  5
34
 10
228.99464
 20
179.073335
 30
0.0
 11
138.99464
 21
179.073335
 31
0.0
  0
LINE
  8
0
  6
CONTINUOUS
 62
     7
  5
35
 10
228.99464
 20
179.073335
 30
0.0
 11
228.99464
 21
148.073335
 31
0.0
  0
LINE
  8
0
  6
CONTINUOUS
 62
     7
  5
36
 10
228.99464
 20
148.073335
 30
0.0
 11
138.99464
 21
148.073335
 31
0.0
  0
LINE
  8
0
  6
CONTINUOUS
 62
     7
  5
37
 10
138.99464
 20
180.073335
 30
0.0
 11
228.99464
 21
180.073335
 31
0.0
  0
LINE
  8
0
  6
CONTINUOUS
 62
     7
  5
38
 10
228.99464
 20
180.073335
 30
0.0
 11
228.99464
 21
179.073335
 31
0.0
  0
LINE
  8
0
  6
CONTINUOUS
 62
     7
  5
39
 10
138.99464
 20
179.073335
 30
0.0
 11
138.99464
 21
180.073335
 31
0.0
  0
LINE
  8
0
  6
CONTINUOUS
 62
     7
  5
3A
 10
167.99464
 20
181.573335
 30
0.0
 11
191.99464
 21
181.573335
 31
0.0
  0
LINE
  8
0
  6
CONTINUOUS
 62
     7
  5
3B
 10
291.49464
 20
152.073335
 30
0.0
 11
291.99464
 21
152.573335
 31
0.0
  0
LINE
  8
0
  6
CONTINUOUS
 62
     7
  5
3C
 10
291.99464
 20
169.573335
 30
0.0
 11
291.49464
 21
170.073335
 31
0.0
  0
LINE
  8
0
  6
CONTINUOUS
 62
     7
  5
3D
 10
291.49464
 20
170.073335
 30
0.0
 11
289.99464
 21
170.073335
 31
0.0
  0
LINE
  8
0
  6
CONTINUOUS
 62
     7
  5
3E
 10
289.99464
 20
152.073335
 30
0.0
 11
291.49464
 21
152.073335
 31
0.0
  0
LINE
  8
0
  6
CONTINUOUS
 62
     7
  5
3F
 10
289.99464
 20
167.073335
 30
0.0
 11
228.99464
 21
167.073335
 31
0.0
  0
LINE
  8
0
  6
CONTINUOUS
 62
     7
  5
40
 10
138.99464
 20
167.073335
 30
0.0
 11
133.99464
 21
167.073335
 31
0.0
  0
LINE
  8
0
  6
CONTINUOUS
 62
     7
  5
41
 10
133.99464
 20
155.073335
 30
0.0
 11
138.99464
 21
155.073335
 31
0.0
  0
LINE
  8
0
  6
CONTINUOUS
 62
     7
  5
42
 10
228.99464
 20
155.073335
 30
0.0
 11
289.99464
 21
155.073335
 31
0.0
  0
LINE
  8
0
  6
CONTINUOUS
 62
     7
  5
43
 10
291.99464
 20
156.073335
 30
0.0
 11
297.99464
 21
156.073335
 31
0.0
  0
LINE
  8
0
  6
CONTINUOUS
 62
     7
  5
44
 10
297.99464
 20
166.073335
 30
0.0
 11
291.99464
 21
166.073335
 31
0.0
  0
LINE
  8
0
  6
CONTINUOUS
 62
     7
  5
45
 10
138.99464
 20
174.573335
 30
0.0
 11
133.99464
 21
174.573335
 31
0.0
  0
LINE
  8
0
  6
CONTINUOUS
 62
     7
  5
46
 10
291.49464
 20
176.073335
 30
0.0
 11
289.99464
 21
176.073335
 31
0.0
  0
LINE
  8
0
  6
CONTINUOUS
 62
     7
  5
47
 10
291.99464
 20
175.573335
 30
0.0
 11
291.49464
 21
176.073335
 31
0.0
  0
LINE
  8
0
  6
CONTINUOUS
 62
     7
  5
48
 10
289.99464
 20
173.073335
 30
0.0
 11
228.99464
 21
173.073335
 31
0.0
  0
LINE
  8
0
  6
CONTINUOUS
 62
     7
  5
49
 10
297.99464
 20
172.073335
 30
0.0
 11
291.99464
 21
172.073335
 31
0.0
  0
LINE
  8
0
  6
CONTINUOUS
 62
     7
  5
4A
 10
191.99464
 20
180.073335
 30
0.0
 11
191.99464
 21
181.573335
 31
0.0
  0
LINE
  8
0
  6
CONTINUOUS
 62
     7
  5
4B
 10
167.99464
 20
181.573335
 30
0.0
 11
167.99464
 21
180.073335
 31
0.0
  0
ENDBLK
  8
0
  5
4C
  0
BLOCK
  8
0
  5
4F
  2
AID83
 70
     0
 10
0.0
 20
0.0
 30
0.0
  3
#auxiliary draft view
  0
LINE
  8
0
  6
CONTINUOUS
 62
     7
  5
50
 10
-9.960386
 20
159.62996
 30
0.0
 11
-9.960386
 21
162.516711
 31
0.0
  0
LINE
  8
0
  6
CONTINUOUS
 62
     7
  5
51
 10
-7.460386
 20
158.186584
 30
0.0
 11
-9.960386
 21
159.62996
 31
0.0
  0
LINE
  8
0
  6
CONTINUOUS
 62
     7
  5
52
 10
-4.960386
 20
159.62996
 30
0.0
 11
-7.460386
 21
158.186584
 31
0.0
  0
CIRCLE
  8
0
  6
CONTINUOUS
 62
     7
  5
53
 10
-7.460386
 20
161.073335
 30
0.0
 40
5.0
210
0.0
220
0.0
230
1.0
  0
LINE
  8
0
  6
CONTINUOUS
 62
     7
  5
54
 10
-7.460386
 20
163.960087
 30
0.0
 11
-4.960386
 21
162.516711
 31
0.0
  0
LINE
  8
0
  6
CONTINUOUS
 62
     7
  5
55
 10
-4.960386
 20
162.516711
 30
0.0
 11
-4.960386
 21
159.62996
 31
0.0
  0
LINE
  8
0
  6
CONTINUOUS
 62
     7
  5
56
 10
-9.960386
 20
162.516711
 30
0.0
 11
-7.460386
 21
163.960087
 31
0.0
  0
LINE
  8
0
  6
CONTINUOUS
 62
     7
  5
57
 10
48.039614
 20
168.516711
 30
0.0
 11
50.539614
 21
169.960087
 31
0.0
  0
LINE
  8
0
  6
CONTINUOUS
 62
     7
  5
58
 10
50.539614
 20
164.186584
 30
0.0
 11
48.039614
 21
165.62996
 31
0.0
  0
LINE
  8
0
  6
CONTINUOUS
 62
     7
  5
59
 10
53.039614
 20
165.62996
 30
0.0
 11
50.539614
 21
164.186584
 31
0.0
  0
CIRCLE
  8
0
  6
CONTINUOUS
 62
     7
  5
5A
 10
50.539614
 20
167.073335
 30
0.0
 40
5.0
210
0.0
220
0.0
230
1.0
  0
LINE
  8
0
  6
CONTINUOUS
 62
     7
  5
5B
 10
50.539614
 20
169.960087
 30
0.0
 11
53.039614
 21
168.516711
 31
0.0
  0
LINE
  8
0
  6
CONTINUOUS
 62
     7
  5
5C
 10
53.039614
 20
168.516711
 30
0.0
 11
53.039614
 21
165.62996
 31
0.0
  0
LINE
  8
0
  6
CONTINUOUS
 62
     7
  5
5D
 10
48.039614
 20
165.62996
 30
0.0
 11
48.039614
 21
168.516711
 31
0.0
  0
CIRCLE
  8
0
  6
CONTINUOUS
 62
     7
  5
5E
 10
-7.460386
 20
161.073335
 30
0.0
 40
8.5
210
0.0
220
0.0
230
1.0
  0
CIRCLE
  8
0
  6
CONTINUOUS
 62
     7
  5
5F
 10
50.539614
 20
167.073335
 30
0.0
 40
8.5
210
0.0
220
0.0
230
1.0
  0
CIRCLE
  8
0
  6
CONTINUOUS
 62
     7
  5
60
 10
50.539614
 20
167.073335
 30
0.0
 40
9.0
210
0.0
220
0.0
230
1.0
  0
CIRCLE
  8
0
  6
CONTINUOUS
 62
     7
  5
61
 10
-7.460386
 20
161.073335
 30
0.0
 40
9.0
210
0.0
220
0.0
230
1.0
  0
CIRCLE
  8
0
  6
CONTINUOUS
 62
     7
  5
62
 10
21.539614
 20
164.073335
 30
0.0
 40
2.3
210
0.0
220
0.0
230
1.0
  0
CIRCLE
  8
0
  6
CONTINUOUS
 62
     7
  5
63
 10
21.539614
 20
164.073335
 30
0.0
 40
2.5
210
0.0
220
0.0
230
1.0
  0
CIRCLE
  8
0
  6
CONTINUOUS
 62
     7
  5
64
 10
21.539614
 20
164.073335
 30
0.0
 40
5.25
210
0.0
220
0.0
230
1.0
  0
ARC
  8
0
  6
CONTINUOUS
 62
     7
  5
65
 10
1.539614
 20
174.073335
 30
0.0
 40
2.5
 50
163.739795
 51
168.463041
210
0.0
220
0.0
230
1.0
  0
CIRCLE
  8
0
  6
CONTINUOUS
 62
     7
  5
66
 10
21.539614
 20
164.073335
 30
0.0
 40
6.0
210
0.0
220
0.0
230
1.0
  0
LINE
  8
0
  6
CONTINUOUS
 62
     7
  5
67
 10
-0.860386
 20
178.073335
 30
0.0
 11
-3.460386
 21
178.073335
 31
0.0
  0
LINE
  8
0
  6
CONTINUOUS
 62
     7
  5
68
 10
-7.360386
 20
178.073335
 30
0.0
 11
-9.960386
 21
178.073335
 31
0.0
  0
LINE
  8
0
  6
CONTINUOUS
 62
     7
  5
69
 10
-13.860386
 20
178.073335
 30
0.0
 11
-16.460386
 21
178.073335
 31
0.0
  0
LINE
  8
0
  6
CONTINUOUS
 62
     7
  5
6A
 10
19.039614
 20
179.073335
 30
0.0
 11
24.039614
 21
179.073335
 31
0.0
  0
ARC
  8
0
  6
CONTINUOUS
 62
     7
  5
6B
 10
19.039614
 20
174.073335
 30
0.0
 40
5.0
 50
90.0
 51
180.0
210
0.0
220
0.0
230
1.0
  0
LINE
  8
0
  6
CONTINUOUS
 62
     7
  5
6C
 10
14.039614
 20
172.791133
 30
0.0
 11
14.039614
 21
174.073335
 31
0.0
  0
LINE
  8
0
  6
CONTINUOUS
 62
     7
  5
6D
 10
29.039614
 20
174.073335
 30
0.0
 11
29.039614
 21
172.791133
 31
0.0
  0
ARC
  8
0
  6
CONTINUOUS
 62
     7
  5
6E
 10
24.039614
 20
174.073335
 30
0.0
 40
5.0
 50
0.0
 51
90.0
210
0.0
220
0.0
230
1.0
  0
LINE
  8
0
  6
CONTINUOUS
 62
     7
  5
6F
 10
43.939614
 20
177.073335
 30
0.0
 11
46.539614
 21
177.073335
 31
0.0
  0
LINE
  8
0
  6
CONTINUOUS
 62
     7
  5
70
 10
46.539614
 20
177.073335
 30
0.0
 11
46.539614
 21
180.073335
 31
0.0
  0
LINE
  8
0
  6
CONTINUOUS
 62
     7
  5
71
 10
50.439614
 20
180.073335
 30
0.0
 11
46.539614
 21
180.073335
 31
0.0
  0
LINE
  8
0
  6
CONTINUOUS
 62
     7
  5
72
 10
50.439614
 20
180.073335
 30
0.0
 11
50.439614
 21
177.573335
 31
0.0
  0
LINE
  8
0
  6
CONTINUOUS
 62
     7
  5
73
 10
50.439614
 20
177.573335
 30
0.0
 11
53.039614
 21
177.573335
 31
0.0
  0
LINE
  8
0
  6
CONTINUOUS
 62
     7
  5
74
 10
53.039614
 20
177.573335
 30
0.0
 11
53.039614
 21
180.073335
 31
0.0
  0
LINE
  8
0
  6
CONTINUOUS
 62
     7
  5
75
 10
56.939614
 20
180.073335
 30
0.0
 11
53.039614
 21
180.073335
 31
0.0
  0
LINE
  8
0
  6
CONTINUOUS
 62
     7
  5
76
 10
56.939614
 20
180.073335
 30
0.0
 11
56.939614
 21
175.573335
 31
0.0
  0
LINE
  8
0
  6
CONTINUOUS
 62
     7
  5
77
 10
56.939614
 20
175.573335
 30
0.0
 11
59.539614
 21
175.573335
 31
0.0
  0
LINE
  8
0
  6
CONTINUOUS
 62
     7
  5
78
 10
59.539614
 20
175.573335
 30
0.0
 11
59.539614
 21
180.073335
 31
0.0
  0
LINE
  8
0
  6
CONTINUOUS
 62
     7
  5
79
 10
61.539614
 20
180.073335
 30
0.0
 11
59.539614
 21
180.073335
 31
0.0
  0
LINE
  8
0
  6
CONTINUOUS
 62
     7
  5
7A
 10
-16.460386
 20
180.073335
 30
0.0
 11
-18.460386
 21
180.073335
 31
0.0
  0
LINE
  8
0
  6
CONTINUOUS
 62
     7
  5
7B
 10
-7.360386
 20
180.073335
 30
0.0
 11
-7.360386
 21
174.573335
 31
0.0
  0
LINE
  8
0
  6
CONTINUOUS
 62
     7
  5
7C
 10
-3.460386
 20
180.073335
 30
0.0
 11
-7.360386
 21
180.073335
 31
0.0
  0
LINE
  8
0
  6
CONTINUOUS
 62
     7
  5
7D
 10
-3.460386
 20
174.573335
 30
0.0
 11
-3.460386
 21
180.073335
 31
0.0
  0
LINE
  8
0
  6
CONTINUOUS
 62
     7
  5
7E
 10
-0.860386
 20
174.573335
 30
0.0
 11
-3.460386
 21
174.573335
 31
0.0
  0
LINE
  8
0
  6
CONTINUOUS
 62
     7
  5
7F
 10
-0.860386
 20
180.073335
 30
0.0
 11
-0.860386
 21
174.573335
 31
0.0
  0
LINE
  8
0
  6
CONTINUOUS
 62
     7
  5
80
 10
43.939614
 20
180.073335
 30
0.0
 11
-0.860386
 21
180.073335
 31
0.0
  0
LINE
  8
0
  6
CONTINUOUS
 62
     7
  5
81
 10
43.939614
 20
180.073335
 30
0.0
 11
43.939614
 21
177.073335
 31
0.0
  0
ARC
  8
0
  6
CONTINUOUS
 62
     7
  5
82
 10
21.539614
 20
164.073335
 30
0.0
 40
11.5
 50
130.705707
 51
49.294293
210
0.0
220
0.0
230
1.0
  0
LINE
  8
0
  6
CONTINUOUS
 62
     7
  5
83
 10
62.539614
 20
179.073335
 30
0.0
 11
62.539614
 21
148.073335
 31
0.0
  0
LINE
  8
0
  6
CONTINUOUS
 62
     7
  5
84
 10
-19.460386
 20
179.073335
 30
0.0
 11
-19.460386
 21
148.073335
 31
0.0
  0
LINE
  8
0
  6
CONTINUOUS
 62
     7
  5
85
 10
62.539614
 20
148.073335
 30
0.0
 11
-19.460386
 21
148.073335
 31
0.0
  0
LINE
  8
0
  6
CONTINUOUS
 62
     7
  5
86
 10
-18.460386
 20
180.073335
 30
0.0
 11
-19.460386
 21
179.073335
 31
0.0
  0
LINE
  8
0
  6
CONTINUOUS
 62
     7
  5
87
 10
-13.860386
 20
180.073335
 30
0.0
 11
-13.860386
 21
174.573335
 31
0.0
  0
LINE
  8
0
  6
CONTINUOUS
 62
     7
  5
88
 10
-9.960386
 20
180.073335
 30
0.0
 11
-13.860386
 21
180.073335
 31
0.0
  0
LINE
  8
0
  6
CONTINUOUS
 62
     7
  5
89
 10
-13.860386
 20
174.573335
 30
0.0
 11
-16.460386
 21
174.573335
 31
0.0
  0
LINE
  8
0
  6
CONTINUOUS
 62
     7
  5
8A
 10
-9.960386
 20
174.573335
 30
0.0
 11
-9.960386
 21
180.073335
 31
0.0
  0
LINE
  8
0
  6
CONTINUOUS
 62
     7
  5
8B
 10
-7.360386
 20
174.573335
 30
0.0
 11
-9.960386
 21
174.573335
 31
0.0
  0
LINE
  8
0
  6
CONTINUOUS
 62
     7
  5
8C
 10
-16.460386
 20
174.573335
 30
0.0
 11
-16.460386
 21
180.073335
 31
0.0
  0
LINE
  8
0
  6
CONTINUOUS
 62
     7
  5
8D
 10
62.539614
 20
179.073335
 30
0.0
 11
61.539614
 21
180.073335
 31
0.0
  0
LINE
  8
0
  6
CONTINUOUS
 62
     7
  5
8E
 10
16.039614
 20
178.073335
 30
0.0
 11
16.039614
 21
174.17284
 31
0.0
  0
ARC
  8
0
  6
CONTINUOUS
 62
     7
  5
8F
 10
21.539614
 20
164.073335
 30
0.0
 40
11.5
 50
118.571878
 51
130.705707
210
0.0
220
0.0
230
1.0
  0
LINE
  8
0
  6
CONTINUOUS
 62
     7
  5
90
 10
27.039614
 20
174.17284
 30
0.0
 11
27.039614
 21
178.073335
 31
0.0
  0
ARC
  8
0
  6
CONTINUOUS
 62
     7
  5
91
 10
21.539614
 20
164.073335
 30
0.0
 40
11.5
 50
49.294293
 51
61.428122
210
0.0
220
0.0
230
1.0
  0
LINE
  8
0
  6
CONTINUOUS
 62
     7
  5
92
 10
38.539614
 20
181.573335
 30
0.0
 11
50.539614
 21
181.573335
 31
0.0
  0
LINE
  8
0
  6
CONTINUOUS
 62
     7
  5
93
 10
43.939614
 20
180.073335
 30
0.0
 11
46.539614
 21
180.073335
 31
0.0
  0
LINE
  8
0
  6
CONTINUOUS
 62
     7
  5
94
 10
61.539614
 20
180.073335
 30
0.0
 11
62.539614
 21
180.073335
 31
0.0
  0
LINE
  8
0
  6
CONTINUOUS
 62
     7
  5
95
 10
56.939614
 20
180.073335
 30
0.0
 11
59.539614
 21
180.073335
 31
0.0
  0
LINE
  8
0
  6
CONTINUOUS
 62
     7
  5
96
 10
50.539614
 20
181.573335
 30
0.0
 11
62.539614
 21
181.573335
 31
0.0
  0
LINE
  8
0
  6
CONTINUOUS
 62
     7
  5
97
 10
50.439614
 20
180.073335
 30
0.0
 11
53.039614
 21
180.073335
 31
0.0
  0
LINE
  8
0
  6
CONTINUOUS
 62
     7
  5
98
 10
56.939614
 20
176.073335
 30
0.0
 11
59.539614
 21
176.073335
 31
0.0
  0
LINE
  8
0
  6
CONTINUOUS
 62
     7
  5
99
 10
26.62219
 20
174.389218
 30
0.0
 11
26.62219
 21
174.073335
 31
0.0
  0
LINE
  8
0
  6
CONTINUOUS
 62
     9
  5
9A
 10
22.039614
 20
179.073335
 30
0.0
 11
22.039614
 21
174.073335
 31
0.0
  0
LINE
  8
0
  6
CONTINUOUS
 62
     7
  5
9B
 10
27.039614
 20
174.17284
 30
0.0
 11
26.62219
 21
174.389218
 31
0.0
  0
LINE
  8
0
  6
CONTINUOUS
 62
     9
  5
9C
 10
21.039614
 20
179.073335
 30
0.0
 11
21.039614
 21
174.073335
 31
0.0
  0
LINE
  8
0
  6
CONTINUOUS
 62
     7
  5
9D
 10
16.457038
 20
174.073335
 30
0.0
 11
16.457038
 21
174.389218
 31
0.0
  0
LINE
  8
0
  6
CONTINUOUS
 62
     7
  5
9E
 10
16.457038
 20
174.389218
 30
0.0
 11
16.039614
 21
174.17284
 31
0.0
  0
CIRCLE
  8
0
  6
CONTINUOUS
 62
     7
  5
9F
 10
21.539614
 20
164.073335
 30
0.0
 40
9.0
210
0.0
220
0.0
230
1.0
  0
LINE
  8
0
  6
CONTINUOUS
 62
     7
  5
A0
 10
26.62219
 20
174.073335
 30
0.0
 11
16.457038
 21
174.073335
 31
0.0
  0
LINE
  8
0
  6
CONTINUOUS
 62
     7
  5
A1
 10
62.539614
 20
180.073335
 30
0.0
 11
62.539614
 21
181.573335
 31
0.0
  0
LINE
  8
0
  6
CONTINUOUS
 62
     7
  5
A2
 10
38.539614
 20
181.573335
 30
0.0
 11
38.539614
 21
180.073335
 31
0.0
  0
ENDBLK
  8
0
  5
A3
  0
BLOCK
  8
0
  5
A6
  2
AID253
 70
     0
 10
0.0
 20
0.0
 30
0.0
  3
#auxiliary draft view
  0
CIRCLE
  8
0
  6
CONTINUOUS
 62
     7
  5
A7
 10
428.353306
 20
154.073335
 30
0.0
 40
2.067
210
0.0
220
0.0
230
1.0
  0
CIRCLE
  8
0
  6
CONTINUOUS
 62
     7
  5
A8
 10
428.353306
 20
154.073335
 30
0.0
 40
2.5
210
0.0
220
0.0
230
1.0
  0
CIRCLE
  8
0
  6
CONTINUOUS
 62
     7
  5
A9
 10
388.353306
 20
174.073335
 30
0.0
 40
2.067
210
0.0
220
0.0
230
1.0
  0
CIRCLE
  8
0
  6
CONTINUOUS
 62
     7
  5
AA
 10
388.353306
 20
174.073335
 30
0.0
 40
2.5
210
0.0
220
0.0
230
1.0
  0
CIRCLE
  8
0
  6
CONTINUOUS
 62
     7
  5
AB
 10
388.353306
 20
154.073335
 30
0.0
 40
2.067
210
0.0
220
0.0
230
1.0
  0
CIRCLE
  8
0
  6
CONTINUOUS
 62
     7
  5
AC
 10
388.353306
 20
154.073335
 30
0.0
 40
2.5
210
0.0
220
0.0
230
1.0
  0
CIRCLE
  8
0
  6
CONTINUOUS
 62
     7
  5
AD
 10
428.353306
 20
174.073335
 30
0.0
 40
2.067
210
0.0
220
0.0
230
1.0
  0
CIRCLE
  8
0
  6
CONTINUOUS
 62
     7
  5
AE
 10
428.353306
 20
174.073335
 30
0.0
 40
2.5
210
0.0
220
0.0
230
1.0
  0
LINE
  8
0
  6
CONTINUOUS
 62
     7
  5
AF
 10
446.353306
 20
150.073335
 30
0.0
 11
370.353306
 21
150.073335
 31
0.0
  0
LINE
  8
0
  6
CONTINUOUS
 62
     7
  5
B0
 10
446.353306
 20
178.073335
 30
0.0
 11
446.353306
 21
150.073335
 31
0.0
  0
LINE
  8
0
  6
CONTINUOUS
 62
     7
  5
B1
 10
370.353306
 20
178.073335
 30
0.0
 11
446.353306
 21
178.073335
 31
0.0
  0
CIRCLE
  8
0
  6
CONTINUOUS
 62
     7
  5
B2
 10
408.353306
 20
164.073335
 30
0.0
 40
6.0
210
0.0
220
0.0
230
1.0
  0
CIRCLE
  8
0
  6
CONTINUOUS
 62
     7
  5
B3
 10
424.353306
 20
164.073335
 30
0.0
 40
2.01
210
0.0
220
0.0
230
1.0
  0
LINE
  8
0
  6
CONTINUOUS
 62
     7
  5
B4
 10
370.353306
 20
150.073335
 30
0.0
 11
370.353306
 21
178.073335
 31
0.0
  0
CIRCLE
  8
0
  6
CONTINUOUS
 62
     7
  5
B5
 10
392.353306
 20
164.073335
 30
0.0
 40
2.01
210
0.0
220
0.0
230
1.0
  0
CIRCLE
  8
0
  6
CONTINUOUS
 62
     7
  5
B6
 10
408.353306
 20
164.073335
 30
0.0
 40
2.25
210
0.0
220
0.0
230
1.0
  0
CIRCLE
  8
0
  6
CONTINUOUS
 62
     7
  5
B7
 10
408.353306
 20
164.073335
 30
0.0
 40
4.75
210
0.0
220
0.0
230
1.0
  0
LINE
  8
0
  6
CONTINUOUS
 62
     7
  5
B8
 10
408.353306
 20
165.805386
 30
0.0
 11
406.853306
 21
164.939361
 31
0.0
  0
LINE
  8
0
  6
CONTINUOUS
 62
     7
  5
B9
 10
406.853306
 20
163.20731
 30
0.0
 11
408.353306
 21
162.341285
 31
0.0
  0
LINE
  8
0
  6
CONTINUOUS
 62
     7
  5
BA
 10
409.853306
 20
163.20731
 30
0.0
 11
409.853306
 21
164.939361
 31
0.0
  0
LINE
  8
0
  6
CONTINUOUS
 62
     7
  5
BB
 10
408.353306
 20
162.341285
 30
0.0
 11
409.853306
 21
163.20731
 31
0.0
  0
LINE
  8
0
  6
CONTINUOUS
 62
     7
  5
BC
 10
409.853306
 20
164.939361
 30
0.0
 11
408.353306
 21
165.805386
 31
0.0
  0
LINE
  8
0
  6
CONTINUOUS
 62
     7
  5
BD
 10
406.853306
 20
164.939361
 30
0.0
 11
406.853306
 21
163.20731
 31
0.0
  0
CIRCLE
  8
0
  6
CONTINUOUS
 62
     7
  5
BE
 10
408.353306
 20
164.073335
 30
0.0
 40
5.25
210
0.0
220
0.0
230
1.0
  0
LINE
  8
0
  6
CONTINUOUS
 62
     7
  5
BF
 10
430.753306
 20
178.073335
 30
0.0
 11
430.753306
 21
180.073335
 31
0.0
  0
LINE
  8
0
  6
CONTINUOUS
 62
     7
  5
C0
 10
433.353306
 20
180.073335
 30
0.0
 11
433.353306
 21
178.073335
 31
0.0
  0
LINE
  8
0
  6
CONTINUOUS
 62
     7
  5
C1
 10
437.253306
 20
180.073335
 30
0.0
 11
433.353306
 21
180.073335
 31
0.0
  0
LINE
  8
0
  6
CONTINUOUS
 62
     7
  5
C2
 10
437.253306
 20
178.073335
 30
0.0
 11
437.253306
 21
180.073335
 31
0.0
  0
LINE
  8
0
  6
CONTINUOUS
 62
     7
  5
C3
 10
439.853306
 20
180.073335
 30
0.0
 11
439.853306
 21
178.073335
 31
0.0
  0
LINE
  8
0
  6
CONTINUOUS
 62
     7
  5
C4
 10
443.753306
 20
180.073335
 30
0.0
 11
439.853306
 21
180.073335
 31
0.0
  0
LINE
  8
0
  6
CONTINUOUS
 62
     7
  5
C5
 10
443.753306
 20
178.073335
 30
0.0
 11
443.753306
 21
180.073335
 31
0.0
  0
LINE
  8
0
  6
CONTINUOUS
 62
     7
  5
C6
 10
446.353306
 20
180.073335
 30
0.0
 11
446.353306
 21
178.073335
 31
0.0
  0
LINE
  8
0
  6
CONTINUOUS
 62
     7
  5
C7
 10
448.353306
 20
180.073335
 30
0.0
 11
446.353306
 21
180.073335
 31
0.0
  0
LINE
  8
0
  6
CONTINUOUS
 62
     7
  5
C8
 10
449.353306
 20
179.073335
 30
0.0
 11
448.353306
 21
180.073335
 31
0.0
  0
LINE
  8
0
  6
CONTINUOUS
 62
     7
  5
C9
 10
449.353306
 20
179.073335
 30
0.0
 11
449.353306
 21
148.073335
 31
0.0
  0
LINE
  8
0
  6
CONTINUOUS
 62
     7
  5
CA
 10
449.353306
 20
148.073335
 30
0.0
 11
367.353306
 21
148.073335
 31
0.0
  0
LINE
  8
0
  6
CONTINUOUS
 62
     7
  5
CB
 10
367.353306
 20
179.073335
 30
0.0
 11
367.353306
 21
148.073335
 31
0.0
  0
LINE
  8
0
  6
CONTINUOUS
 62
     7
  5
CC
 10
368.353306
 20
180.073335
 30
0.0
 11
367.353306
 21
179.073335
 31
0.0
  0
LINE
  8
0
  6
CONTINUOUS
 62
     7
  5
CD
 10
370.353306
 20
180.073335
 30
0.0
 11
368.353306
 21
180.073335
 31
0.0
  0
LINE
  8
0
  6
CONTINUOUS
 62
     7
  5
CE
 10
370.353306
 20
180.073335
 30
0.0
 11
370.353306
 21
178.073335
 31
0.0
  0
LINE
  8
0
  6
CONTINUOUS
 62
     7
  5
CF
 10
372.953306
 20
178.073335
 30
0.0
 11
372.953306
 21
180.073335
 31
0.0
  0
LINE
  8
0
  6
CONTINUOUS
 62
     7
  5
D0
 10
376.853306
 20
180.073335
 30
0.0
 11
372.953306
 21
180.073335
 31
0.0
  0
LINE
  8
0
  6
CONTINUOUS
 62
     7
  5
D1
 10
376.853306
 20
180.073335
 30
0.0
 11
376.853306
 21
178.073335
 31
0.0
  0
LINE
  8
0
  6
CONTINUOUS
 62
     7
  5
D2
 10
379.453306
 20
178.073335
 30
0.0
 11
379.453306
 21
180.073335
 31
0.0
  0
LINE
  8
0
  6
CONTINUOUS
 62
     7
  5
D3
 10
383.353306
 20
180.073335
 30
0.0
 11
379.453306
 21
180.073335
 31
0.0
  0
LINE
  8
0
  6
CONTINUOUS
 62
     7
  5
D4
 10
383.353306
 20
180.073335
 30
0.0
 11
383.353306
 21
178.073335
 31
0.0
  0
LINE
  8
0
  6
CONTINUOUS
 62
     7
  5
D5
 10
385.953306
 20
178.073335
 30
0.0
 11
385.953306
 21
180.073335
 31
0.0
  0
LINE
  8
0
  6
CONTINUOUS
 62
     7
  5
D6
 10
430.753306
 20
180.073335
 30
0.0
 11
385.953306
 21
180.073335
 31
0.0
  0
LINE
  8
0
  6
CONTINUOUS
 62
     7
  5
D7
 10
367.353306
 20
180.073335
 30
0.0
 11
368.353306
 21
180.073335
 31
0.0
  0
LINE
  8
0
  6
CONTINUOUS
 62
     7
  5
D8
 10
367.353306
 20
181.573335
 30
0.0
 11
391.353306
 21
181.573335
 31
0.0
  0
LINE
  8
0
  6
CONTINUOUS
 62
     7
  5
D9
 10
383.353306
 20
180.073335
 30
0.0
 11
385.953306
 21
180.073335
 31
0.0
  0
LINE
  8
0
  6
CONTINUOUS
 62
     7
  5
DA
 10
376.853306
 20
180.073335
 30
0.0
 11
379.453306
 21
180.073335
 31
0.0
  0
LINE
  8
0
  6
CONTINUOUS
 62
     7
  5
DB
 10
370.353306
 20
180.073335
 30
0.0
 11
372.953306
 21
180.073335
 31
0.0
  0
LINE
  8
0
  6
CONTINUOUS
 62
     7
  5
DC
 10
391.353306
 20
180.073335
 30
0.0
 11
391.353306
 21
181.573335
 31
0.0
  0
LINE
  8
0
  6
CONTINUOUS
 62
     7
  5
DD
 10
367.353306
 20
181.573335
 30
0.0
 11
367.353306
 21
180.073335
 31
0.0
  0
ENDBLK
  8
0
  5
DE
  0
BLOCK
  8
0
  5
E1
  2
AID367
 70
     0
 10
0.0
 20
0.0
 30
0.0
  3
#auxiliary draft view
  0
LINE
  8
0
  6
CONTINUOUS
 62
     7
  5
E2
 10
122.99464
 20
245.538535
 30
0.0
 11
133.99464
 21
245.538535
 31
0.0
  0
LINE
  8
0
  6
CONTINUOUS
 62
     7
  5
E3
 10
122.99464
 20
321.538535
 30
0.0
 11
122.99464
 21
245.538535
 31
0.0
  0
LINE
  8
0
  6
CONTINUOUS
 62
     7
  5
E4
 10
122.99464
 20
321.538535
 30
0.0
 11
133.99464
 21
321.538535
 31
0.0
  0
LINE
  8
0
  6
CONTINUOUS
 62
     7
  5
E5
 10
133.99464
 20
321.538535
 30
0.0
 11
133.99464
 21
245.538535
 31
0.0
  0
LINE
  8
0
  6
CONTINUOUS
 62
     7
  5
E6
 10
291.49464
 20
303.538535
 30
0.0
 11
291.49464
 21
321.538535
 31
0.0
  0
LINE
  8
0
  6
CONTINUOUS
 62
     7
  5
E7
 10
289.99464
 20
303.538535
 30
0.0
 11
289.99464
 21
321.538535
 31
0.0
  0
LINE
  8
0
  6
CONTINUOUS
 62
     7
  5
E8
 10
291.99464
 20
321.038535
 30
0.0
 11
291.99464
 21
304.038535
 31
0.0
  0
LINE
  8
0
  6
CONTINUOUS
 62
     7
  5
E9
 10
297.99464
 20
307.538535
 30
0.0
 11
297.99464
 21
317.538535
 31
0.0
  0
LINE
  8
0
  6
CONTINUOUS
 62
     7
  5
EA
 10
291.99464
 20
263.038535
 30
0.0
 11
291.99464
 21
246.038535
 31
0.0
  0
LINE
  8
0
  6
CONTINUOUS
 62
     7
  5
EB
 10
291.49464
 20
245.538535
 30
0.0
 11
291.49464
 21
263.538535
 31
0.0
  0
LINE
  8
0
  6
CONTINUOUS
 62
     7
  5
EC
 10
289.99464
 20
245.538535
 30
0.0
 11
289.99464
 21
263.538535
 31
0.0
  0
LINE
  8
0
  6
CONTINUOUS
 62
     7
  5
ED
 10
136.19464
 20
278.288535
 30
0.0
 11
136.19464
 21
288.788535
 31
0.0
  0
LINE
  8
0
  6
CONTINUOUS
 62
     7
  5
EE
 10
297.99464
 20
249.538535
 30
0.0
 11
297.99464
 21
259.538535
 31
0.0
  0
CIRCLE
  8
0
  6
CONTINUOUS
 62
     7
  5
EF
 10
183.99464
 20
268.538535
 30
0.0
 40
2.51
210
0.0
220
0.0
230
1.0
  0
CIRCLE
  8
0
  6
CONTINUOUS
 62
     7
  5
F0
 10
183.99464
 20
298.538535
 30
0.0
 40
2.51
210
0.0
220
0.0
230
1.0
  0
CIRCLE
  8
0
  6
CONTINUOUS
 62
     7
  5
F1
 10
198.99464
 20
268.538535
 30
0.0
 40
3.0
210
0.0
220
0.0
230
1.0
  0
CIRCLE
  8
0
  6
CONTINUOUS
 62
     7
  5
F2
 10
168.99464
 20
268.538535
 30
0.0
 40
3.0
210
0.0
220
0.0
230
1.0
  0
CIRCLE
  8
0
  6
CONTINUOUS
 62
     7
  5
F3
 10
198.99464
 20
298.538535
 30
0.0
 40
3.0
210
0.0
220
0.0
230
1.0
  0
CIRCLE
  8
0
  6
CONTINUOUS
 62
     7
  5
F4
 10
168.99464
 20
298.538535
 30
0.0
 40
3.0
210
0.0
220
0.0
230
1.0
  0
LINE
  8
0
  6
CONTINUOUS
 62
     7
  5
F5
 10
228.99464
 20
324.538535
 30
0.0
 11
138.99464
 21
324.538535
 31
0.0
  0
LINE
  8
0
  6
CONTINUOUS
 62
     7
  5
F6
 10
228.99464
 20
242.538535
 30
0.0
 11
228.99464
 21
324.538535
 31
0.0
  0
LINE
  8
0
  6
CONTINUOUS
 62
     7
  5
F7
 10
138.99464
 20
242.538535
 30
0.0
 11
228.99464
 21
242.538535
 31
0.0
  0
LINE
  8
0
  6
CONTINUOUS
 62
     7
  5
F8
 10
138.99464
 20
324.538535
 30
0.0
 11
138.99464
 21
242.538535
 31
0.0
  0
CIRCLE
  8
0
  6
CONTINUOUS
 62
     7
  5
F9
 10
168.99464
 20
298.538535
 30
0.0
 40
2.459
210
0.0
220
0.0
230
1.0
  0
CIRCLE
  8
0
  6
CONTINUOUS
 62
     7
  5
FA
 10
198.99464
 20
298.538535
 30
0.0
 40
2.459
210
0.0
220
0.0
230
1.0
  0
CIRCLE
  8
0
  6
CONTINUOUS
 62
     7
  5
FB
 10
198.99464
 20
268.538535
 30
0.0
 40
2.459
210
0.0
220
0.0
230
1.0
  0
CIRCLE
  8
0
  6
CONTINUOUS
 62
     7
  5
FC
 10
168.99464
 20
268.538535
 30
0.0
 40
2.459
210
0.0
220
0.0
230
1.0
  0
LINE
  8
0
  6
CONTINUOUS
 62
     7
  5
FD
 10
291.49464
 20
321.538535
 30
0.0
 11
289.99464
 21
321.538535
 31
0.0
  0
LINE
  8
0
  6
CONTINUOUS
 62
     7
  5
FE
 10
289.99464
 20
303.538535
 30
0.0
 11
291.49464
 21
303.538535
 31
0.0
  0
LINE
  8
0
  6
CONTINUOUS
 62
     7
  5
FF
 10
291.49464
 20
303.538535
 30
0.0
 11
291.99464
 21
304.038535
 31
0.0
  0
LINE
  8
0
  6
CONTINUOUS
 62
     7
  5
100
 10
291.99464
 20
321.038535
 30
0.0
 11
291.49464
 21
321.538535
 31
0.0
  0
LINE
  8
0
  6
CONTINUOUS
 62
     7
  5
101
 10
289.99464
 20
318.538535
 30
0.0
 11
228.99464
 21
318.538535
 31
0.0
  0
LINE
  8
0
  6
CONTINUOUS
 62
     7
  5
102
 10
138.99464
 20
318.538535
 30
0.0
 11
133.99464
 21
318.538535
 31
0.0
  0
LINE
  8
0
  6
CONTINUOUS
 62
     7
  5
103
 10
133.99464
 20
306.538535
 30
0.0
 11
138.99464
 21
306.538535
 31
0.0
  0
LINE
  8
0
  6
CONTINUOUS
 62
     7
  5
104
 10
228.99464
 20
306.538535
 30
0.0
 11
289.99464
 21
306.538535
 31
0.0
  0
LINE
  8
0
  6
CONTINUOUS
 62
     7
  5
105
 10
291.99464
 20
307.538535
 30
0.0
 11
297.99464
 21
307.538535
 31
0.0
  0
LINE
  8
0
  6
CONTINUOUS
 62
     7
  5
106
 10
297.99464
 20
317.538535
 30
0.0
 11
291.99464
 21
317.538535
 31
0.0
  0
LINE
  8
0
  6
CONTINUOUS
 62
     7
  5
107
 10
291.49464
 20
245.538535
 30
0.0
 11
291.99464
 21
246.038535
 31
0.0
  0
LINE
  8
0
  6
CONTINUOUS
 62
     7
  5
108
 10
291.99464
 20
263.038535
 30
0.0
 11
291.49464
 21
263.538535
 31
0.0
  0
LINE
  8
0
  6
CONTINUOUS
 62
     7
  5
109
 10
291.49464
 20
263.538535
 30
0.0
 11
289.99464
 21
263.538535
 31
0.0
  0
LINE
  8
0
  6
CONTINUOUS
 62
     7
  5
10A
 10
289.99464
 20
245.538535
 30
0.0
 11
291.49464
 21
245.538535
 31
0.0
  0
LINE
  8
0
  6
CONTINUOUS
 62
     7
  5
10B
 10
136.19464
 20
288.788535
 30
0.0
 11
133.99464
 21
288.788535
 31
0.0
  0
LINE
  8
0
  6
CONTINUOUS
 62
     7
  5
10C
 10
133.99464
 20
278.288535
 30
0.0
 11
136.19464
 21
278.288535
 31
0.0
  0
LINE
  8
0
  6
CONTINUOUS
 62
     7
  5
10D
 10
289.99464
 20
260.538535
 30
0.0
 11
228.99464
 21
260.538535
 31
0.0
  0
LINE
  8
0
  6
CONTINUOUS
 62
     7
  5
10E
 10
138.99464
 20
260.538535
 30
0.0
 11
133.99464
 21
260.538535
 31
0.0
  0
LINE
  8
0
  6
CONTINUOUS
 62
     7
  5
10F
 10
133.99464
 20
248.538535
 30
0.0
 11
138.99464
 21
248.538535
 31
0.0
  0
LINE
  8
0
  6
CONTINUOUS
 62
     7
  5
110
 10
228.99464
 20
248.538535
 30
0.0
 11
289.99464
 21
248.538535
 31
0.0
  0
LINE
  8
0
  6
CONTINUOUS
 62
     7
  5
111
 10
138.99464
 20
286.038535
 30
0.0
 11
136.19464
 21
286.038535
 31
0.0
  0
LINE
  8
0
  6
CONTINUOUS
 62
     7
  5
112
 10
136.19464
 20
281.038535
 30
0.0
 11
138.99464
 21
281.038535
 31
0.0
  0
LINE
  8
0
  6
CONTINUOUS
 62
     7
  5
113
 10
291.99464
 20
249.538535
 30
0.0
 11
297.99464
 21
249.538535
 31
0.0
  0
LINE
  8
0
  6
CONTINUOUS
 62
     7
  5
114
 10
297.99464
 20
259.538535
 30
0.0
 11
291.99464
 21
259.538535
 31
0.0
  0
LINE
  8
0
  6
CONTINUOUS
 62
     7
  5
115
 10
138.99464
 20
300.038535
 30
0.0
 11
133.99464
 21
300.038535
 31
0.0
  0
LINE
  8
0
  6
CONTINUOUS
 62
     7
  5
116
 10
133.99464
 20
292.038535
 30
0.0
 11
138.99464
 21
292.038535
 31
0.0
  0
ENDBLK
  8
0
  5
117
  0
BLOCK
  8
0
  5
11A
  2
AID477
 70
     0
 10
0.0
 20
0.0
 30
0.0
  3
#auxiliary draft view
  0
LINE
  8
0
  6
CONTINUOUS
 62
     7
  5
11B
 10
133.99464
 20
82.129549
 30
0.0
 11
133.99464
 21
6.129549
 31
0.0
  0
LINE
  8
0
  6
CONTINUOUS
 62
     7
  5
11C
 10
122.99464
 20
82.129549
 30
0.0
 11
133.99464
 21
82.129549
 31
0.0
  0
LINE
  8
0
  6
CONTINUOUS
 62
     7
  5
11D
 10
122.99464
 20
82.129549
 30
0.0
 11
122.99464
 21
6.129549
 31
0.0
  0
LINE
  8
0
  6
CONTINUOUS
 62
     7
  5
11E
 10
122.99464
 20
6.129549
 30
0.0
 11
133.99464
 21
6.129549
 31
0.0
  0
LINE
  8
0
  6
CONTINUOUS
 62
     7
  5
11F
 10
291.49464
 20
64.129549
 30
0.0
 11
291.49464
 21
73.129549
 31
0.0
  0
LINE
  8
0
  6
CONTINUOUS
 62
     7
  5
120
 10
291.49464
 20
73.129549
 30
0.0
 11
291.49464
 21
82.129549
 31
0.0
  0
LINE
  8
0
  6
CONTINUOUS
 62
     7
  5
121
 10
289.99464
 20
64.129549
 30
0.0
 11
289.99464
 21
82.129549
 31
0.0
  0
LINE
  8
0
  6
CONTINUOUS
 62
     7
  5
122
 10
291.99464
 20
81.629549
 30
0.0
 11
291.99464
 21
73.129549
 31
0.0
  0
LINE
  8
0
  6
CONTINUOUS
 62
     7
  5
123
 10
291.99464
 20
73.129549
 30
0.0
 11
291.99464
 21
64.629549
 31
0.0
  0
LINE
  8
0
  6
CONTINUOUS
 62
     7
  5
124
 10
297.99464
 20
68.129549
 30
0.0
 11
297.99464
 21
78.129549
 31
0.0
  0
LINE
  8
0
  6
CONTINUOUS
 62
     7
  5
125
 10
291.49464
 20
6.129549
 30
0.0
 11
291.49464
 21
15.129549
 31
0.0
  0
LINE
  8
0
  6
CONTINUOUS
 62
     7
  5
126
 10
291.49464
 20
15.129549
 30
0.0
 11
291.49464
 21
24.129549
 31
0.0
  0
LINE
  8
0
  6
CONTINUOUS
 62
     7
  5
127
 10
289.99464
 20
6.129549
 30
0.0
 11
289.99464
 21
24.129549
 31
0.0
  0
LINE
  8
0
  6
CONTINUOUS
 62
     7
  5
128
 10
291.99464
 20
23.629549
 30
0.0
 11
291.99464
 21
15.129549
 31
0.0
  0
LINE
  8
0
  6
CONTINUOUS
 62
     7
  5
129
 10
291.99464
 20
15.129549
 30
0.0
 11
291.99464
 21
6.629549
 31
0.0
  0
LINE
  8
0
  6
CONTINUOUS
 62
     7
  5
12A
 10
136.19464
 20
38.879549
 30
0.0
 11
136.19464
 21
49.379549
 31
0.0
  0
LINE
  8
0
  6
CONTINUOUS
 62
     7
  5
12B
 10
297.99464
 20
10.129549
 30
0.0
 11
297.99464
 21
20.129549
 31
0.0
  0
CIRCLE
  8
0
  6
CONTINUOUS
 62
     7
  5
12C
 10
179.99464
 20
73.129549
 30
0.0
 40
12.0
210
0.0
220
0.0
230
1.0
  0
CIRCLE
  8
0
  6
CONTINUOUS
 62
     7
  5
12D
 10
190.99464
 20
28.129549
 30
0.0
 40
1.621
210
0.0
220
0.0
230
1.0
  0
CIRCLE
  8
0
  6
CONTINUOUS
 62
     7
  5
12E
 10
190.99464
 20
28.129549
 30
0.0
 40
2.0
210
0.0
220
0.0
230
1.0
  0
CIRCLE
  8
0
  6
CONTINUOUS
 62
     7
  5
12F
 10
190.99464
 20
60.129549
 30
0.0
 40
1.621
210
0.0
220
0.0
230
1.0
  0
CIRCLE
  8
0
  6
CONTINUOUS
 62
     7
  5
130
 10
190.99464
 20
60.129549
 30
0.0
 40
2.0
210
0.0
220
0.0
230
1.0
  0
ARC
  8
0
  6
CONTINUOUS
 62
     7
  5
131
 10
215.99464
 20
43.629549
 30
0.0
 40
5.0
 50
270.0
 51
360.0
210
0.0
220
0.0
230
1.0
  0
LINE
  8
0
  6
CONTINUOUS
 62
     7
  5
132
 10
220.99464
 20
44.629549
 30
0.0
 11
220.99464
 21
43.629549
 31
0.0
  0
ARC
  8
0
  6
CONTINUOUS
 62
     7
  5
133
 10
215.99464
 20
44.629549
 30
0.0
 40
5.0
 50
360.0
 51
90.0
210
0.0
220
0.0
230
1.0
  0
LINE
  8
0
  6
CONTINUOUS
 62
     7
  5
134
 10
151.99464
 20
49.629549
 30
0.0
 11
215.99464
 21
49.629549
 31
0.0
  0
ARC
  8
0
  6
CONTINUOUS
 62
     7
  5
135
 10
151.99464
 20
44.629549
 30
0.0
 40
5.0
 50
90.0
 51
180.0
210
0.0
220
0.0
230
1.0
  0
LINE
  8
0
  6
CONTINUOUS
 62
     7
  5
136
 10
146.99464
 20
43.629549
 30
0.0
 11
146.99464
 21
44.629549
 31
0.0
  0
ARC
  8
0
  6
CONTINUOUS
 62
     7
  5
137
 10
151.99464
 20
43.629549
 30
0.0
 40
5.0
 50
180.0
 51
270.0
210
0.0
220
0.0
230
1.0
  0
LINE
  8
0
  6
CONTINUOUS
 62
     7
  5
138
 10
215.99464
 20
38.629549
 30
0.0
 11
151.99464
 21
38.629549
 31
0.0
  0
CIRCLE
  8
0
  6
CONTINUOUS
 62
     7
  5
139
 10
198.99464
 20
59.129549
 30
0.0
 40
5.0
210
0.0
220
0.0
230
1.0
  0
CIRCLE
  8
0
  6
CONTINUOUS
 62
     7
  5
13A
 10
168.99464
 20
59.129549
 30
0.0
 40
5.0
210
0.0
220
0.0
230
1.0
  0
CIRCLE
  8
0
  6
CONTINUOUS
 62
     7
  5
13B
 10
198.99464
 20
29.129549
 30
0.0
 40
5.0
210
0.0
220
0.0
230
1.0
  0
CIRCLE
  8
0
  6
CONTINUOUS
 62
     7
  5
13C
 10
168.99464
 20
29.129549
 30
0.0
 40
5.0
210
0.0
220
0.0
230
1.0
  0
CIRCLE
  8
0
  6
CONTINUOUS
 62
     7
  5
13D
 10
222.99464
 20
60.129549
 30
0.0
 40
2.0
210
0.0
220
0.0
230
1.0
  0
CIRCLE
  8
0
  6
CONTINUOUS
 62
     7
  5
13E
 10
222.99464
 20
28.129549
 30
0.0
 40
2.0
210
0.0
220
0.0
230
1.0
  0
LINE
  8
0
  6
CONTINUOUS
 62
     7
  5
13F
 10
228.99464
 20
66.529549
 30
0.0
 11
228.99464
 21
21.729549
 31
0.0
  0
LINE
  8
0
  6
CONTINUOUS
 62
     7
  5
140
 10
228.99464
 20
21.729549
 30
0.0
 11
138.99464
 21
21.729549
 31
0.0
  0
LINE
  8
0
  6
CONTINUOUS
 62
     7
  5
141
 10
138.99464
 20
21.729549
 30
0.0
 11
138.99464
 21
66.529549
 31
0.0
  0
LINE
  8
0
  6
CONTINUOUS
 62
     7
  5
142
 10
169.972664
 20
66.529549
 30
0.0
 11
138.99464
 21
66.529549
 31
0.0
  0
LINE
  8
0
  6
CONTINUOUS
 62
     7
  5
143
 10
228.99464
 20
66.529549
 30
0.0
 11
190.016616
 21
66.529549
 31
0.0
  0
CIRCLE
  8
0
  6
CONTINUOUS
 62
     7
  5
144
 10
222.99464
 20
60.129549
 30
0.0
 40
1.621
210
0.0
220
0.0
230
1.0
  0
CIRCLE
  8
0
  6
CONTINUOUS
 62
     7
  5
145
 10
222.99464
 20
28.129549
 30
0.0
 40
1.621
210
0.0
220
0.0
230
1.0
  0
LINE
  8
0
  6
CONTINUOUS
 62
     7
  5
146
 10
138.99464
 20
75.629549
 30
0.0
 11
138.99464
 21
79.529549
 31
0.0
  0
LINE
  8
0
  6
CONTINUOUS
 62
     7
  5
147
 10
169.843778
 20
79.529549
 30
0.0
 11
138.99464
 21
79.529549
 31
0.0
  0
LINE
  8
0
  6
CONTINUOUS
 62
     7
  5
148
 10
168.257946
 20
75.629549
 30
0.0
 11
138.99464
 21
75.629549
 31
0.0
  0
LINE
  8
0
  6
CONTINUOUS
 62
     7
  5
149
 10
228.99464
 20
19.129549
 30
0.0
 11
228.99464
 21
15.229549
 31
0.0
  0
LINE
  8
0
  6
CONTINUOUS
 62
     7
  5
14A
 10
138.99464
 20
15.229549
 30
0.0
 11
138.99464
 21
19.129549
 31
0.0
  0
LINE
  8
0
  6
CONTINUOUS
 62
     7
  5
14B
 10
228.99464
 20
15.229549
 30
0.0
 11
138.99464
 21
15.229549
 31
0.0
  0
LINE
  8
0
  6
CONTINUOUS
 62
     7
  5
14C
 10
138.99464
 20
19.129549
 30
0.0
 11
228.99464
 21
19.129549
 31
0.0
  0
LINE
  8
0
  6
CONTINUOUS
 62
     7
  5
14D
 10
228.99464
 20
6.129549
 30
0.0
 11
228.99464
 21
4.129549
 31
0.0
  0
LINE
  8
0
  6
CONTINUOUS
 62
     7
  5
14E
 10
138.99464
 20
4.129549
 30
0.0
 11
228.99464
 21
4.129549
 31
0.0
  0
LINE
  8
0
  6
CONTINUOUS
 62
     7
  5
14F
 10
138.99464
 20
4.129549
 30
0.0
 11
138.99464
 21
6.129549
 31
0.0
  0
LINE
  8
0
  6
CONTINUOUS
 62
     7
  5
150
 10
138.99464
 20
6.129549
 30
0.0
 11
228.99464
 21
6.129549
 31
0.0
  0
LINE
  8
0
  6
CONTINUOUS
 62
     7
  5
151
 10
228.99464
 20
12.629549
 30
0.0
 11
228.99464
 21
8.729549
 31
0.0
  0
LINE
  8
0
  6
CONTINUOUS
 62
     7
  5
152
 10
138.99464
 20
8.729549
 30
0.0
 11
138.99464
 21
12.629549
 31
0.0
  0
LINE
  8
0
  6
CONTINUOUS
 62
     7
  5
153
 10
228.99464
 20
8.729549
 30
0.0
 11
138.99464
 21
8.729549
 31
0.0
  0
LINE
  8
0
  6
CONTINUOUS
 62
     7
  5
154
 10
138.99464
 20
12.629549
 30
0.0
 11
228.99464
 21
12.629549
 31
0.0
  0
LINE
  8
0
  6
CONTINUOUS
 62
     7
  5
155
 10
228.99464
 20
79.529549
 30
0.0
 11
228.99464
 21
75.629549
 31
0.0
  0
LINE
  8
0
  6
CONTINUOUS
 62
     7
  5
156
 10
228.99464
 20
75.629549
 30
0.0
 11
191.731335
 21
75.629549
 31
0.0
  0
LINE
  8
0
  6
CONTINUOUS
 62
     7
  5
157
 10
228.99464
 20
79.529549
 30
0.0
 11
190.145502
 21
79.529549
 31
0.0
  0
LINE
  8
0
  6
CONTINUOUS
 62
     7
  5
158
 10
138.99464
 20
85.129549
 30
0.0
 11
179.99464
 21
85.129549
 31
0.0
  0
LINE
  8
0
  6
CONTINUOUS
 62
     7
  5
159
 10
179.99464
 20
85.129549
 30
0.0
 11
228.99464
 21
85.129549
 31
0.0
  0
LINE
  8
0
  6
CONTINUOUS
 62
     7
  5
15A
 10
228.99464
 20
84.129549
 30
0.0
 11
184.790472
 21
84.129549
 31
0.0
  0
LINE
  8
0
  6
CONTINUOUS
 62
     7
  5
15B
 10
175.198809
 20
84.129549
 30
0.0
 11
138.99464
 21
84.129549
 31
0.0
  0
LINE
  8
0
  6
CONTINUOUS
 62
     7
  5
15C
 10
138.99464
 20
84.129549
 30
0.0
 11
138.99464
 21
85.129549
 31
0.0
  0
LINE
  8
0
  6
CONTINUOUS
 62
     7
  5
15D
 10
228.99464
 20
85.129549
 30
0.0
 11
228.99464
 21
84.129549
 31
0.0
  0
LINE
  8
0
  6
CONTINUOUS
 62
     7
  5
15E
 10
138.99464
 20
82.129549
 30
0.0
 11
138.99464
 21
84.129549
 31
0.0
  0
LINE
  8
0
  6
CONTINUOUS
 62
     7
  5
15F
 10
138.99464
 20
82.129549
 30
0.0
 11
172.057386
 21
82.129549
 31
0.0
  0
LINE
  8
0
  6
CONTINUOUS
 62
     7
  5
160
 10
167.995057
 20
73.029549
 30
0.0
 11
138.99464
 21
73.029549
 31
0.0
  0
LINE
  8
0
  6
CONTINUOUS
 62
     7
  5
161
 10
168.680932
 20
69.129549
 30
0.0
 11
138.99464
 21
69.129549
 31
0.0
  0
LINE
  8
0
  6
CONTINUOUS
 62
     7
  5
162
 10
138.99464
 20
69.129549
 30
0.0
 11
138.99464
 21
73.029549
 31
0.0
  0
LINE
  8
0
  6
CONTINUOUS
 62
     7
  5
163
 10
187.931894
 20
82.129549
 30
0.0
 11
228.99464
 21
82.129549
 31
0.0
  0
LINE
  8
0
  6
CONTINUOUS
 62
     7
  5
164
 10
228.99464
 20
84.129549
 30
0.0
 11
228.99464
 21
82.129549
 31
0.0
  0
LINE
  8
0
  6
CONTINUOUS
 62
     7
  5
165
 10
228.99464
 20
73.029549
 30
0.0
 11
191.994223
 21
73.029549
 31
0.0
  0
LINE
  8
0
  6
CONTINUOUS
 62
     7
  5
166
 10
228.99464
 20
69.129549
 30
0.0
 11
191.308349
 21
69.129549
 31
0.0
  0
LINE
  8
0
  6
CONTINUOUS
 62
     7
  5
167
 10
228.99464
 20
73.029549
 30
0.0
 11
228.99464
 21
69.129549
 31
0.0
  0
LINE
  8
0
  6
CONTINUOUS
 62
     7
  5
168
 10
228.99464
 20
3.129549
 30
0.0
 11
138.99464
 21
3.129549
 31
0.0
  0
LINE
  8
0
  6
CONTINUOUS
 62
     7
  5
169
 10
138.99464
 20
3.129549
 30
0.0
 11
138.99464
 21
4.129549
 31
0.0
  0
LINE
  8
0
  6
CONTINUOUS
 62
     7
  5
16A
 10
228.99464
 20
4.129549
 30
0.0
 11
228.99464
 21
3.129549
 31
0.0
  0
LINE
  8
0
  6
CONTINUOUS
 62
     7
  5
16B
 10
138.99464
 20
75.629549
 30
0.0
 11
138.99464
 21
73.029549
 31
0.0
  0
LINE
  8
0
  6
CONTINUOUS
 62
     7
  5
16C
 10
228.99464
 20
73.029549
 30
0.0
 11
228.99464
 21
75.629549
 31
0.0
  0
LINE
  8
0
  6
CONTINUOUS
 62
     7
  5
16D
 10
228.99464
 20
66.529549
 30
0.0
 11
228.99464
 21
69.129549
 31
0.0
  0
LINE
  8
0
  6
CONTINUOUS
 62
     7
  5
16E
 10
138.99464
 20
69.129549
 30
0.0
 11
138.99464
 21
66.529549
 31
0.0
  0
LINE
  8
0
  6
CONTINUOUS
 62
     7
  5
16F
 10
138.99464
 20
82.129549
 30
0.0
 11
138.99464
 21
79.529549
 31
0.0
  0
LINE
  8
0
  6
CONTINUOUS
 62
     7
  5
170
 10
228.99464
 20
79.529549
 30
0.0
 11
228.99464
 21
82.129549
 31
0.0
  0
CIRCLE
  8
0
  6
CONTINUOUS
 62
     7
  5
171
 10
198.99464
 20
29.129549
 30
0.0
 40
2.6
210
0.0
220
0.0
230
1.0
  0
CIRCLE
  8
0
  6
CONTINUOUS
 62
     7
  5
172
 10
168.99464
 20
59.129549
 30
0.0
 40
2.6
210
0.0
220
0.0
230
1.0
  0
CIRCLE
  8
0
  6
CONTINUOUS
 62
     7
  5
173
 10
198.99464
 20
59.129549
 30
0.0
 40
2.6
210
0.0
220
0.0
230
1.0
  0
CIRCLE
  8
0
  6
CONTINUOUS
 62
     7
  5
174
 10
168.99464
 20
29.129549
 30
0.0
 40
2.6
210
0.0
220
0.0
230
1.0
  0
LINE
  8
0
  6
CONTINUOUS
 62
     7
  5
175
 10
138.99464
 20
12.629549
 30
0.0
 11
138.99464
 21
15.229549
 31
0.0
  0
LINE
  8
0
  6
CONTINUOUS
 62
     7
  5
176
 10
228.99464
 20
15.229549
 30
0.0
 11
228.99464
 21
12.629549
 31
0.0
  0
LINE
  8
0
  6
CONTINUOUS
 62
     7
  5
177
 10
138.99464
 20
19.129549
 30
0.0
 11
138.99464
 21
21.729549
 31
0.0
  0
LINE
  8
0
  6
CONTINUOUS
 62
     7
  5
178
 10
228.99464
 20
21.729549
 30
0.0
 11
228.99464
 21
19.129549
 31
0.0
  0
LINE
  8
0
  6
CONTINUOUS
 62
     7
  5
179
 10
138.99464
 20
6.129549
 30
0.0
 11
138.99464
 21
8.729549
 31
0.0
  0
LINE
  8
0
  6
CONTINUOUS
 62
     7
  5
17A
 10
228.99464
 20
8.729549
 30
0.0
 11
228.99464
 21
6.129549
 31
0.0
  0
LINE
  8
0
  6
CONTINUOUS
 62
     7
  5
17B
 10
149.99464
 20
49.212125
 30
0.0
 11
149.99464
 21
39.046973
 31
0.0
  0
CIRCLE
  8
0
  6
CONTINUOUS
 62
     7
  5
17C
 10
168.99464
 20
59.129549
 30
0.0
 40
2.459
210
0.0
220
0.0
230
1.0
  0
CIRCLE
  8
0
  6
CONTINUOUS
 62
     7
  5
17D
 10
198.99464
 20
29.129549
 30
0.0
 40
2.459
210
0.0
220
0.0
230
1.0
  0
CIRCLE
  8
0
  6
CONTINUOUS
 62
     7
  5
17E
 10
168.99464
 20
29.129549
 30
0.0
 40
2.459
210
0.0
220
0.0
230
1.0
  0
CIRCLE
  8
0
  6
CONTINUOUS
 62
     7
  5
17F
 10
198.99464
 20
59.129549
 30
0.0
 40
2.459
210
0.0
220
0.0
230
1.0
  0
LINE
  8
0
  6
CONTINUOUS
 62
     7
  5
180
 10
291.49464
 20
82.129549
 30
0.0
 11
289.99464
 21
82.129549
 31
0.0
  0
LINE
  8
0
  6
CONTINUOUS
 62
     7
  5
181
 10
289.99464
 20
64.129549
 30
0.0
 11
291.49464
 21
64.129549
 31
0.0
  0
LINE
  8
0
  6
CONTINUOUS
 62
     7
  5
182
 10
291.49464
 20
64.129549
 30
0.0
 11
291.99464
 21
64.629549
 31
0.0
  0
LINE
  8
0
  6
CONTINUOUS
 62
     7
  5
183
 10
291.99464
 20
81.629549
 30
0.0
 11
291.49464
 21
82.129549
 31
0.0
  0
LINE
  8
0
  6
CONTINUOUS
 62
     7
  5
184
 10
138.99464
 20
35.629549
 30
0.0
 11
133.99464
 21
35.629549
 31
0.0
  0
LINE
  8
0
  6
CONTINUOUS
 62
     7
  5
185
 10
133.99464
 20
27.629549
 30
0.0
 11
138.99464
 21
27.629549
 31
0.0
  0
LINE
  8
0
  6
CONTINUOUS
 62
     7
  5
186
 10
289.99464
 20
79.129549
 30
0.0
 11
228.99464
 21
79.129549
 31
0.0
  0
LINE
  8
0
  6
CONTINUOUS
 62
     7
  5
187
 10
138.99464
 20
79.129549
 30
0.0
 11
133.99464
 21
79.129549
 31
0.0
  0
LINE
  8
0
  6
CONTINUOUS
 62
     7
  5
188
 10
133.99464
 20
67.129549
 30
0.0
 11
138.99464
 21
67.129549
 31
0.0
  0
LINE
  8
0
  6
CONTINUOUS
 62
     7
  5
189
 10
228.99464
 20
67.129549
 30
0.0
 11
289.99464
 21
67.129549
 31
0.0
  0
LINE
  8
0
  6
CONTINUOUS
 62
     7
  5
18A
 10
291.99464
 20
68.129549
 30
0.0
 11
297.99464
 21
68.129549
 31
0.0
  0
LINE
  8
0
  6
CONTINUOUS
 62
     7
  5
18B
 10
297.99464
 20
78.129549
 30
0.0
 11
291.99464
 21
78.129549
 31
0.0
  0
LINE
  8
0
  6
CONTINUOUS
 62
     7
  5
18C
 10
291.49464
 20
24.129549
 30
0.0
 11
289.99464
 21
24.129549
 31
0.0
  0
LINE
  8
0
  6
CONTINUOUS
 62
     7
  5
18D
 10
289.99464
 20
6.129549
 30
0.0
 11
291.49464
 21
6.129549
 31
0.0
  0
LINE
  8
0
  6
CONTINUOUS
 62
     7
  5
18E
 10
291.49464
 20
6.129549
 30
0.0
 11
291.99464
 21
6.629549
 31
0.0
  0
LINE
  8
0
  6
CONTINUOUS
 62
     7
  5
18F
 10
291.99464
 20
23.629549
 30
0.0
 11
291.49464
 21
24.129549
 31
0.0
  0
LINE
  8
0
  6
CONTINUOUS
 62
     7
  5
190
 10
136.19464
 20
49.379549
 30
0.0
 11
133.99464
 21
49.379549
 31
0.0
  0
LINE
  8
0
  6
CONTINUOUS
 62
     7
  5
191
 10
133.99464
 20
38.879549
 30
0.0
 11
136.19464
 21
38.879549
 31
0.0
  0
LINE
  8
0
  6
CONTINUOUS
 62
     7
  5
192
 10
289.99464
 20
21.129549
 30
0.0
 11
228.99464
 21
21.129549
 31
0.0
  0
LINE
  8
0
  6
CONTINUOUS
 62
     7
  5
193
 10
138.99464
 20
21.129549
 30
0.0
 11
133.99464
 21
21.129549
 31
0.0
  0
LINE
  8
0
  6
CONTINUOUS
 62
     7
  5
194
 10
133.99464
 20
9.129549
 30
0.0
 11
138.99464
 21
9.129549
 31
0.0
  0
LINE
  8
0
  6
CONTINUOUS
 62
     7
  5
195
 10
228.99464
 20
9.129549
 30
0.0
 11
289.99464
 21
9.129549
 31
0.0
  0
LINE
  8
0
  6
CONTINUOUS
 62
     7
  5
196
 10
138.99464
 20
46.629549
 30
0.0
 11
136.19464
 21
46.629549
 31
0.0
  0
LINE
  8
0
  6
CONTINUOUS
 62
     7
  5
197
 10
136.19464
 20
41.629549
 30
0.0
 11
138.99464
 21
41.629549
 31
0.0
  0
LINE
  8
0
  6
CONTINUOUS
 62
     7
  5
198
 10
291.99464
 20
10.129549
 30
0.0
 11
297.99464
 21
10.129549
 31
0.0
  0
LINE
  8
0
  6
CONTINUOUS
 62
     7
  5
199
 10
297.99464
 20
20.129549
 30
0.0
 11
291.99464
 21
20.129549
 31
0.0
  0
ENDBLK
  8
0
  5
19A
  0
ENDSEC
  0
SECTION
  2
ENTITIES
  0
INSERT
  8
0
  5
4D
  2
AID3
 10
0.0
 20
0.0
 30
0.0
  0
INSERT
  8
0
  5
A4
  2
AID83
 10
0.0
 20
0.0
 30
0.0
  0
INSERT
  8
0
  5
DF
  2
AID253
 10
0.0
 20
0.0
 30
0.0
  0
INSERT
  8
0
  5
118
  2
AID367
 10
0.0
 20
0.0
 30
0.0
  0
INSERT
  8
0
  5
19B
  2
AID477
 10
0.0
 20
0.0
 30
0.0
  0
TEXT
  8
0
 62
     7
  5
19C
 10
-10.960386
 20
94.823335
 30
0.0
 40
4.5
  1
Représenté course 60 mm
210
0.0
220
0.0
230
1.0
  0
LINE
  8
0
  6
CENTER
 62
     1
  5
19E
 10
6.539614
 20
183.073335
 30
0.0
 11
6.539614
 21
172.073335
 31
0.0
  0
LINE
  8
0
  6
CENTER
 62
     1
  5
19F
 10
37.539614
 20
176.694335
 30
0.0
 11
37.539614
 21
183.073335
 31
0.0
  0
LINE
  8
0
  6
CENTER
 62
     1
  5
1A0
 10
-19.460386
 20
161.073335
 30
0.0
 11
4.539614
 21
161.073335
 31
0.0
  0
LINE
  8
0
  6
CENTER
 62
     1
  5
1A1
 10
-7.460386
 20
149.073335
 30
0.0
 11
-7.460386
 21
173.073335
 31
0.0
  0
LINE
  8
0
  6
CENTER
 62
     1
  5
1A2
 10
7.039614
 20
164.073335
 30
0.0
 11
36.039614
 21
164.073335
 31
0.0
  0
LINE
  8
0
  6
CENTER
 62
     1
  5
1A3
 10
21.539614
 20
149.573335
 30
0.0
 11
21.539614
 21
178.573335
 31
0.0
  0
LINE
  8
0
  6
CENTER
 62
     1
  5
1A4
 10
38.539614
 20
167.073335
 30
0.0
 11
62.539614
 21
167.073335
 31
0.0
  0
LINE
  8
0
  6
CENTER
 62
     1
  5
1A5
 10
6.539614
 20
145.073335
 30
0.0
 11
6.539614
 21
164.991929
 31
0.0
  0
LINE
  8
0
  6
CENTER
 62
     1
  5
1A6
 10
36.539614
 20
183.073335
 30
0.0
 11
36.539614
 21
145.073335
 31
0.0
  0
LINE
  8
0
  6
CENTER
 62
     1
  5
1A7
 10
50.539614
 20
184.573335
 30
0.0
 11
50.539614
 21
155.073335
 31
0.0
  0
LINE
  8
0
  6
CENTER
 62
     1
  5
1A8
 10
162.99464
 20
268.538535
 30
0.0
 11
174.99464
 21
268.538535
 31
0.0
  0
LINE
  8
0
  6
CENTER
 62
     1
  5
1A9
 10
168.99464
 20
262.538535
 30
0.0
 11
168.99464
 21
274.538535
 31
0.0
  0
LINE
  8
0
  6
CENTER
 62
     1
  5
1AA
 10
162.99464
 20
298.538535
 30
0.0
 11
174.99464
 21
298.538535
 31
0.0
  0
LINE
  8
0
  6
CENTER
 62
     1
  5
1AB
 10
168.99464
 20
292.538535
 30
0.0
 11
168.99464
 21
304.538535
 31
0.0
  0
LINE
  8
0
  6
CENTER
 62
     1
  5
1AC
 10
178.48464
 20
268.538535
 30
0.0
 11
189.50464
 21
268.538535
 31
0.0
  0
LINE
  8
0
  6
CENTER
 62
     1
  5
1AD
 10
183.99464
 20
263.028535
 30
0.0
 11
183.99464
 21
274.048535
 31
0.0
  0
LINE
  8
0
  6
CENTER
 62
     1
  5
1AE
 10
178.48464
 20
298.538535
 30
0.0
 11
189.50464
 21
298.538535
 31
0.0
  0
LINE
  8
0
  6
CENTER
 62
     1
  5
1AF
 10
183.99464
 20
293.028535
 30
0.0
 11
183.99464
 21
304.048535
 31
0.0
  0
LINE
  8
0
  6
CENTER
 62
     1
  5
1B0
 10
192.99464
 20
268.538535
 30
0.0
 11
204.99464
 21
268.538535
 31
0.0
  0
LINE
  8
0
  6
CENTER
 62
     1
  5
1B1
 10
198.99464
 20
262.538535
 30
0.0
 11
198.99464
 21
274.538535
 31
0.0
  0
LINE
  8
0
  6
CENTER
 62
     1
  5
1B2
 10
192.99464
 20
298.538535
 30
0.0
 11
204.99464
 21
298.538535
 31
0.0
  0
LINE
  8
0
  6
CENTER
 62
     1
  5
1B3
 10
198.99464
 20
292.538535
 30
0.0
 11
198.99464
 21
304.538535
 31
0.0
  0
LINE
  8
0
  6
CENTER
 62
     1
  5
1B4
 10
129.99464
 20
283.538535
 30
0.0
 11
149.09464
 21
283.538535
 31
0.0
  0
LINE
  8
0
  6
CENTER
 62
     1
  5
1B5
 10
160.99464
 20
29.129549
 30
0.0
 11
176.99464
 21
29.129549
 31
0.0
  0
LINE
  8
0
  6
CENTER
 62
     1
  5
1B6
 10
168.99464
 20
21.129549
 30
0.0
 11
168.99464
 21
37.129549
 31
0.0
  0
LINE
  8
0
  6
CENTER
 62
     1
  5
1B7
 10
160.99464
 20
59.129549
 30
0.0
 11
176.99464
 21
59.129549
 31
0.0
  0
LINE
  8
0
  6
CENTER
 62
     1
  5
1B8
 10
168.99464
 20
51.129549
 30
0.0
 11
168.99464
 21
67.129549
 31
0.0
  0
LINE
  8
0
  6
CENTER
 62
     1
  5
1B9
 10
179.99464
 20
58.129549
 30
0.0
 11
179.99464
 21
88.129549
 31
0.0
  0
LINE
  8
0
  6
CENTER
 62
     1
  5
1BA
 10
185.99464
 20
28.129549
 30
0.0
 11
195.99464
 21
28.129549
 31
0.0
  0
LINE
  8
0
  6
CENTER
 62
     1
  5
1BB
 10
190.99464
 20
23.129549
 30
0.0
 11
190.99464
 21
33.129549
 31
0.0
  0
LINE
  8
0
  6
CENTER
 62
     1
  5
1BC
 10
185.99464
 20
60.129549
 30
0.0
 11
195.99464
 21
60.129549
 31
0.0
  0
LINE
  8
0
  6
CENTER
 62
     1
  5
1BD
 10
190.99464
 20
55.129549
 30
0.0
 11
190.99464
 21
65.129549
 31
0.0
  0
LINE
  8
0
  6
CENTER
 62
     1
  5
1BE
 10
190.99464
 20
29.129549
 30
0.0
 11
206.99464
 21
29.129549
 31
0.0
  0
LINE
  8
0
  6
CENTER
 62
     1
  5
1BF
 10
198.99464
 20
21.129549
 30
0.0
 11
198.99464
 21
37.129549
 31
0.0
  0
LINE
  8
0
  6
CENTER
 62
     1
  5
1C0
 10
190.99464
 20
59.129549
 30
0.0
 11
206.99464
 21
59.129549
 31
0.0
  0
LINE
  8
0
  6
CENTER
 62
     1
  5
1C1
 10
198.99464
 20
51.129549
 30
0.0
 11
198.99464
 21
67.129549
 31
0.0
  0
LINE
  8
0
  6
CENTER
 62
     1
  5
1C2
 10
217.99464
 20
28.129549
 30
0.0
 11
227.99464
 21
28.129549
 31
0.0
  0
LINE
  8
0
  6
CENTER
 62
     1
  5
1C3
 10
222.99464
 20
23.129549
 30
0.0
 11
222.99464
 21
33.129549
 31
0.0
  0
LINE
  8
0
  6
CENTER
 62
     1
  5
1C4
 10
217.99464
 20
60.129549
 30
0.0
 11
227.99464
 21
60.129549
 31
0.0
  0
LINE
  8
0
  6
CENTER
 62
     1
  5
1C5
 10
222.99464
 20
55.129549
 30
0.0
 11
222.99464
 21
65.129549
 31
0.0
  0
LINE
  8
0
  6
CENTER
 62
     1
  5
1C6
 10
129.99464
 20
44.129549
 30
0.0
 11
149.09464
 21
44.129549
 31
0.0
  0
LINE
  8
0
  6
CENTER
 62
     1
  5
1C7
 10
130.99464
 20
73.129549
 30
0.0
 11
300.99464
 21
73.129549
 31
0.0
  0
LINE
  8
0
  6
CENTER
 62
     1
  5
1C8
 10
382.853306
 20
154.073335
 30
0.0
 11
393.853306
 21
154.073335
 31
0.0
  0
LINE
  8
0
  6
CENTER
 62
     1
  5
1C9
 10
388.353306
 20
148.573335
 30
0.0
 11
388.353306
 21
159.573335
 31
0.0
  0
LINE
  8
0
  6
CENTER
 62
     1
  5
1CA
 10
382.853306
 20
174.073335
 30
0.0
 11
393.853306
 21
174.073335
 31
0.0
  0
LINE
  8
0
  6
CENTER
 62
     1
  5
1CB
 10
388.353306
 20
168.573335
 30
0.0
 11
388.353306
 21
179.573335
 31
0.0
  0
LINE
  8
0
  6
CENTER
 62
     1
  5
1CC
 10
392.353306
 20
159.063335
 30
0.0
 11
392.353306
 21
169.083335
 31
0.0
  0
LINE
  8
0
  6
CENTER
 62
     1
  5
1CD
 10
408.353306
 20
155.073335
 30
0.0
 11
408.353306
 21
173.073335
 31
0.0
  0
LINE
  8
0
  6
CENTER
 62
     1
  5
1CE
 10
422.853306
 20
154.073335
 30
0.0
 11
433.853306
 21
154.073335
 31
0.0
  0
LINE
  8
0
  6
CENTER
 62
     1
  5
1CF
 10
428.353306
 20
148.573335
 30
0.0
 11
428.353306
 21
159.573335
 31
0.0
  0
LINE
  8
0
  6
CENTER
 62
     1
  5
1D0
 10
422.853306
 20
174.073335
 30
0.0
 11
433.853306
 21
174.073335
 31
0.0
  0
LINE
  8
0
  6
CENTER
 62
     1
  5
1D1
 10
428.353306
 20
168.573335
 30
0.0
 11
428.353306
 21
179.573335
 31
0.0
  0
LINE
  8
0
  6
CENTER
 62
     1
  5
1D2
 10
424.353306
 20
159.063335
 30
0.0
 11
424.353306
 21
172.50922
 31
0.0
  0
LINE
  8
0
  6
CENTER
 62
     1
  5
1D3
 10
387.343306
 20
164.073335
 30
0.0
 11
429.363306
 21
164.073335
 31
0.0
  0
LINE
  8
0
  6
CENTER
 62
     1
  5
1D4
 10
225.99464
 20
15.129549
 30
0.0
 11
300.99464
 21
15.129549
 31
0.0
  0
LINE
  8
0
  6
CENTER
 62
     1
  5
1D5
 10
119.99464
 20
164.073335
 30
0.0
 11
136.99464
 21
164.073335
 31
0.0
  0
LINE
  8
0
  6
CENTER
 62
     1
  5
1D6
 10
183.99464
 20
182.073335
 30
0.0
 11
183.99464
 21
145.073335
 31
0.0
  0
LINE
  8
0
  6
CENTER
 62
     1
  5
1D7
 10
300.99464
 20
312.538535
 30
0.0
 11
225.99464
 21
312.538535
 31
0.0
  0
LINE
  8
0
  6
CENTER
 62
     1
  5
1D8
 10
300.99464
 20
254.538535
 30
0.0
 11
225.99464
 21
254.538535
 31
0.0
  0
LINE
  8
0
  6
CENTER
 62
     1
  5
1D9
 10
141.99464
 20
312.538535
 30
0.0
 11
130.99464
 21
312.538535
 31
0.0
  0
LINE
  8
0
  6
CENTER
 62
     1
  5
1DA
 10
141.99464
 20
254.538535
 30
0.0
 11
130.99464
 21
254.538535
 31
0.0
  0
TEXT
  8
0
 62
     7
  5
1DB
 10
-10.960386
 20
82.323335
 30
0.0
 40
4.5
  1
Represented stroke 60 mm
210
0.0
220
0.0
230
1.0
  0
TEXT
  8
0
 62
     7
  5
1DC
 10
-10.960386
 20
69.823335
 30
0.0
 40
4.5
  1
In Hub 60 mm vorgestellt
210
0.0
220
0.0
230
1.0
  0
ENDSEC
  0
EOF
