  0
SECTION
  2
HEADER
  9
$ACADVER
  1
AC1009
  9
$DWGCODEPAGE
  3
ansi_1252
  9
$INSBASE
 10
0.0
 20
0.0
 30
0.0
  9
$EXTMIN
 10
-107.365753
 20
-39.559958
 30
0.0
  9
$EXTMAX
 10
559.329203
 20
346.452882
 30
5.0
  9
$LIMMIN
 10
-107.365753
 20
-39.559958
  9
$LIMMAX
 10
559.329203
 20
346.452882
  9
$ORTHOMODE
 70
     0
  9
$REGENMODE
 70
     1
  9
$FILLMODE
 70
     1
  9
$QTEXTMODE
 70
     0
  9
$MIRRTEXT
 70
     1
  9
$DRAGMODE
 70
     2
  9
$LTSCALE
 40
10.0
  9
$OSMODE
 70
     0
  9
$ATTMODE
 70
     1
  9
$TEXTSIZE
 40
0.2
  9
$TRACEWID
 40
0.05
  9
$TEXTSTYLE
  7
STANDARD
  9
$CLAYER
  8
0
  9
$CELTYPE
  6
CONTINUOUS
  9
$CECOLOR
 62
   256
  9
$DIMSCALE
 40
1.0
  9
$DIMASZ
 40
1.25
  9
$DIMEXO
 40
1.0
  9
$DIMDLI
 40
0.38
  9
$DIMRND
 40
0.0
  9
$DIMDLE
 40
0.0
  9
$DIMEXE
 40
0.75
  9
$DIMTP
 40
0.0
  9
$DIMTM
 40
0.0
  9
$DIMTXT
 40
2.5
  9
$DIMCEN
 40
0.09
  9
$DIMTSZ
 40
0.0
  9
$DIMTOL
 70
     0
  9
$DIMLIM
 70
     0
  9
$DIMTIH
 70
     0
  9
$DIMTOH
 70
     0
  9
$DIMSE1
 70
     0
  9
$DIMSE2
 70
     0
  9
$DIMTAD
 70
     1
  9
$DIMZIN
 70
     0
  9
$DIMBLK
  1

  9
$DIMASO
 70
     1
  9
$DIMSHO
 70
     1
  9
$DIMPOST
  1

  9
$DIMAPOST
  1

  9
$DIMALT
 70
     0
  9
$DIMALTD
 70
     2
  9
$DIMALTF
 40
25.4
  9
$DIMLFAC
 40
1.0
  9
$DIMTOFL
 70
     0
  9
$DIMTVP
 40
0.0
  9
$DIMTIX
 70
     0
  9
$DIMSOXD
 70
     0
  9
$DIMSAH
 70
     0
  9
$DIMBLK1
  1

  9
$DIMBLK2
  1

  9
$DIMSTYLE
  2
STANDARD
  9
$DIMCLRD
 70
     7
  9
$DIMCLRE
 70
     7
  9
$DIMCLRT
 70
     7
  9
$DIMTFAC
 40
0.8
  9
$DIMGAP
 40
1.25
  9
$LUNITS
 70
     2
  9
$LUPREC
 70
     4
  9
$AXISMODE
 70
     0
  9
$AXISUNIT
 10
0.0
 20
0.0
  9
$SKETCHINC
 40
0.1
  9
$FILLETRAD
 40
0.0
  9
$AUNITS
 70
     0
  9
$AUPREC
 70
     0
  9
$MENU
  1
acad
  9
$ELEVATION
 40
0.0
  9
$PELEVATION
 40
0.0
  9
$THICKNESS
 40
0.0
  9
$LIMCHECK
 70
     0
  9
$BLIPMODE
 70
     1
  9
$CHAMFERA
 40
0.0
  9
$CHAMFERB
 40
0.0
  9
$SKPOLY
 70
     0
  9
$TDCREATE
 40
2454335.363935185
  9
$TDUPDATE
 40
2454335.279409722
  9
$TDINDWG
 40
0.0000000000
  9
$TDUSRTIMER
 40
0.0000000000
  9
$USRTIMER
 70
     1
  9
$ANGBASE
 50
0.0
  9
$ANGDIR
 70
     0
  9
$PDMODE
 70
     0
  9
$PDSIZE
 40
0.0
  9
$PLINEWID
 40
0.0
  9
$COORDS
 70
     0
  9
$SPLFRAME
 70
     0
  9
$SPLINETYPE
 70
     6
  9
$SPLINESEGS
 70
     8
  9
$ATTDIA
 70
     0
  9
$ATTREQ
 70
     1
  9
$HANDLING
 70
     1
  9
$HANDSEED
  5
1EC
  9
$SURFTAB1
 70
     6
  9
$SURFTAB2
 70
     6
  9
$SURFTYPE
 70
     6
  9
$SURFU
 70
     6
  9
$SURFV
 70
     6
  9
$UCSNAME
  2

  9
$UCSORG
 10
0.0
 20
0.0
 30
0.0
  9
$UCSXDIR
 10
1.0
 20
0.0
 30
0.0
  9
$UCSYDIR
 10
0.0
 20
1.0
 30
0.0
  9
$PUCSNAME
  2

  9
$PUCSORG
 10
0.0
 20
0.0
 30
0.0
  9
$PUCSXDIR
 10
1.0
 20
0.0
 30
0.0
  9
$PUCSYDIR
 10
0.0
 20
1.0
 30
0.0
  9
$USERI1
 70
     0
  9
$USERI2
 70
     0
  9
$USERI3
 70
     0
  9
$USERI4
 70
     0
  9
$USERI5
 70
     0
  9
$USERR1
 40
0.0
  9
$USERR2
 40
0.0
  9
$USERR3
 40
0.0
  9
$USERR4
 40
0.0
  9
$USERR5
 40
0.0
  9
$WORLDVIEW
 70
     1
  9
$SHADEDGE
 70
     3
  9
$SHADEDIF
 70
    70
  9
$TILEMODE
 70
     1
  9
$MAXACTVP
 70
    16
  9
$PINSBASE
 10
0.0
 20
0.0
 30
0.0
  9
$PLIMCHECK
 70
     0
  9
$PEXTMIN
 10
1.000000E+20
 20
1.000000E+20
 30
1.000000E+20
  9
$PEXTMAX
 10
-1.000000E+20
 20
-1.000000E+20
 30
-1.000000E+20
  9
$PLIMMIN
 10
0.0
 20
0.0
  9
$PLIMMAX
 10
12.0
 20
9.0
  9
$UNITMODE
 70
     0
  9
$VISRETAIN
 70
     0
  9
$PLINEGEN
 70
     1
  9
$PSLTSCALE
 70
     0
  9
$TREEDEPTH
 70
  3020
  0
ENDSEC
  0
SECTION
  2
TABLES
  0
TABLE
  2
VPORT
 70
     1
  0
VPORT
  2
*ACTIVE
 70
     0
 10
0.0
 20
0.0
 11
1.0
 21
1.0
 12
6.591288
 22
4.579184
 13
0.0
 23
0.0
 14
1.0
 24
1.0
 15
0.0
 25
0.0
 16
0.0
 26
0.0
 36
1.0
 17
0.0
 27
0.0
 37
0.0
 40
9.158369
 41
0.688564
 42
50.0
 43
0.0
 44
0.0
 50
0.0
 51
0.0
 71
     0
 72
   100
 73
     1
 74
     1
 75
     0
 76
     0
 77
     0
 78
     0
  0
ENDTAB
  0
TABLE
  2
LTYPE
 70
     2
  0
LTYPE
  2
CONTINUOUS
 70
    64
  3
Solid line
 72
    65
 73
     0
 40
0.0
  0
LTYPE
  2
CENTER
 70
    64
  3
____ _ ____ _ ____ _ ____ _ ____ _ ____ _ ____
 72
    65
 73
     4
 40
2.0
 49
1.25
 49
-0.25
 49
0.25
 49
-0.25
  0
ENDTAB
  0
TABLE
  2
LAYER
 70
     1
  0
LAYER
  2
0
 70
     0
 62
     7
  6
CONTINUOUS
  0
ENDTAB
  0
TABLE
  2
STYLE
 70
     1
  0
STYLE
  2
STANDARD
 70
     0
 40
0.0
 41
1.0
 50
0.0
 71
     0
 42
0.0
  3
IsonormD
  4

  0
ENDTAB
  0
TABLE
  2
VIEW
 70
     0
  0
ENDTAB
  0
TABLE
  2
UCS
 70
     0
  0
ENDTAB
  0
TABLE
  2
APPID
 70
     2
  0
APPID
  2
ACAD
 70
     0
  0
APPID
  2
TopSolid_Draft
 70
     0
  0
ENDTAB
  0
TABLE
  2
DIMSTYLE
 70
     1
  0
DIMSTYLE
  2
STANDARD
 70
     0
  3

  4

  5

  6

  7

 40
1.0
 41
1.25
 42
1.0
 43
0.38
 44
0.75
 45
0.0
 46
0.0
 47
0.0
 48
0.0
 71
     0
 72
     0
 73
     0
 74
     0
 75
     0
 76
     0
 77
     1
 78
     0
140
2.5
141
0.09
142
0.0
143
25.4
144
1.0
145
0.0
146
0.8
147
1.25
170
     0
171
     2
172
     0
173
     0
174
     0
175
     0
176
     7
177
     7
178
     7
  0
ENDTAB
  0
ENDSEC
  0
SECTION
  2
BLOCKS
  0
BLOCK
  8
0
  5
25
  2
AID3
 70
     0
 10
0.0
 20
0.0
 30
0.0
  3
#draft view
  0
LINE
  8
0
  6
CONTINUOUS
 62
     7
  5
26
 10
366.126867
 20
165.080402
 30
0.0
 11
366.126867
 21
141.280402
 31
0.0
  0
LINE
  8
0
  6
CONTINUOUS
 62
     7
  5
27
 10
365.526867
 20
140.680402
 30
0.0
 11
365.526867
 21
165.680402
 31
0.0
  0
LINE
  8
0
  6
CONTINUOUS
 62
     7
  5
28
 10
363.126867
 20
165.680402
 30
0.0
 11
363.126867
 21
140.680402
 31
0.0
  0
LINE
  8
0
  6
CONTINUOUS
 62
     7
  5
29
 10
70.626867
 20
175.180402
 30
0.0
 11
70.626867
 21
133.180402
 31
0.0
  0
LINE
  8
0
  6
CONTINUOUS
 62
     7
  5
2A
 10
85.626867
 20
175.180402
 30
0.0
 11
85.626867
 21
133.180402
 31
0.0
  0
LINE
  8
0
  6
CONTINUOUS
 62
     7
  5
2B
 10
70.626867
 20
133.180402
 30
0.0
 11
85.626867
 21
133.180402
 31
0.0
  0
LINE
  8
0
  6
CONTINUOUS
 62
     7
  5
2C
 10
70.626867
 20
175.180402
 30
0.0
 11
85.626867
 21
175.180402
 31
0.0
  0
LINE
  8
0
  6
CONTINUOUS
 62
     7
  5
2D
 10
372.126867
 20
148.180402
 30
0.0
 11
372.126867
 21
158.180402
 31
0.0
  0
LINE
  8
0
  6
CONTINUOUS
 62
     7
  5
2E
 10
90.926867
 20
144.930402
 30
0.0
 11
90.926867
 21
145.180402
 31
0.0
  0
LINE
  8
0
  6
CONTINUOUS
 62
     7
  5
2F
 10
90.926867
 20
161.180402
 30
0.0
 11
90.926867
 21
163.430402
 31
0.0
  0
LINE
  8
0
  6
CONTINUOUS
 62
     7
  5
30
 10
366.126867
 20
167.080402
 30
0.0
 11
366.126867
 21
165.080402
 31
0.0
  0
LINE
  8
0
  6
CONTINUOUS
 62
     7
  5
31
 10
365.526867
 20
165.680402
 30
0.0
 11
365.526867
 21
167.680402
 31
0.0
  0
LINE
  8
0
  6
CONTINUOUS
 62
     7
  5
32
 10
363.126867
 20
167.680402
 30
0.0
 11
363.126867
 21
165.680402
 31
0.0
  0
LINE
  8
0
  6
CONTINUOUS
 62
     7
  5
33
 10
372.126867
 20
158.180402
 30
0.0
 11
372.126867
 21
160.180402
 31
0.0
  0
LINE
  8
0
  6
CONTINUOUS
 62
     7
  5
34
 10
261.626867
 20
131.180402
 30
0.0
 11
91.626867
 21
131.180402
 31
0.0
  0
LINE
  8
0
  6
CONTINUOUS
 62
     7
  5
35
 10
261.626867
 20
175.180402
 30
0.0
 11
91.626867
 21
175.180402
 31
0.0
  0
LINE
  8
0
  6
CONTINUOUS
 62
     7
  5
36
 10
261.626867
 20
175.180402
 30
0.0
 11
261.626867
 21
131.180402
 31
0.0
  0
LINE
  8
0
  6
CONTINUOUS
 62
     7
  5
37
 10
91.626867
 20
175.180402
 30
0.0
 11
91.626867
 21
131.180402
 31
0.0
  0
LINE
  8
0
  6
CONTINUOUS
 62
     7
  5
38
 10
91.626867
 20
177.180402
 30
0.0
 11
261.626867
 21
177.180402
 31
0.0
  0
LINE
  8
0
  6
CONTINUOUS
 62
     7
  5
39
 10
261.626867
 20
177.180402
 30
0.0
 11
261.626867
 21
175.180402
 31
0.0
  0
LINE
  8
0
  6
CONTINUOUS
 62
     7
  5
3A
 10
91.626867
 20
175.180402
 30
0.0
 11
91.626867
 21
177.180402
 31
0.0
  0
LINE
  8
0
  6
CONTINUOUS
 62
     7
  5
3B
 10
162.626867
 20
178.680402
 30
0.0
 11
190.626867
 21
178.680402
 31
0.0
  0
LINE
  8
0
  6
CONTINUOUS
 62
     7
  5
3C
 10
365.526867
 20
140.680402
 30
0.0
 11
366.126867
 21
141.280402
 31
0.0
  0
LINE
  8
0
  6
CONTINUOUS
 62
     7
  5
3D
 10
366.126867
 20
165.080402
 30
0.0
 11
365.526867
 21
165.680402
 31
0.0
  0
LINE
  8
0
  6
CONTINUOUS
 62
     7
  5
3E
 10
365.526867
 20
165.680402
 30
0.0
 11
363.126867
 21
165.680402
 31
0.0
  0
LINE
  8
0
  6
CONTINUOUS
 62
     7
  5
3F
 10
363.126867
 20
140.680402
 30
0.0
 11
365.526867
 21
140.680402
 31
0.0
  0
LINE
  8
0
  6
CONTINUOUS
 62
     7
  5
40
 10
363.126867
 20
161.180402
 30
0.0
 11
261.626867
 21
161.180402
 31
0.0
  0
LINE
  8
0
  6
CONTINUOUS
 62
     7
  5
41
 10
91.626867
 20
161.180402
 30
0.0
 11
85.626867
 21
161.180402
 31
0.0
  0
LINE
  8
0
  6
CONTINUOUS
 62
     7
  5
42
 10
85.626867
 20
145.180402
 30
0.0
 11
91.626867
 21
145.180402
 31
0.0
  0
LINE
  8
0
  6
CONTINUOUS
 62
     7
  5
43
 10
261.626867
 20
145.180402
 30
0.0
 11
363.126867
 21
145.180402
 31
0.0
  0
LINE
  8
0
  6
CONTINUOUS
 62
     7
  5
44
 10
366.126867
 20
148.180402
 30
0.0
 11
372.126867
 21
148.180402
 31
0.0
  0
LINE
  8
0
  6
CONTINUOUS
 62
     7
  5
45
 10
372.126867
 20
158.180402
 30
0.0
 11
366.126867
 21
158.180402
 31
0.0
  0
LINE
  8
0
  6
CONTINUOUS
 62
     7
  5
46
 10
90.926867
 20
163.430402
 30
0.0
 11
85.626867
 21
163.430402
 31
0.0
  0
LINE
  8
0
  6
CONTINUOUS
 62
     7
  5
47
 10
85.626867
 20
144.930402
 30
0.0
 11
90.926867
 21
144.930402
 31
0.0
  0
LINE
  8
0
  6
CONTINUOUS
 62
     7
  5
48
 10
91.626867
 20
172.180402
 30
0.0
 11
85.626867
 21
172.180402
 31
0.0
  0
LINE
  8
0
  6
CONTINUOUS
 62
     7
  5
49
 10
366.126867
 20
167.080402
 30
0.0
 11
365.526867
 21
167.680402
 31
0.0
  0
LINE
  8
0
  6
CONTINUOUS
 62
     7
  5
4A
 10
365.526867
 20
167.680402
 30
0.0
 11
363.126867
 21
167.680402
 31
0.0
  0
LINE
  8
0
  6
CONTINUOUS
 62
     7
  5
4B
 10
363.126867
 20
163.180402
 30
0.0
 11
261.626867
 21
163.180402
 31
0.0
  0
LINE
  8
0
  6
CONTINUOUS
 62
     7
  5
4C
 10
372.126867
 20
160.180402
 30
0.0
 11
366.126867
 21
160.180402
 31
0.0
  0
LINE
  8
0
  6
CONTINUOUS
 62
     7
  5
4D
 10
190.626867
 20
177.180402
 30
0.0
 11
190.626867
 21
178.680402
 31
0.0
  0
LINE
  8
0
  6
CONTINUOUS
 62
     7
  5
4E
 10
162.626867
 20
178.680402
 30
0.0
 11
162.626867
 21
177.180402
 31
0.0
  0
ENDBLK
  8
0
  5
4F
  0
BLOCK
  8
0
  5
52
  2
AID89
 70
     0
 10
0.0
 20
0.0
 30
0.0
  3
#auxiliary draft view
  0
LINE
  8
0
  6
CONTINUOUS
 62
     7
  5
53
 10
85.626867
 20
67.440042
 30
0.0
 11
85.626867
 21
-36.559958
 31
0.0
  0
LINE
  8
0
  6
CONTINUOUS
 62
     7
  5
54
 10
70.626867
 20
67.440042
 30
0.0
 11
70.626867
 21
-36.559958
 31
0.0
  0
LINE
  8
0
  6
CONTINUOUS
 62
     7
  5
55
 10
70.626867
 20
-36.559958
 30
0.0
 11
85.626867
 21
-36.559958
 31
0.0
  0
LINE
  8
0
  6
CONTINUOUS
 62
     7
  5
56
 10
70.626867
 20
67.440042
 30
0.0
 11
85.626867
 21
67.440042
 31
0.0
  0
LINE
  8
0
  6
CONTINUOUS
 62
     7
  5
57
 10
366.126867
 20
67.340042
 30
0.0
 11
366.126867
 21
43.540042
 31
0.0
  0
LINE
  8
0
  6
CONTINUOUS
 62
     7
  5
58
 10
365.526867
 20
42.940042
 30
0.0
 11
365.526867
 21
67.940042
 31
0.0
  0
LINE
  8
0
  6
CONTINUOUS
 62
     7
  5
59
 10
363.126867
 20
67.940042
 30
0.0
 11
363.126867
 21
42.940042
 31
0.0
  0
LINE
  8
0
  6
CONTINUOUS
 62
     7
  5
5A
 10
365.526867
 20
-37.059958
 30
0.0
 11
365.526867
 21
-12.059958
 31
0.0
  0
LINE
  8
0
  6
CONTINUOUS
 62
     7
  5
5B
 10
363.126867
 20
-12.059958
 30
0.0
 11
363.126867
 21
-37.059958
 31
0.0
  0
LINE
  8
0
  6
CONTINUOUS
 62
     7
  5
5C
 10
366.126867
 20
-12.659958
 30
0.0
 11
366.126867
 21
-36.459958
 31
0.0
  0
LINE
  8
0
  6
CONTINUOUS
 62
     7
  5
5D
 10
90.926867
 20
6.190042
 30
0.0
 11
90.926867
 21
24.690042
 31
0.0
  0
LINE
  8
0
  6
CONTINUOUS
 62
     7
  5
5E
 10
372.126867
 20
50.440042
 30
0.0
 11
372.126867
 21
60.440042
 31
0.0
  0
LINE
  8
0
  6
CONTINUOUS
 62
     7
  5
5F
 10
372.126867
 20
-29.559958
 30
0.0
 11
372.126867
 21
-19.559958
 31
0.0
  0
CIRCLE
  8
0
  6
CONTINUOUS
 62
     7
  5
60
 10
176.626867
 20
55.440042
 30
0.0
 40
14.0
210
0.0
220
0.0
230
1.0
  0
CIRCLE
  8
0
  6
CONTINUOUS
 62
     7
  5
61
 10
215.626867
 20
-4.559958
 30
0.0
 40
2.067
210
0.0
220
0.0
230
1.0
  0
CIRCLE
  8
0
  6
CONTINUOUS
 62
     7
  5
62
 10
215.626867
 20
-4.559958
 30
0.0
 40
2.5
210
0.0
220
0.0
230
1.0
  0
CIRCLE
  8
0
  6
CONTINUOUS
 62
     7
  5
63
 10
126.626867
 20
-7.809958
 30
0.0
 40
5.5
210
0.0
220
0.0
230
1.0
  0
CIRCLE
  8
0
  6
CONTINUOUS
 62
     7
  5
64
 10
226.626867
 20
-7.809958
 30
0.0
 40
5.5
210
0.0
220
0.0
230
1.0
  0
CIRCLE
  8
0
  6
CONTINUOUS
 62
     7
  5
65
 10
126.626867
 20
38.690042
 30
0.0
 40
5.5
210
0.0
220
0.0
230
1.0
  0
CIRCLE
  8
0
  6
CONTINUOUS
 62
     7
  5
66
 10
226.626867
 20
38.690042
 30
0.0
 40
5.5
210
0.0
220
0.0
230
1.0
  0
LINE
  8
0
  6
CONTINUOUS
 62
     7
  5
67
 10
124.626867
 20
8.940042
 30
0.0
 11
247.626867
 21
8.940042
 31
0.0
  0
ARC
  8
0
  6
CONTINUOUS
 62
     7
  5
68
 10
247.626867
 20
14.940042
 30
0.0
 40
6.0
 50
270.0
 51
0.0
210
0.0
220
0.0
230
1.0
  0
LINE
  8
0
  6
CONTINUOUS
 62
     7
  5
69
 10
253.626867
 20
14.940042
 30
0.0
 11
253.626867
 21
15.940042
 31
0.0
  0
ARC
  8
0
  6
CONTINUOUS
 62
     7
  5
6A
 10
247.626867
 20
15.940042
 30
0.0
 40
6.0
 50
0.0
 51
90.0
210
0.0
220
0.0
230
1.0
  0
LINE
  8
0
  6
CONTINUOUS
 62
     7
  5
6B
 10
247.626867
 20
21.940042
 30
0.0
 11
124.626867
 21
21.940042
 31
0.0
  0
ARC
  8
0
  6
CONTINUOUS
 62
     7
  5
6C
 10
124.626867
 20
15.940042
 30
0.0
 40
6.0
 50
90.0
 51
180.0
210
0.0
220
0.0
230
1.0
  0
LINE
  8
0
  6
CONTINUOUS
 62
     7
  5
6D
 10
118.626867
 20
15.940042
 30
0.0
 11
118.626867
 21
14.940042
 31
0.0
  0
ARC
  8
0
  6
CONTINUOUS
 62
     7
  5
6E
 10
124.626867
 20
14.940042
 30
0.0
 40
6.0
 50
180.0
 51
270.0
210
0.0
220
0.0
230
1.0
  0
CIRCLE
  8
0
  6
CONTINUOUS
 62
     7
  5
6F
 10
215.626867
 20
35.440042
 30
0.0
 40
2.5
210
0.0
220
0.0
230
1.0
  0
CIRCLE
  8
0
  6
CONTINUOUS
 62
     7
  5
70
 10
159.626867
 20
-2.559958
 30
0.0
 40
2.5
210
0.0
220
0.0
230
1.0
  0
CIRCLE
  8
0
  6
CONTINUOUS
 62
     7
  5
71
 10
183.626867
 20
-2.559958
 30
0.0
 40
2.5
210
0.0
220
0.0
230
1.0
  0
LINE
  8
0
  6
CONTINUOUS
 62
     7
  5
72
 10
261.626867
 20
47.640042
 30
0.0
 11
261.626867
 21
-16.759958
 31
0.0
  0
LINE
  8
0
  6
CONTINUOUS
 62
     7
  5
73
 10
261.626867
 20
-16.759958
 30
0.0
 11
91.626867
 21
-16.759958
 31
0.0
  0
LINE
  8
0
  6
CONTINUOUS
 62
     7
  5
74
 10
91.626867
 20
-16.759958
 30
0.0
 11
91.626867
 21
47.640042
 31
0.0
  0
LINE
  8
0
  6
CONTINUOUS
 62
     7
  5
75
 10
165.001033
 20
47.640042
 30
0.0
 11
91.626867
 21
47.640042
 31
0.0
  0
LINE
  8
0
  6
CONTINUOUS
 62
     7
  5
76
 10
261.626867
 20
47.640042
 30
0.0
 11
188.2527
 21
47.640042
 31
0.0
  0
CIRCLE
  8
0
  6
CONTINUOUS
 62
     7
  5
77
 10
215.626867
 20
35.440042
 30
0.0
 40
2.067
210
0.0
220
0.0
230
1.0
  0
CIRCLE
  8
0
  6
CONTINUOUS
 62
     7
  5
78
 10
183.626867
 20
-2.559958
 30
0.0
 40
2.067
210
0.0
220
0.0
230
1.0
  0
CIRCLE
  8
0
  6
CONTINUOUS
 62
     7
  5
79
 10
159.626867
 20
-2.559958
 30
0.0
 40
2.067
210
0.0
220
0.0
230
1.0
  0
LINE
  8
0
  6
CONTINUOUS
 62
     7
  5
7A
 10
261.626867
 20
54.740042
 30
0.0
 11
261.626867
 21
50.240042
 31
0.0
  0
LINE
  8
0
  6
CONTINUOUS
 62
     7
  5
7B
 10
261.626867
 20
50.240042
 30
0.0
 11
189.625328
 21
50.240042
 31
0.0
  0
LINE
  8
0
  6
CONTINUOUS
 62
     7
  5
7C
 10
261.626867
 20
54.740042
 30
0.0
 11
190.609356
 21
54.740042
 31
0.0
  0
LINE
  8
0
  6
CONTINUOUS
 62
     7
  5
7D
 10
261.626867
 20
-33.559958
 30
0.0
 11
261.626867
 21
-37.559958
 31
0.0
  0
LINE
  8
0
  6
CONTINUOUS
 62
     7
  5
7E
 10
91.626867
 20
-37.559958
 30
0.0
 11
261.626867
 21
-37.559958
 31
0.0
  0
LINE
  8
0
  6
CONTINUOUS
 62
     7
  5
7F
 10
91.626867
 20
-37.559958
 30
0.0
 11
91.626867
 21
-33.559958
 31
0.0
  0
LINE
  8
0
  6
CONTINUOUS
 62
     7
  5
80
 10
261.626867
 20
-33.559958
 30
0.0
 11
91.626867
 21
-33.559958
 31
0.0
  0
LINE
  8
0
  6
CONTINUOUS
 62
     7
  5
81
 10
261.626867
 20
57.340042
 30
0.0
 11
190.497339
 21
57.340042
 31
0.0
  0
LINE
  8
0
  6
CONTINUOUS
 62
     7
  5
82
 10
261.626867
 20
61.840042
 30
0.0
 11
261.626867
 21
57.340042
 31
0.0
  0
LINE
  8
0
  6
CONTINUOUS
 62
     7
  5
83
 10
261.626867
 20
61.840042
 30
0.0
 11
189.078373
 21
61.840042
 31
0.0
  0
LINE
  8
0
  6
CONTINUOUS
 62
     7
  5
84
 10
91.626867
 20
57.340042
 30
0.0
 11
91.626867
 21
61.840042
 31
0.0
  0
LINE
  8
0
  6
CONTINUOUS
 62
     7
  5
85
 10
164.175361
 20
61.840042
 30
0.0
 11
91.626867
 21
61.840042
 31
0.0
  0
LINE
  8
0
  6
CONTINUOUS
 62
     7
  5
86
 10
162.756395
 20
57.340042
 30
0.0
 11
91.626867
 21
57.340042
 31
0.0
  0
LINE
  8
0
  6
CONTINUOUS
 62
     7
  5
87
 10
91.626867
 20
50.240042
 30
0.0
 11
91.626867
 21
54.740042
 31
0.0
  0
LINE
  8
0
  6
CONTINUOUS
 62
     7
  5
88
 10
162.644378
 20
54.740042
 30
0.0
 11
91.626867
 21
54.740042
 31
0.0
  0
LINE
  8
0
  6
CONTINUOUS
 62
     7
  5
89
 10
163.628405
 20
50.240042
 30
0.0
 11
91.626867
 21
50.240042
 31
0.0
  0
LINE
  8
0
  6
CONTINUOUS
 62
     7
  5
8A
 10
261.626867
 20
64.440042
 30
0.0
 11
187.350672
 21
64.440042
 31
0.0
  0
LINE
  8
0
  6
CONTINUOUS
 62
     7
  5
8B
 10
261.626867
 20
68.440042
 30
0.0
 11
181.823019
 21
68.440042
 31
0.0
  0
LINE
  8
0
  6
CONTINUOUS
 62
     7
  5
8C
 10
261.626867
 20
68.440042
 30
0.0
 11
261.626867
 21
64.440042
 31
0.0
  0
LINE
  8
0
  6
CONTINUOUS
 62
     7
  5
8D
 10
91.626867
 20
-23.859958
 30
0.0
 11
91.626867
 21
-19.359958
 31
0.0
  0
LINE
  8
0
  6
CONTINUOUS
 62
     7
  5
8E
 10
261.626867
 20
-19.359958
 30
0.0
 11
91.626867
 21
-19.359958
 31
0.0
  0
LINE
  8
0
  6
CONTINUOUS
 62
     7
  5
8F
 10
261.626867
 20
-19.359958
 30
0.0
 11
261.626867
 21
-23.859958
 31
0.0
  0
LINE
  8
0
  6
CONTINUOUS
 62
     7
  5
90
 10
261.626867
 20
-23.859958
 30
0.0
 11
91.626867
 21
-23.859958
 31
0.0
  0
LINE
  8
0
  6
CONTINUOUS
 62
     7
  5
91
 10
261.626867
 20
-30.959958
 30
0.0
 11
91.626867
 21
-30.959958
 31
0.0
  0
LINE
  8
0
  6
CONTINUOUS
 62
     7
  5
92
 10
91.626867
 20
-30.959958
 30
0.0
 11
91.626867
 21
-26.459958
 31
0.0
  0
LINE
  8
0
  6
CONTINUOUS
 62
     7
  5
93
 10
261.626867
 20
-26.459958
 30
0.0
 11
91.626867
 21
-26.459958
 31
0.0
  0
LINE
  8
0
  6
CONTINUOUS
 62
     7
  5
94
 10
261.626867
 20
-26.459958
 30
0.0
 11
261.626867
 21
-30.959958
 31
0.0
  0
LINE
  8
0
  6
CONTINUOUS
 62
     7
  5
95
 10
91.626867
 20
70.440042
 30
0.0
 11
261.626867
 21
70.440042
 31
0.0
  0
LINE
  8
0
  6
CONTINUOUS
 62
     7
  5
96
 10
171.430714
 20
68.440042
 30
0.0
 11
91.626867
 21
68.440042
 31
0.0
  0
LINE
  8
0
  6
CONTINUOUS
 62
     7
  5
97
 10
91.626867
 20
68.440042
 30
0.0
 11
91.626867
 21
70.440042
 31
0.0
  0
LINE
  8
0
  6
CONTINUOUS
 62
     7
  5
98
 10
261.626867
 20
70.440042
 30
0.0
 11
261.626867
 21
68.440042
 31
0.0
  0
LINE
  8
0
  6
CONTINUOUS
 62
     7
  5
99
 10
165.903061
 20
64.440042
 30
0.0
 11
91.626867
 21
64.440042
 31
0.0
  0
LINE
  8
0
  6
CONTINUOUS
 62
     7
  5
9A
 10
91.626867
 20
64.440042
 30
0.0
 11
91.626867
 21
68.440042
 31
0.0
  0
LINE
  8
0
  6
CONTINUOUS
 62
     7
  5
9B
 10
261.626867
 20
-39.559958
 30
0.0
 11
91.626867
 21
-39.559958
 31
0.0
  0
LINE
  8
0
  6
CONTINUOUS
 62
     7
  5
9C
 10
91.626867
 20
-39.559958
 30
0.0
 11
91.626867
 21
-37.559958
 31
0.0
  0
LINE
  8
0
  6
CONTINUOUS
 62
     7
  5
9D
 10
261.626867
 20
-37.559958
 30
0.0
 11
261.626867
 21
-39.559958
 31
0.0
  0
LINE
  8
0
  6
CONTINUOUS
 62
     7
  5
9E
 10
261.626867
 20
64.440042
 30
0.0
 11
261.626867
 21
61.840042
 31
0.0
  0
LINE
  8
0
  6
CONTINUOUS
 62
     7
  5
9F
 10
91.626867
 20
47.640042
 30
0.0
 11
91.626867
 21
50.240042
 31
0.0
  0
LINE
  8
0
  6
CONTINUOUS
 62
     7
  5
A0
 10
261.626867
 20
57.340042
 30
0.0
 11
261.626867
 21
54.740042
 31
0.0
  0
LINE
  8
0
  6
CONTINUOUS
 62
     7
  5
A1
 10
122.626867
 20
21.596897
 30
0.0
 11
122.626867
 21
9.283188
 31
0.0
  0
CIRCLE
  8
0
  6
CONTINUOUS
 62
     7
  5
A2
 10
126.626867
 20
-7.809958
 30
0.0
 40
3.375
210
0.0
220
0.0
230
1.0
  0
LINE
  8
0
  6
CONTINUOUS
 62
     7
  5
A3
 10
91.626867
 20
61.840042
 30
0.0
 11
91.626867
 21
64.440042
 31
0.0
  0
LINE
  8
0
  6
CONTINUOUS
 62
     7
  5
A4
 10
91.626867
 20
-19.359958
 30
0.0
 11
91.626867
 21
-16.759958
 31
0.0
  0
LINE
  8
0
  6
CONTINUOUS
 62
     7
  5
A5
 10
261.626867
 20
-16.759958
 30
0.0
 11
261.626867
 21
-19.359958
 31
0.0
  0
LINE
  8
0
  6
CONTINUOUS
 62
     7
  5
A6
 10
91.626867
 20
-33.559958
 30
0.0
 11
91.626867
 21
-30.959958
 31
0.0
  0
LINE
  8
0
  6
CONTINUOUS
 62
     7
  5
A7
 10
261.626867
 20
-30.959958
 30
0.0
 11
261.626867
 21
-33.559958
 31
0.0
  0
CIRCLE
  8
0
  6
CONTINUOUS
 62
     7
  5
A8
 10
226.626867
 20
38.690042
 30
0.0
 40
3.375
210
0.0
220
0.0
230
1.0
  0
LINE
  8
0
  6
CONTINUOUS
 62
     7
  5
A9
 10
91.626867
 20
54.740042
 30
0.0
 11
91.626867
 21
57.340042
 31
0.0
  0
CIRCLE
  8
0
  6
CONTINUOUS
 62
     7
  5
AA
 10
126.626867
 20
38.690042
 30
0.0
 40
3.375
210
0.0
220
0.0
230
1.0
  0
CIRCLE
  8
0
  6
CONTINUOUS
 62
     7
  5
AB
 10
226.626867
 20
-7.809958
 30
0.0
 40
3.375
210
0.0
220
0.0
230
1.0
  0
LINE
  8
0
  6
CONTINUOUS
 62
     7
  5
AC
 10
261.626867
 20
50.240042
 30
0.0
 11
261.626867
 21
47.640042
 31
0.0
  0
LINE
  8
0
  6
CONTINUOUS
 62
     7
  5
AD
 10
91.626867
 20
-26.459958
 30
0.0
 11
91.626867
 21
-23.859958
 31
0.0
  0
LINE
  8
0
  6
CONTINUOUS
 62
     7
  5
AE
 10
261.626867
 20
-23.859958
 30
0.0
 11
261.626867
 21
-26.459958
 31
0.0
  0
CIRCLE
  8
0
  6
CONTINUOUS
 62
     7
  5
AF
 10
126.626867
 20
38.690042
 30
0.0
 40
3.3235
210
0.0
220
0.0
230
1.0
  0
CIRCLE
  8
0
  6
CONTINUOUS
 62
     7
  5
B0
 10
126.626867
 20
-7.809958
 30
0.0
 40
3.3235
210
0.0
220
0.0
230
1.0
  0
CIRCLE
  8
0
  6
CONTINUOUS
 62
     7
  5
B1
 10
226.626867
 20
38.690042
 30
0.0
 40
3.3235
210
0.0
220
0.0
230
1.0
  0
CIRCLE
  8
0
  6
CONTINUOUS
 62
     7
  5
B2
 10
226.626867
 20
-7.809958
 30
0.0
 40
3.3235
210
0.0
220
0.0
230
1.0
  0
LINE
  8
0
  6
CONTINUOUS
 62
     7
  5
B3
 10
91.626867
 20
42.940042
 30
0.0
 11
85.626867
 21
42.940042
 31
0.0
  0
LINE
  8
0
  6
CONTINUOUS
 62
     7
  5
B4
 10
85.626867
 20
30.940042
 30
0.0
 11
91.626867
 21
30.940042
 31
0.0
  0
LINE
  8
0
  6
CONTINUOUS
 62
     7
  5
B5
 10
365.526867
 20
42.940042
 30
0.0
 11
366.126867
 21
43.540042
 31
0.0
  0
LINE
  8
0
  6
CONTINUOUS
 62
     7
  5
B6
 10
366.126867
 20
67.340042
 30
0.0
 11
365.526867
 21
67.940042
 31
0.0
  0
LINE
  8
0
  6
CONTINUOUS
 62
     7
  5
B7
 10
365.526867
 20
67.940042
 30
0.0
 11
363.126867
 21
67.940042
 31
0.0
  0
LINE
  8
0
  6
CONTINUOUS
 62
     7
  5
B8
 10
363.126867
 20
42.940042
 30
0.0
 11
365.526867
 21
42.940042
 31
0.0
  0
LINE
  8
0
  6
CONTINUOUS
 62
     7
  5
B9
 10
365.526867
 20
-12.059958
 30
0.0
 11
363.126867
 21
-12.059958
 31
0.0
  0
LINE
  8
0
  6
CONTINUOUS
 62
     7
  5
BA
 10
363.126867
 20
-37.059958
 30
0.0
 11
365.526867
 21
-37.059958
 31
0.0
  0
LINE
  8
0
  6
CONTINUOUS
 62
     7
  5
BB
 10
365.526867
 20
-37.059958
 30
0.0
 11
366.126867
 21
-36.459958
 31
0.0
  0
LINE
  8
0
  6
CONTINUOUS
 62
     7
  5
BC
 10
366.126867
 20
-12.659958
 30
0.0
 11
365.526867
 21
-12.059958
 31
0.0
  0
LINE
  8
0
  6
CONTINUOUS
 62
     7
  5
BD
 10
90.926867
 20
24.690042
 30
0.0
 11
85.626867
 21
24.690042
 31
0.0
  0
LINE
  8
0
  6
CONTINUOUS
 62
     7
  5
BE
 10
85.626867
 20
6.190042
 30
0.0
 11
90.926867
 21
6.190042
 31
0.0
  0
LINE
  8
0
  6
CONTINUOUS
 62
     7
  5
BF
 10
363.126867
 20
63.440042
 30
0.0
 11
261.626867
 21
63.440042
 31
0.0
  0
LINE
  8
0
  6
CONTINUOUS
 62
     7
  5
C0
 10
91.626867
 20
63.440042
 30
0.0
 11
85.626867
 21
63.440042
 31
0.0
  0
LINE
  8
0
  6
CONTINUOUS
 62
     7
  5
C1
 10
85.626867
 20
47.440042
 30
0.0
 11
91.626867
 21
47.440042
 31
0.0
  0
LINE
  8
0
  6
CONTINUOUS
 62
     7
  5
C2
 10
261.626867
 20
47.440042
 30
0.0
 11
363.126867
 21
47.440042
 31
0.0
  0
LINE
  8
0
  6
CONTINUOUS
 62
     7
  5
C3
 10
363.126867
 20
-16.559958
 30
0.0
 11
261.626867
 21
-16.559958
 31
0.0
  0
LINE
  8
0
  6
CONTINUOUS
 62
     7
  5
C4
 10
91.626867
 20
-16.559958
 30
0.0
 11
85.626867
 21
-16.559958
 31
0.0
  0
LINE
  8
0
  6
CONTINUOUS
 62
     7
  5
C5
 10
85.626867
 20
-32.559958
 30
0.0
 11
91.626867
 21
-32.559958
 31
0.0
  0
LINE
  8
0
  6
CONTINUOUS
 62
     7
  5
C6
 10
261.626867
 20
-32.559958
 30
0.0
 11
363.126867
 21
-32.559958
 31
0.0
  0
LINE
  8
0
  6
CONTINUOUS
 62
     7
  5
C7
 10
366.126867
 20
50.440042
 30
0.0
 11
372.126867
 21
50.440042
 31
0.0
  0
LINE
  8
0
  6
CONTINUOUS
 62
     7
  5
C8
 10
372.126867
 20
60.440042
 30
0.0
 11
366.126867
 21
60.440042
 31
0.0
  0
LINE
  8
0
  6
CONTINUOUS
 62
     7
  5
C9
 10
366.126867
 20
-29.559958
 30
0.0
 11
372.126867
 21
-29.559958
 31
0.0
  0
LINE
  8
0
  6
CONTINUOUS
 62
     7
  5
CA
 10
372.126867
 20
-19.559958
 30
0.0
 11
366.126867
 21
-19.559958
 31
0.0
  0
LINE
  8
0
  6
CONTINUOUS
 62
     7
  5
CB
 10
91.626867
 20
19.440042
 30
0.0
 11
90.926867
 21
19.440042
 31
0.0
  0
LINE
  8
0
  6
CONTINUOUS
 62
     7
  5
CC
 10
90.926867
 20
11.440042
 30
0.0
 11
91.626867
 21
11.440042
 31
0.0
  0
ENDBLK
  8
0
  5
CD
  0
BLOCK
  8
0
  5
D0
  2
AID337
 70
     0
 10
0.0
 20
0.0
 30
0.0
  3
#auxiliary draft view
  0
LINE
  8
0
  6
CONTINUOUS
 62
     7
  5
D1
 10
70.626867
 20
239.452882
 30
0.0
 11
85.626867
 21
239.452882
 31
0.0
  0
LINE
  8
0
  6
CONTINUOUS
 62
     7
  5
D2
 10
70.626867
 20
343.452882
 30
0.0
 11
70.626867
 21
239.452882
 31
0.0
  0
LINE
  8
0
  6
CONTINUOUS
 62
     7
  5
D3
 10
85.626867
 20
343.452882
 30
0.0
 11
85.626867
 21
239.452882
 31
0.0
  0
LINE
  8
0
  6
CONTINUOUS
 62
     7
  5
D4
 10
70.626867
 20
343.452882
 30
0.0
 11
85.626867
 21
343.452882
 31
0.0
  0
LINE
  8
0
  6
CONTINUOUS
 62
     7
  5
D5
 10
365.526867
 20
318.952882
 30
0.0
 11
365.526867
 21
331.452882
 31
0.0
  0
LINE
  8
0
  6
CONTINUOUS
 62
     7
  5
D6
 10
363.126867
 20
343.952882
 30
0.0
 11
363.126867
 21
331.452882
 31
0.0
  0
LINE
  8
0
  6
CONTINUOUS
 62
     7
  5
D7
 10
365.526867
 20
331.452882
 30
0.0
 11
365.526867
 21
343.952882
 31
0.0
  0
LINE
  8
0
  6
CONTINUOUS
 62
     7
  5
D8
 10
363.126867
 20
331.452882
 30
0.0
 11
363.126867
 21
318.952882
 31
0.0
  0
LINE
  8
0
  6
CONTINUOUS
 62
     7
  5
D9
 10
366.126867
 20
343.352882
 30
0.0
 11
366.126867
 21
331.452882
 31
0.0
  0
LINE
  8
0
  6
CONTINUOUS
 62
     7
  5
DA
 10
366.126867
 20
331.452882
 30
0.0
 11
366.126867
 21
319.552882
 31
0.0
  0
LINE
  8
0
  6
CONTINUOUS
 62
     7
  5
DB
 10
365.526867
 20
238.952882
 30
0.0
 11
365.526867
 21
251.452882
 31
0.0
  0
LINE
  8
0
  6
CONTINUOUS
 62
     7
  5
DC
 10
363.126867
 20
263.952882
 30
0.0
 11
363.126867
 21
251.452882
 31
0.0
  0
LINE
  8
0
  6
CONTINUOUS
 62
     7
  5
DD
 10
365.526867
 20
251.452882
 30
0.0
 11
365.526867
 21
263.952882
 31
0.0
  0
LINE
  8
0
  6
CONTINUOUS
 62
     7
  5
DE
 10
363.126867
 20
251.452882
 30
0.0
 11
363.126867
 21
238.952882
 31
0.0
  0
LINE
  8
0
  6
CONTINUOUS
 62
     7
  5
DF
 10
366.126867
 20
263.352882
 30
0.0
 11
366.126867
 21
251.452882
 31
0.0
  0
LINE
  8
0
  6
CONTINUOUS
 62
     7
  5
E0
 10
366.126867
 20
251.452882
 30
0.0
 11
366.126867
 21
239.552882
 31
0.0
  0
LINE
  8
0
  6
CONTINUOUS
 62
     7
  5
E1
 10
90.926867
 20
282.202882
 30
0.0
 11
90.926867
 21
300.702882
 31
0.0
  0
LINE
  8
0
  6
CONTINUOUS
 62
     7
  5
E2
 10
372.126867
 20
326.452882
 30
0.0
 11
372.126867
 21
331.452882
 31
0.0
  0
LINE
  8
0
  6
CONTINUOUS
 62
     7
  5
E3
 10
372.126867
 20
331.452882
 30
0.0
 11
372.126867
 21
336.452882
 31
0.0
  0
LINE
  8
0
  6
CONTINUOUS
 62
     7
  5
E4
 10
372.126867
 20
246.452882
 30
0.0
 11
372.126867
 21
251.452882
 31
0.0
  0
LINE
  8
0
  6
CONTINUOUS
 62
     7
  5
E5
 10
372.126867
 20
251.452882
 30
0.0
 11
372.126867
 21
256.452882
 31
0.0
  0
CIRCLE
  8
0
  6
CONTINUOUS
 62
     7
  5
E6
 10
176.626867
 20
268.202882
 30
0.0
 40
2.51
210
0.0
220
0.0
230
1.0
  0
CIRCLE
  8
0
  6
CONTINUOUS
 62
     7
  5
E7
 10
176.626867
 20
314.702882
 30
0.0
 40
2.51
210
0.0
220
0.0
230
1.0
  0
CIRCLE
  8
0
  6
CONTINUOUS
 62
     7
  5
E8
 10
226.626867
 20
268.202882
 30
0.0
 40
4.0
210
0.0
220
0.0
230
1.0
  0
CIRCLE
  8
0
  6
CONTINUOUS
 62
     7
  5
E9
 10
126.626867
 20
268.202882
 30
0.0
 40
4.0
210
0.0
220
0.0
230
1.0
  0
CIRCLE
  8
0
  6
CONTINUOUS
 62
     7
  5
EA
 10
226.626867
 20
314.702882
 30
0.0
 40
4.0
210
0.0
220
0.0
230
1.0
  0
CIRCLE
  8
0
  6
CONTINUOUS
 62
     7
  5
EB
 10
126.626867
 20
314.702882
 30
0.0
 40
4.0
210
0.0
220
0.0
230
1.0
  0
LINE
  8
0
  6
CONTINUOUS
 62
     7
  5
EC
 10
91.626867
 20
236.452882
 30
0.0
 11
261.626867
 21
236.452882
 31
0.0
  0
LINE
  8
0
  6
CONTINUOUS
 62
     7
  5
ED
 10
261.626867
 20
236.452882
 30
0.0
 11
261.626867
 21
346.452882
 31
0.0
  0
LINE
  8
0
  6
CONTINUOUS
 62
     7
  5
EE
 10
261.626867
 20
346.452882
 30
0.0
 11
91.626867
 21
346.452882
 31
0.0
  0
LINE
  8
0
  6
CONTINUOUS
 62
     7
  5
EF
 10
91.626867
 20
346.452882
 30
0.0
 11
91.626867
 21
236.452882
 31
0.0
  0
CIRCLE
  8
0
  6
CONTINUOUS
 62
     7
  5
F0
 10
126.626867
 20
314.702882
 30
0.0
 40
3.3235
210
0.0
220
0.0
230
1.0
  0
CIRCLE
  8
0
  6
CONTINUOUS
 62
     7
  5
F1
 10
226.626867
 20
314.702882
 30
0.0
 40
3.3235
210
0.0
220
0.0
230
1.0
  0
CIRCLE
  8
0
  6
CONTINUOUS
 62
     7
  5
F2
 10
126.626867
 20
268.202882
 30
0.0
 40
3.3235
210
0.0
220
0.0
230
1.0
  0
CIRCLE
  8
0
  6
CONTINUOUS
 62
     7
  5
F3
 10
226.626867
 20
268.202882
 30
0.0
 40
3.3235
210
0.0
220
0.0
230
1.0
  0
LINE
  8
0
  6
CONTINUOUS
 62
     7
  5
F4
 10
365.526867
 20
343.952882
 30
0.0
 11
363.126867
 21
343.952882
 31
0.0
  0
LINE
  8
0
  6
CONTINUOUS
 62
     7
  5
F5
 10
363.126867
 20
318.952882
 30
0.0
 11
365.526867
 21
318.952882
 31
0.0
  0
LINE
  8
0
  6
CONTINUOUS
 62
     7
  5
F6
 10
365.526867
 20
318.952882
 30
0.0
 11
366.126867
 21
319.552882
 31
0.0
  0
LINE
  8
0
  6
CONTINUOUS
 62
     7
  5
F7
 10
366.126867
 20
343.352882
 30
0.0
 11
365.526867
 21
343.952882
 31
0.0
  0
LINE
  8
0
  6
CONTINUOUS
 62
     7
  5
F8
 10
365.526867
 20
263.952882
 30
0.0
 11
363.126867
 21
263.952882
 31
0.0
  0
LINE
  8
0
  6
CONTINUOUS
 62
     7
  5
F9
 10
363.126867
 20
238.952882
 30
0.0
 11
365.526867
 21
238.952882
 31
0.0
  0
LINE
  8
0
  6
CONTINUOUS
 62
     7
  5
FA
 10
365.526867
 20
238.952882
 30
0.0
 11
366.126867
 21
239.552882
 31
0.0
  0
LINE
  8
0
  6
CONTINUOUS
 62
     7
  5
FB
 10
366.126867
 20
263.352882
 30
0.0
 11
365.526867
 21
263.952882
 31
0.0
  0
LINE
  8
0
  6
CONTINUOUS
 62
     7
  5
FC
 10
90.926867
 20
300.702882
 30
0.0
 11
85.626867
 21
300.702882
 31
0.0
  0
LINE
  8
0
  6
CONTINUOUS
 62
     7
  5
FD
 10
85.626867
 20
282.202882
 30
0.0
 11
90.926867
 21
282.202882
 31
0.0
  0
LINE
  8
0
  6
CONTINUOUS
 62
     7
  5
FE
 10
363.126867
 20
339.452882
 30
0.0
 11
261.626867
 21
339.452882
 31
0.0
  0
LINE
  8
0
  6
CONTINUOUS
 62
     7
  5
FF
 10
91.626867
 20
339.452882
 30
0.0
 11
85.626867
 21
339.452882
 31
0.0
  0
LINE
  8
0
  6
CONTINUOUS
 62
     7
  5
100
 10
85.626867
 20
323.452882
 30
0.0
 11
91.626867
 21
323.452882
 31
0.0
  0
LINE
  8
0
  6
CONTINUOUS
 62
     7
  5
101
 10
261.626867
 20
323.452882
 30
0.0
 11
363.126867
 21
323.452882
 31
0.0
  0
LINE
  8
0
  6
CONTINUOUS
 62
     7
  5
102
 10
363.126867
 20
259.452882
 30
0.0
 11
261.626867
 21
259.452882
 31
0.0
  0
LINE
  8
0
  6
CONTINUOUS
 62
     7
  5
103
 10
91.626867
 20
259.452882
 30
0.0
 11
85.626867
 21
259.452882
 31
0.0
  0
LINE
  8
0
  6
CONTINUOUS
 62
     7
  5
104
 10
85.626867
 20
243.452882
 30
0.0
 11
91.626867
 21
243.452882
 31
0.0
  0
LINE
  8
0
  6
CONTINUOUS
 62
     7
  5
105
 10
261.626867
 20
243.452882
 30
0.0
 11
363.126867
 21
243.452882
 31
0.0
  0
LINE
  8
0
  6
CONTINUOUS
 62
     7
  5
106
 10
366.126867
 20
326.452882
 30
0.0
 11
372.126867
 21
326.452882
 31
0.0
  0
LINE
  8
0
  6
CONTINUOUS
 62
     7
  5
107
 10
372.126867
 20
336.452882
 30
0.0
 11
366.126867
 21
336.452882
 31
0.0
  0
LINE
  8
0
  6
CONTINUOUS
 62
     7
  5
108
 10
91.626867
 20
295.452882
 30
0.0
 11
90.926867
 21
295.452882
 31
0.0
  0
LINE
  8
0
  6
CONTINUOUS
 62
     7
  5
109
 10
90.926867
 20
287.452882
 30
0.0
 11
91.626867
 21
287.452882
 31
0.0
  0
LINE
  8
0
  6
CONTINUOUS
 62
     7
  5
10A
 10
366.126867
 20
246.452882
 30
0.0
 11
372.126867
 21
246.452882
 31
0.0
  0
LINE
  8
0
  6
CONTINUOUS
 62
     7
  5
10B
 10
372.126867
 20
256.452882
 30
0.0
 11
366.126867
 21
256.452882
 31
0.0
  0
LINE
  8
0
  6
CONTINUOUS
 62
     7
  5
10C
 10
91.626867
 20
275.952882
 30
0.0
 11
85.626867
 21
275.952882
 31
0.0
  0
LINE
  8
0
  6
CONTINUOUS
 62
     7
  5
10D
 10
85.626867
 20
263.952882
 30
0.0
 11
91.626867
 21
263.952882
 31
0.0
  0
ENDBLK
  8
0
  5
10E
  0
BLOCK
  8
0
  5
111
  2
AID463
 70
     0
 10
0.0
 20
0.0
 30
0.0
  3
#auxiliary draft view
  0
LINE
  8
0
  6
CONTINUOUS
 62
     7
  5
112
 10
-90.422378
 20
155.680402
 30
0.0
 11
-88.979002
 21
153.180402
 31
0.0
  0
LINE
  8
0
  6
CONTINUOUS
 62
     7
  5
113
 10
-90.422378
 20
150.680402
 30
0.0
 11
-93.309129
 21
150.680402
 31
0.0
  0
LINE
  8
0
  6
CONTINUOUS
 62
     7
  5
114
 10
-93.309129
 20
150.680402
 30
0.0
 11
-94.752505
 21
153.180402
 31
0.0
  0
LINE
  8
0
  6
CONTINUOUS
 62
     7
  5
115
 10
-94.752505
 20
153.180402
 30
0.0
 11
-93.309129
 21
155.680402
 31
0.0
  0
LINE
  8
0
  6
CONTINUOUS
 62
     7
  5
116
 10
-93.309129
 20
155.680402
 30
0.0
 11
-90.422378
 21
155.680402
 31
0.0
  0
CIRCLE
  8
0
  6
CONTINUOUS
 62
     7
  5
117
 10
-91.865753
 20
153.180402
 30
0.0
 40
5.0
210
0.0
220
0.0
230
1.0
  0
LINE
  8
0
  6
CONTINUOUS
 62
     7
  5
118
 10
-88.979002
 20
153.180402
 30
0.0
 11
-90.422378
 21
150.680402
 31
0.0
  0
LINE
  8
0
  6
CONTINUOUS
 62
     7
  5
119
 10
-10.422378
 20
157.680402
 30
0.0
 11
-8.979002
 21
155.180402
 31
0.0
  0
LINE
  8
0
  6
CONTINUOUS
 62
     7
  5
11A
 10
-13.309129
 20
157.680402
 30
0.0
 11
-10.422378
 21
157.680402
 31
0.0
  0
CIRCLE
  8
0
  6
CONTINUOUS
 62
     7
  5
11B
 10
-11.865753
 20
155.180402
 30
0.0
 40
5.0
210
0.0
220
0.0
230
1.0
  0
LINE
  8
0
  6
CONTINUOUS
 62
     7
  5
11C
 10
-8.979002
 20
155.180402
 30
0.0
 11
-10.422378
 21
152.680402
 31
0.0
  0
LINE
  8
0
  6
CONTINUOUS
 62
     7
  5
11D
 10
-10.422378
 20
152.680402
 30
0.0
 11
-13.309129
 21
152.680402
 31
0.0
  0
LINE
  8
0
  6
CONTINUOUS
 62
     7
  5
11E
 10
-13.309129
 20
152.680402
 30
0.0
 11
-14.752505
 21
155.180402
 31
0.0
  0
LINE
  8
0
  6
CONTINUOUS
 62
     7
  5
11F
 10
-14.752505
 20
155.180402
 30
0.0
 11
-13.309129
 21
157.680402
 31
0.0
  0
CIRCLE
  8
0
  6
CONTINUOUS
 62
     7
  5
120
 10
-11.865753
 20
155.180402
 30
0.0
 40
11.9
210
0.0
220
0.0
230
1.0
  0
CIRCLE
  8
0
  6
CONTINUOUS
 62
     7
  5
121
 10
-11.865753
 20
155.180402
 30
0.0
 40
12.5
210
0.0
220
0.0
230
1.0
  0
CIRCLE
  8
0
  6
CONTINUOUS
 62
     7
  5
122
 10
-91.865753
 20
153.180402
 30
0.0
 40
11.9
210
0.0
220
0.0
230
1.0
  0
CIRCLE
  8
0
  6
CONTINUOUS
 62
     7
  5
123
 10
-91.865753
 20
153.180402
 30
0.0
 40
12.5
210
0.0
220
0.0
230
1.0
  0
CIRCLE
  8
0
  6
CONTINUOUS
 62
     7
  5
124
 10
-51.865753
 20
154.180402
 30
0.0
 40
3.6
210
0.0
220
0.0
230
1.0
  0
CIRCLE
  8
0
  6
CONTINUOUS
 62
     7
  5
125
 10
-51.865753
 20
154.180402
 30
0.0
 40
4.0
210
0.0
220
0.0
230
1.0
  0
CIRCLE
  8
0
  6
CONTINUOUS
 62
     7
  5
126
 10
-51.865753
 20
154.180402
 30
0.0
 40
9.25
210
0.0
220
0.0
230
1.0
  0
LINE
  8
0
  6
CONTINUOUS
 62
     7
  5
127
 10
-84.065753
 20
175.180402
 30
0.0
 11
-86.665753
 21
175.180402
 31
0.0
  0
LINE
  8
0
  6
CONTINUOUS
 62
     7
  5
128
 10
-91.165753
 20
175.180402
 30
0.0
 11
-93.765753
 21
175.180402
 31
0.0
  0
LINE
  8
0
  6
CONTINUOUS
 62
     7
  5
129
 10
-98.265753
 20
175.180402
 30
0.0
 11
-100.865753
 21
175.180402
 31
0.0
  0
LINE
  8
0
  6
CONTINUOUS
 62
     7
  5
12A
 10
-56.065753
 20
176.180402
 30
0.0
 11
-47.665753
 21
176.180402
 31
0.0
  0
ARC
  8
0
  6
CONTINUOUS
 62
     7
  5
12B
 10
-56.065753
 20
170.180402
 30
0.0
 40
6.0
 50
90.0
 51
180.0
210
0.0
220
0.0
230
1.0
  0
LINE
  8
0
  6
CONTINUOUS
 62
     7
  5
12C
 10
-62.065753
 20
169.614455
 30
0.0
 11
-62.065753
 21
170.180402
 31
0.0
  0
LINE
  8
0
  6
CONTINUOUS
 62
     7
  5
12D
 10
-41.665753
 20
170.180402
 30
0.0
 11
-41.665753
 21
169.614455
 31
0.0
  0
ARC
  8
0
  6
CONTINUOUS
 62
     7
  5
12E
 10
-47.665753
 20
170.180402
 30
0.0
 40
6.0
 50
360.0
 51
90.0
210
0.0
220
0.0
230
1.0
  0
LINE
  8
0
  6
CONTINUOUS
 62
     7
  5
12F
 10
-17.065753
 20
177.180402
 30
0.0
 11
-17.065753
 21
171.180402
 31
0.0
  0
LINE
  8
0
  6
CONTINUOUS
 62
     7
  5
130
 10
-12.565753
 20
171.180402
 30
0.0
 11
-12.565753
 21
177.180402
 31
0.0
  0
LINE
  8
0
  6
CONTINUOUS
 62
     7
  5
131
 10
-9.965753
 20
177.180402
 30
0.0
 11
-9.965753
 21
171.180402
 31
0.0
  0
LINE
  8
0
  6
CONTINUOUS
 62
     7
  5
132
 10
-5.465753
 20
177.180402
 30
0.0
 11
-9.965753
 21
177.180402
 31
0.0
  0
LINE
  8
0
  6
CONTINUOUS
 62
     7
  5
133
 10
1.134247
 20
177.180402
 30
0.0
 11
-2.865753
 21
177.180402
 31
0.0
  0
LINE
  8
0
  6
CONTINUOUS
 62
     7
  5
134
 10
3.134247
 20
175.180402
 30
0.0
 11
1.134247
 21
177.180402
 31
0.0
  0
LINE
  8
0
  6
CONTINUOUS
 62
     7
  5
135
 10
3.134247
 20
175.180402
 30
0.0
 11
3.134247
 21
131.180402
 31
0.0
  0
LINE
  8
0
  6
CONTINUOUS
 62
     7
  5
136
 10
3.134247
 20
131.180402
 30
0.0
 11
-106.865753
 21
131.180402
 31
0.0
  0
LINE
  8
0
  6
CONTINUOUS
 62
     7
  5
137
 10
-106.865753
 20
175.180402
 30
0.0
 11
-106.865753
 21
131.180402
 31
0.0
  0
LINE
  8
0
  6
CONTINUOUS
 62
     7
  5
138
 10
-104.865753
 20
177.180402
 30
0.0
 11
-106.865753
 21
175.180402
 31
0.0
  0
LINE
  8
0
  6
CONTINUOUS
 62
     7
  5
139
 10
-100.865753
 20
177.180402
 30
0.0
 11
-104.865753
 21
177.180402
 31
0.0
  0
LINE
  8
0
  6
CONTINUOUS
 62
     7
  5
13A
 10
-100.865753
 20
171.180402
 30
0.0
 11
-100.865753
 21
177.180402
 31
0.0
  0
LINE
  8
0
  6
CONTINUOUS
 62
     7
  5
13B
 10
-98.265753
 20
177.180402
 30
0.0
 11
-98.265753
 21
171.180402
 31
0.0
  0
LINE
  8
0
  6
CONTINUOUS
 62
     7
  5
13C
 10
-93.765753
 20
171.180402
 30
0.0
 11
-93.765753
 21
177.180402
 31
0.0
  0
LINE
  8
0
  6
CONTINUOUS
 62
     7
  5
13D
 10
-91.165753
 20
171.180402
 30
0.0
 11
-93.765753
 21
171.180402
 31
0.0
  0
LINE
  8
0
  6
CONTINUOUS
 62
     7
  5
13E
 10
-86.665753
 20
177.180402
 30
0.0
 11
-91.165753
 21
177.180402
 31
0.0
  0
LINE
  8
0
  6
CONTINUOUS
 62
     7
  5
13F
 10
-86.665753
 20
171.180402
 30
0.0
 11
-86.665753
 21
177.180402
 31
0.0
  0
LINE
  8
0
  6
CONTINUOUS
 62
     7
  5
140
 10
-84.065753
 20
177.180402
 30
0.0
 11
-84.065753
 21
171.180402
 31
0.0
  0
LINE
  8
0
  6
CONTINUOUS
 62
     7
  5
141
 10
-19.665753
 20
177.180402
 30
0.0
 11
-84.065753
 21
177.180402
 31
0.0
  0
LINE
  8
0
  6
CONTINUOUS
 62
     7
  5
142
 10
-9.965753
 20
171.180402
 30
0.0
 11
-12.565753
 21
171.180402
 31
0.0
  0
LINE
  8
0
  6
CONTINUOUS
 62
     7
  5
143
 10
-5.465753
 20
171.180402
 30
0.0
 11
-5.465753
 21
177.180402
 31
0.0
  0
LINE
  8
0
  6
CONTINUOUS
 62
     7
  5
144
 10
-84.065753
 20
171.180402
 30
0.0
 11
-86.665753
 21
171.180402
 31
0.0
  0
LINE
  8
0
  6
CONTINUOUS
 62
     7
  5
145
 10
-17.065753
 20
171.180402
 30
0.0
 11
-19.665753
 21
171.180402
 31
0.0
  0
LINE
  8
0
  6
CONTINUOUS
 62
     7
  5
146
 10
-2.865753
 20
177.180402
 30
0.0
 11
-2.865753
 21
171.180402
 31
0.0
  0
LINE
  8
0
  6
CONTINUOUS
 62
     7
  5
147
 10
-19.665753
 20
171.180402
 30
0.0
 11
-19.665753
 21
177.180402
 31
0.0
  0
LINE
  8
0
  6
CONTINUOUS
 62
     7
  5
148
 10
-2.865753
 20
171.180402
 30
0.0
 11
-5.465753
 21
171.180402
 31
0.0
  0
LINE
  8
0
  6
CONTINUOUS
 62
     7
  5
149
 10
-93.765753
 20
177.180402
 30
0.0
 11
-98.265753
 21
177.180402
 31
0.0
  0
LINE
  8
0
  6
CONTINUOUS
 62
     7
  5
14A
 10
-12.565753
 20
177.180402
 30
0.0
 11
-17.065753
 21
177.180402
 31
0.0
  0
ARC
  8
0
  6
CONTINUOUS
 62
     7
  5
14B
 10
-51.865753
 20
154.180402
 30
0.0
 40
18.5
 50
123.459771
 51
56.540229
210
0.0
220
0.0
230
1.0
  0
LINE
  8
0
  6
CONTINUOUS
 62
     7
  5
14C
 10
-91.165753
 20
177.180402
 30
0.0
 11
-91.165753
 21
171.180402
 31
0.0
  0
LINE
  8
0
  6
CONTINUOUS
 62
     7
  5
14D
 10
-98.265753
 20
171.180402
 30
0.0
 11
-100.865753
 21
171.180402
 31
0.0
  0
LINE
  8
0
  6
CONTINUOUS
 62
     7
  5
14E
 10
-45.365753
 20
171.50091
 30
0.0
 11
-45.365753
 21
175.722063
 31
0.0
  0
ARC
  8
0
  6
CONTINUOUS
 62
     7
  5
14F
 10
-51.865753
 20
154.180402
 30
0.0
 40
18.5
 50
56.540229
 51
69.430008
210
0.0
220
0.0
230
1.0
  0
LINE
  8
0
  6
CONTINUOUS
 62
     7
  5
150
 10
-58.365753
 20
175.722063
 30
0.0
 11
-58.365753
 21
171.50091
 31
0.0
  0
ARC
  8
0
  6
CONTINUOUS
 62
     7
  5
151
 10
-51.865753
 20
154.180402
 30
0.0
 40
18.5
 50
110.569992
 51
123.459771
210
0.0
220
0.0
230
1.0
  0
LINE
  8
0
  6
CONTINUOUS
 62
     7
  5
152
 10
-25.865753
 20
178.680402
 30
0.0
 11
-11.865753
 21
178.680402
 31
0.0
  0
LINE
  8
0
  6
CONTINUOUS
 62
     7
  5
153
 10
-19.665753
 20
177.180402
 30
0.0
 11
-17.065753
 21
177.180402
 31
0.0
  0
LINE
  8
0
  6
CONTINUOUS
 62
     7
  5
154
 10
1.134247
 20
177.180402
 30
0.0
 11
2.134247
 21
177.180402
 31
0.0
  0
LINE
  8
0
  6
CONTINUOUS
 62
     7
  5
155
 10
-5.465753
 20
177.180402
 30
0.0
 11
-2.865753
 21
177.180402
 31
0.0
  0
LINE
  8
0
  6
CONTINUOUS
 62
     7
  5
156
 10
-12.565753
 20
177.180402
 30
0.0
 11
-9.965753
 21
177.180402
 31
0.0
  0
LINE
  8
0
  6
CONTINUOUS
 62
     7
  5
157
 10
-11.865753
 20
178.680402
 30
0.0
 11
2.134247
 21
178.680402
 31
0.0
  0
LINE
  8
0
  6
CONTINUOUS
 62
     7
  5
158
 10
-58.022608
 20
171.625835
 30
0.0
 11
-58.022608
 21
170.026321
 31
0.0
  0
LINE
  8
0
  6
CONTINUOUS
 62
     9
  5
159
 10
-52.365753
 20
176.180402
 30
0.0
 11
-52.365753
 21
171.173048
 31
0.0
  0
ARC
  8
0
  6
CONTINUOUS
 62
     7
  5
15A
 10
-51.865645
 20
154.179869
 30
0.0
 40
17.000536
 50
91.685724
 51
111.233083
210
0.0
220
0.0
230
1.0
  0
LINE
  8
0
  6
CONTINUOUS
 62
     7
  5
15B
 10
-58.365753
 20
171.50091
 30
0.0
 11
-58.022608
 21
171.625835
 31
0.0
  0
LINE
  8
0
  6
CONTINUOUS
 62
     9
  5
15C
 10
-51.365753
 20
176.180402
 30
0.0
 11
-51.365753
 21
171.173048
 31
0.0
  0
LINE
  8
0
  6
CONTINUOUS
 62
     7
  5
15D
 10
-45.708899
 20
170.026321
 30
0.0
 11
-45.708899
 21
171.625835
 31
0.0
  0
ARC
  8
0
  6
CONTINUOUS
 62
     7
  5
15E
 10
-51.865936
 20
154.179502
 30
0.0
 40
17.000905
 50
68.767132
 51
88.314062
210
0.0
220
0.0
230
0.9999999999999999
  0
LINE
  8
0
  6
CONTINUOUS
 62
     7
  5
15F
 10
-45.708899
 20
171.625835
 30
0.0
 11
-45.365753
 21
171.50091
 31
0.0
  0
ARC
  8
0
  6
CONTINUOUS
 62
     7
  5
160
 10
-51.865753
 20
154.180402
 30
0.0
 40
17.0
 50
111.233394
 51
68.766606
210
0.0
220
0.0
230
1.0
  0
ARC
  8
0
  6
CONTINUOUS
 62
     7
  5
161
 10
-51.865753
 20
154.180402
 30
0.0
 40
17.0
 50
88.314587
 51
91.685413
210
0.0
220
0.0
230
1.0
  0
LINE
  8
0
  6
CONTINUOUS
 62
     7
  5
162
 10
2.134247
 20
177.180402
 30
0.0
 11
2.134247
 21
178.680402
 31
0.0
  0
LINE
  8
0
  6
CONTINUOUS
 62
     7
  5
163
 10
-25.865753
 20
178.680402
 30
0.0
 11
-25.865753
 21
177.180402
 31
0.0
  0
ENDBLK
  8
0
  5
164
  0
BLOCK
  8
0
  5
167
  2
AID637
 70
     0
 10
0.0
 20
0.0
 30
0.0
  3
#auxiliary draft view
  0
CIRCLE
  8
0
  6
CONTINUOUS
 62
     7
  5
168
 10
538.329203
 20
140.180402
 30
0.0
 40
2.459
210
0.0
220
0.0
230
1.0
  0
CIRCLE
  8
0
  6
CONTINUOUS
 62
     7
  5
169
 10
538.329203
 20
140.180402
 30
0.0
 40
3.0
210
0.0
220
0.0
230
1.0
  0
CIRCLE
  8
0
  6
CONTINUOUS
 62
     7
  5
16A
 10
538.329203
 20
168.180402
 30
0.0
 40
2.459
210
0.0
220
0.0
230
1.0
  0
CIRCLE
  8
0
  6
CONTINUOUS
 62
     7
  5
16B
 10
538.329203
 20
168.180402
 30
0.0
 40
3.0
210
0.0
220
0.0
230
1.0
  0
CIRCLE
  8
0
  6
CONTINUOUS
 62
     7
  5
16C
 10
470.329203
 20
140.180402
 30
0.0
 40
2.459
210
0.0
220
0.0
230
1.0
  0
CIRCLE
  8
0
  6
CONTINUOUS
 62
     7
  5
16D
 10
470.329203
 20
140.180402
 30
0.0
 40
3.0
210
0.0
220
0.0
230
1.0
  0
CIRCLE
  8
0
  6
CONTINUOUS
 62
     7
  5
16E
 10
470.329203
 20
168.180402
 30
0.0
 40
3.0
210
0.0
220
0.0
230
1.0
  0
CIRCLE
  8
0
  6
CONTINUOUS
 62
     7
  5
16F
 10
519.329203
 20
169.180402
 30
0.0
 40
3.3
210
0.0
220
0.0
230
1.0
  0
CIRCLE
  8
0
  6
CONTINUOUS
 62
     7
  5
170
 10
519.329203
 20
154.180402
 30
0.0
 40
2.51
210
0.0
220
0.0
230
1.0
  0
LINE
  8
0
  6
CONTINUOUS
 62
     7
  5
171
 10
452.329203
 20
175.180402
 30
0.0
 11
556.329203
 21
175.180402
 31
0.0
  0
LINE
  8
0
  6
CONTINUOUS
 62
     7
  5
172
 10
556.329203
 20
133.180402
 30
0.0
 11
452.329203
 21
133.180402
 31
0.0
  0
CIRCLE
  8
0
  6
CONTINUOUS
 62
     7
  5
173
 10
504.329203
 20
169.180402
 30
0.0
 40
2.51
210
0.0
220
0.0
230
1.0
  0
CIRCLE
  8
0
  6
CONTINUOUS
 62
     7
  5
174
 10
481.079203
 20
154.180402
 30
0.0
 40
2.51
210
0.0
220
0.0
230
1.0
  0
CIRCLE
  8
0
  6
CONTINUOUS
 62
     7
  5
175
 10
489.329203
 20
154.180402
 30
0.0
 40
2.51
210
0.0
220
0.0
230
1.0
  0
LINE
  8
0
  6
CONTINUOUS
 62
     7
  5
176
 10
556.329203
 20
175.180402
 30
0.0
 11
556.329203
 21
133.180402
 31
0.0
  0
CIRCLE
  8
0
  6
CONTINUOUS
 62
     7
  5
177
 10
504.329203
 20
139.180402
 30
0.0
 40
2.51
210
0.0
220
0.0
230
1.0
  0
CIRCLE
  8
0
  6
CONTINUOUS
 62
     7
  5
178
 10
519.329203
 20
139.180402
 30
0.0
 40
3.3
210
0.0
220
0.0
230
1.0
  0
CIRCLE
  8
0
  6
CONTINUOUS
 62
     7
  5
179
 10
527.579203
 20
154.180402
 30
0.0
 40
2.51
210
0.0
220
0.0
230
1.0
  0
CIRCLE
  8
0
  6
CONTINUOUS
 62
     7
  5
17A
 10
504.329203
 20
154.180402
 30
0.0
 40
10.0
210
0.0
220
0.0
230
1.0
  0
CIRCLE
  8
0
  6
CONTINUOUS
 62
     7
  5
17B
 10
489.329203
 20
139.180402
 30
0.0
 40
3.3
210
0.0
220
0.0
230
1.0
  0
LINE
  8
0
  6
CONTINUOUS
 62
     7
  5
17C
 10
452.329203
 20
133.180402
 30
0.0
 11
452.329203
 21
175.180402
 31
0.0
  0
CIRCLE
  8
0
  6
CONTINUOUS
 62
     7
  5
17D
 10
470.329203
 20
168.180402
 30
0.0
 40
2.459
210
0.0
220
0.0
230
1.0
  0
LINE
  8
0
  6
CONTINUOUS
 62
     7
  5
17E
 10
501.829203
 20
155.623778
 30
0.0
 11
501.829203
 21
152.737026
 31
0.0
  0
LINE
  8
0
  6
CONTINUOUS
 62
     7
  5
17F
 10
501.829203
 20
152.737026
 30
0.0
 11
504.329203
 21
151.293651
 31
0.0
  0
LINE
  8
0
  6
CONTINUOUS
 62
     7
  5
180
 10
506.829203
 20
152.737026
 30
0.0
 11
506.829203
 21
155.623778
 31
0.0
  0
CIRCLE
  8
0
  6
CONTINUOUS
 62
     7
  5
181
 10
504.329203
 20
154.180402
 30
0.0
 40
3.75
210
0.0
220
0.0
230
1.0
  0
LINE
  8
0
  6
CONTINUOUS
 62
     7
  5
182
 10
504.329203
 20
157.067153
 30
0.0
 11
501.829203
 21
155.623778
 31
0.0
  0
LINE
  8
0
  6
CONTINUOUS
 62
     7
  5
183
 10
504.329203
 20
151.293651
 30
0.0
 11
506.829203
 21
152.737026
 31
0.0
  0
LINE
  8
0
  6
CONTINUOUS
 62
     7
  5
184
 10
506.829203
 20
155.623778
 30
0.0
 11
504.329203
 21
157.067153
 31
0.0
  0
CIRCLE
  8
0
  6
CONTINUOUS
 62
     7
  5
185
 10
504.329203
 20
154.180402
 30
0.0
 40
7.0
210
0.0
220
0.0
230
1.0
  0
CIRCLE
  8
0
  6
CONTINUOUS
 62
     7
  5
186
 10
504.329203
 20
154.180402
 30
0.0
 40
9.25
210
0.0
220
0.0
230
1.0
  0
LINE
  8
0
  6
CONTINUOUS
 62
     7
  5
187
 10
536.529203
 20
175.180402
 30
0.0
 11
536.529203
 21
177.180402
 31
0.0
  0
LINE
  8
0
  6
CONTINUOUS
 62
     7
  5
188
 10
543.629203
 20
177.180402
 30
0.0
 11
539.129203
 21
177.180402
 31
0.0
  0
LINE
  8
0
  6
CONTINUOUS
 62
     7
  5
189
 10
543.629203
 20
175.180402
 30
0.0
 11
543.629203
 21
177.180402
 31
0.0
  0
LINE
  8
0
  6
CONTINUOUS
 62
     7
  5
18A
 10
550.729203
 20
177.180402
 30
0.0
 11
546.229203
 21
177.180402
 31
0.0
  0
LINE
  8
0
  6
CONTINUOUS
 62
     7
  5
18B
 10
550.729203
 20
175.180402
 30
0.0
 11
550.729203
 21
177.180402
 31
0.0
  0
LINE
  8
0
  6
CONTINUOUS
 62
     7
  5
18C
 10
553.329203
 20
177.180402
 30
0.0
 11
553.329203
 21
175.180402
 31
0.0
  0
LINE
  8
0
  6
CONTINUOUS
 62
     7
  5
18D
 10
455.329203
 20
175.180402
 30
0.0
 11
455.329203
 21
177.180402
 31
0.0
  0
LINE
  8
0
  6
CONTINUOUS
 62
     7
  5
18E
 10
462.429203
 20
175.180402
 30
0.0
 11
462.429203
 21
177.180402
 31
0.0
  0
LINE
  8
0
  6
CONTINUOUS
 62
     7
  5
18F
 10
469.529203
 20
177.180402
 30
0.0
 11
465.029203
 21
177.180402
 31
0.0
  0
LINE
  8
0
  6
CONTINUOUS
 62
     7
  5
190
 10
469.529203
 20
175.180402
 30
0.0
 11
469.529203
 21
177.180402
 31
0.0
  0
LINE
  8
0
  6
CONTINUOUS
 62
     7
  5
191
 10
536.529203
 20
177.180402
 30
0.0
 11
472.129203
 21
177.180402
 31
0.0
  0
LINE
  8
0
  6
CONTINUOUS
 62
     7
  5
192
 10
449.329203
 20
175.180402
 30
0.0
 11
449.329203
 21
131.180402
 31
0.0
  0
LINE
  8
0
  6
CONTINUOUS
 62
     7
  5
193
 10
472.129203
 20
177.180402
 30
0.0
 11
472.129203
 21
175.180402
 31
0.0
  0
LINE
  8
0
  6
CONTINUOUS
 62
     7
  5
194
 10
451.329203
 20
177.180402
 30
0.0
 11
449.329203
 21
175.180402
 31
0.0
  0
LINE
  8
0
  6
CONTINUOUS
 62
     7
  5
195
 10
559.329203
 20
175.180402
 30
0.0
 11
557.329203
 21
177.180402
 31
0.0
  0
LINE
  8
0
  6
CONTINUOUS
 62
     7
  5
196
 10
462.429203
 20
177.180402
 30
0.0
 11
457.929203
 21
177.180402
 31
0.0
  0
LINE
  8
0
  6
CONTINUOUS
 62
     7
  5
197
 10
465.029203
 20
177.180402
 30
0.0
 11
465.029203
 21
175.180402
 31
0.0
  0
LINE
  8
0
  6
CONTINUOUS
 62
     7
  5
198
 10
455.329203
 20
177.180402
 30
0.0
 11
451.329203
 21
177.180402
 31
0.0
  0
LINE
  8
0
  6
CONTINUOUS
 62
     7
  5
199
 10
559.329203
 20
175.180402
 30
0.0
 11
559.329203
 21
131.180402
 31
0.0
  0
LINE
  8
0
  6
CONTINUOUS
 62
     7
  5
19A
 10
559.329203
 20
131.180402
 30
0.0
 11
449.329203
 21
131.180402
 31
0.0
  0
LINE
  8
0
  6
CONTINUOUS
 62
     7
  5
19B
 10
539.129203
 20
177.180402
 30
0.0
 11
539.129203
 21
175.180402
 31
0.0
  0
LINE
  8
0
  6
CONTINUOUS
 62
     7
  5
19C
 10
457.929203
 20
177.180402
 30
0.0
 11
457.929203
 21
175.180402
 31
0.0
  0
LINE
  8
0
  6
CONTINUOUS
 62
     7
  5
19D
 10
546.229203
 20
177.180402
 30
0.0
 11
546.229203
 21
175.180402
 31
0.0
  0
LINE
  8
0
  6
CONTINUOUS
 62
     7
  5
19E
 10
557.329203
 20
177.180402
 30
0.0
 11
553.329203
 21
177.180402
 31
0.0
  0
LINE
  8
0
  6
CONTINUOUS
 62
     7
  5
19F
 10
450.329203
 20
177.180402
 30
0.0
 11
451.329203
 21
177.180402
 31
0.0
  0
LINE
  8
0
  6
CONTINUOUS
 62
     7
  5
1A0
 10
450.329203
 20
178.680402
 30
0.0
 11
478.329203
 21
178.680402
 31
0.0
  0
LINE
  8
0
  6
CONTINUOUS
 62
     7
  5
1A1
 10
469.529203
 20
177.180402
 30
0.0
 11
472.129203
 21
177.180402
 31
0.0
  0
LINE
  8
0
  6
CONTINUOUS
 62
     7
  5
1A2
 10
462.429203
 20
177.180402
 30
0.0
 11
465.029203
 21
177.180402
 31
0.0
  0
LINE
  8
0
  6
CONTINUOUS
 62
     7
  5
1A3
 10
455.329203
 20
177.180402
 30
0.0
 11
457.929203
 21
177.180402
 31
0.0
  0
LINE
  8
0
  6
CONTINUOUS
 62
     7
  5
1A4
 10
478.329203
 20
177.180402
 30
0.0
 11
478.329203
 21
178.680402
 31
0.0
  0
LINE
  8
0
  6
CONTINUOUS
 62
     7
  5
1A5
 10
450.329203
 20
178.680402
 30
0.0
 11
450.329203
 21
177.180402
 31
0.0
  0
ENDBLK
  8
0
  5
1A6
  0
ENDSEC
  0
SECTION
  2
ENTITIES
  0
INSERT
  8
0
  5
50
  2
AID3
 10
0.0
 20
0.0
 30
0.0
  0
INSERT
  8
0
  5
CE
  2
AID89
 10
0.0
 20
0.0
 30
0.0
  0
INSERT
  8
0
  5
10F
  2
AID337
 10
0.0
 20
0.0
 30
0.0
  0
INSERT
  8
0
  5
165
  2
AID463
 10
0.0
 20
0.0
 30
0.0
  0
INSERT
  8
0
  5
1A7
  2
AID637
 10
0.0
 20
0.0
 30
0.0
  0
LINE
  8
0
  6
CENTER
 62
     1
  5
1A9
 10
119.626867
 20
268.202882
 30
0.0
 11
133.626867
 21
268.202882
 31
0.0
  0
LINE
  8
0
  6
CENTER
 62
     1
  5
1AA
 10
126.626867
 20
261.202882
 30
0.0
 11
126.626867
 21
275.202882
 31
0.0
  0
LINE
  8
0
  6
CENTER
 62
     1
  5
1AB
 10
119.626867
 20
314.702882
 30
0.0
 11
133.626867
 21
314.702882
 31
0.0
  0
LINE
  8
0
  6
CENTER
 62
     1
  5
1AC
 10
126.626867
 20
307.702882
 30
0.0
 11
126.626867
 21
321.702882
 31
0.0
  0
LINE
  8
0
  6
CENTER
 62
     1
  5
1AD
 10
171.116867
 20
268.202882
 30
0.0
 11
182.136867
 21
268.202882
 31
0.0
  0
LINE
  8
0
  6
CENTER
 62
     1
  5
1AE
 10
171.116867
 20
314.702882
 30
0.0
 11
182.136867
 21
314.702882
 31
0.0
  0
LINE
  8
0
  6
CENTER
 62
     1
  5
1AF
 10
219.626867
 20
268.202882
 30
0.0
 11
233.626867
 21
268.202882
 31
0.0
  0
LINE
  8
0
  6
CENTER
 62
     1
  5
1B0
 10
226.626867
 20
261.202882
 30
0.0
 11
226.626867
 21
275.202882
 31
0.0
  0
LINE
  8
0
  6
CENTER
 62
     1
  5
1B1
 10
219.626867
 20
314.702882
 30
0.0
 11
233.626867
 21
314.702882
 31
0.0
  0
LINE
  8
0
  6
CENTER
 62
     1
  5
1B2
 10
226.626867
 20
307.702882
 30
0.0
 11
226.626867
 21
321.702882
 31
0.0
  0
LINE
  8
0
  6
CENTER
 62
     1
  5
1B3
 10
62.626867
 20
291.452882
 30
0.0
 11
303.226867
 21
291.452882
 31
0.0
  0
LINE
  8
0
  6
CENTER
 62
     1
  5
1B4
 10
464.329203
 20
140.180402
 30
0.0
 11
476.329203
 21
140.180402
 31
0.0
  0
LINE
  8
0
  6
CENTER
 62
     1
  5
1B5
 10
470.329203
 20
134.180402
 30
0.0
 11
470.329203
 21
146.180402
 31
0.0
  0
LINE
  8
0
  6
CENTER
 62
     1
  5
1B6
 10
464.329203
 20
168.180402
 30
0.0
 11
476.329203
 21
168.180402
 31
0.0
  0
LINE
  8
0
  6
CENTER
 62
     1
  5
1B7
 10
470.329203
 20
162.180402
 30
0.0
 11
470.329203
 21
174.180402
 31
0.0
  0
LINE
  8
0
  6
CENTER
 62
     1
  5
1B8
 10
481.079203
 20
148.670402
 30
0.0
 11
481.079203
 21
159.690402
 31
0.0
  0
LINE
  8
0
  6
CENTER
 62
     1
  5
1B9
 10
498.819203
 20
169.180402
 30
0.0
 11
509.839203
 21
169.180402
 31
0.0
  0
LINE
  8
0
  6
CENTER
 62
     1
  5
1BA
 10
513.029203
 20
169.180402
 30
0.0
 11
525.629203
 21
169.180402
 31
0.0
  0
LINE
  8
0
  6
CENTER
 62
     1
  5
1BB
 10
532.329203
 20
140.180402
 30
0.0
 11
544.329203
 21
140.180402
 31
0.0
  0
LINE
  8
0
  6
CENTER
 62
     1
  5
1BC
 10
538.329203
 20
134.180402
 30
0.0
 11
538.329203
 21
146.180402
 31
0.0
  0
LINE
  8
0
  6
CENTER
 62
     1
  5
1BD
 10
532.329203
 20
168.180402
 30
0.0
 11
544.329203
 21
168.180402
 31
0.0
  0
LINE
  8
0
  6
CENTER
 62
     1
  5
1BE
 10
538.329203
 20
162.180402
 30
0.0
 11
538.329203
 21
174.180402
 31
0.0
  0
LINE
  8
0
  6
CENTER
 62
     1
  5
1BF
 10
475.569203
 20
154.180402
 30
0.0
 11
533.089203
 21
154.180402
 31
0.0
  0
LINE
  8
0
  6
CENTER
 62
     1
  5
1C0
 10
504.329203
 20
133.670402
 30
0.0
 11
504.329203
 21
174.690402
 31
0.0
  0
LINE
  8
0
  6
CENTER
 62
     1
  5
1C1
 10
118.126867
 20
-7.809958
 30
0.0
 11
135.126867
 21
-7.809958
 31
0.0
  0
LINE
  8
0
  6
CENTER
 62
     1
  5
1C2
 10
126.626867
 20
-16.309958
 30
0.0
 11
126.626867
 21
0.690042
 31
0.0
  0
LINE
  8
0
  6
CENTER
 62
     1
  5
1C3
 10
118.126867
 20
38.690042
 30
0.0
 11
135.126867
 21
38.690042
 31
0.0
  0
LINE
  8
0
  6
CENTER
 62
     1
  5
1C4
 10
126.626867
 20
30.190042
 30
0.0
 11
126.626867
 21
47.190042
 31
0.0
  0
LINE
  8
0
  6
CENTER
 62
     1
  5
1C5
 10
154.126867
 20
-2.559958
 30
0.0
 11
165.126867
 21
-2.559958
 31
0.0
  0
LINE
  8
0
  6
CENTER
 62
     1
  5
1C6
 10
159.626867
 20
-8.059958
 30
0.0
 11
159.626867
 21
2.940042
 31
0.0
  0
LINE
  8
0
  6
CENTER
 62
     1
  5
1C7
 10
176.626867
 20
38.440042
 30
0.0
 11
176.626867
 21
72.440042
 31
0.0
  0
LINE
  8
0
  6
CENTER
 62
     1
  5
1C8
 10
178.126867
 20
-2.559958
 30
0.0
 11
189.126867
 21
-2.559958
 31
0.0
  0
LINE
  8
0
  6
CENTER
 62
     1
  5
1C9
 10
183.626867
 20
-8.059958
 30
0.0
 11
183.626867
 21
2.940042
 31
0.0
  0
LINE
  8
0
  6
CENTER
 62
     1
  5
1CA
 10
210.126867
 20
-4.559958
 30
0.0
 11
221.126867
 21
-4.559958
 31
0.0
  0
LINE
  8
0
  6
CENTER
 62
     1
  5
1CB
 10
215.626867
 20
-10.059958
 30
0.0
 11
215.626867
 21
0.940042
 31
0.0
  0
LINE
  8
0
  6
CENTER
 62
     1
  5
1CC
 10
210.126867
 20
35.440042
 30
0.0
 11
221.126867
 21
35.440042
 31
0.0
  0
LINE
  8
0
  6
CENTER
 62
     1
  5
1CD
 10
215.626867
 20
29.940042
 30
0.0
 11
215.626867
 21
40.940042
 31
0.0
  0
LINE
  8
0
  6
CENTER
 62
     1
  5
1CE
 10
218.126867
 20
-7.809958
 30
0.0
 11
235.126867
 21
-7.809958
 31
0.0
  0
LINE
  8
0
  6
CENTER
 62
     1
  5
1CF
 10
226.626867
 20
-16.309958
 30
0.0
 11
226.626867
 21
0.690042
 31
0.0
  0
LINE
  8
0
  6
CENTER
 62
     1
  5
1D0
 10
218.126867
 20
38.690042
 30
0.0
 11
235.126867
 21
38.690042
 31
0.0
  0
LINE
  8
0
  6
CENTER
 62
     1
  5
1D1
 10
226.626867
 20
30.190042
 30
0.0
 11
226.626867
 21
47.190042
 31
0.0
  0
LINE
  8
0
  6
CENTER
 62
     1
  5
1D2
 10
375.126867
 20
55.440042
 30
0.0
 11
82.626867
 21
55.440042
 31
0.0
  0
LINE
  8
0
  6
CENTER
 62
     1
  5
1D3
 10
82.626867
 20
15.440042
 30
0.0
 11
103.226867
 21
15.440042
 31
0.0
  0
LINE
  8
0
  6
CENTER
 62
     1
  5
1D4
 10
-11.865753
 20
181.680402
 30
0.0
 11
-11.865753
 21
174.180402
 31
0.0
  0
LINE
  8
0
  6
CENTER
 62
     1
  5
1D5
 10
-107.365753
 20
153.180402
 30
0.0
 11
-76.365753
 21
153.180402
 31
0.0
  0
LINE
  8
0
  6
CENTER
 62
     1
  5
1D6
 10
-91.865753
 20
137.680402
 30
0.0
 11
-91.865753
 21
168.680402
 31
0.0
  0
LINE
  8
0
  6
CENTER
 62
     1
  5
1D7
 10
-73.365753
 20
154.180402
 30
0.0
 11
-30.365753
 21
154.180402
 31
0.0
  0
LINE
  8
0
  6
CENTER
 62
     1
  5
1D8
 10
-51.865753
 20
127.680402
 30
0.0
 11
-51.865753
 21
180.680402
 31
0.0
  0
LINE
  8
0
  6
CENTER
 62
     1
  5
1D9
 10
-27.365753
 20
155.180402
 30
0.0
 11
3.634247
 21
155.180402
 31
0.0
  0
LINE
  8
0
  6
CENTER
 62
     1
  5
1DA
 10
-11.865753
 20
139.680402
 30
0.0
 11
-11.865753
 21
170.680402
 31
0.0
  0
LINE
  8
0
  6
CENTER
 62
     1
  5
1DB
 10
67.626867
 20
154.180402
 30
0.0
 11
88.626867
 21
154.180402
 31
0.0
  0
LINE
  8
0
  6
CENTER
 62
     1
  5
1DC
 10
176.626867
 20
178.180402
 30
0.0
 11
176.626867
 21
128.180402
 31
0.0
  0
LINE
  8
0
  6
CENTER
 62
     1
  5
1DD
 10
176.626867
 20
262.692882
 30
0.0
 11
176.626867
 21
320.212882
 31
0.0
  0
LINE
  8
0
  6
CENTER
 62
     1
  5
1DE
 10
527.579203
 20
148.670402
 30
0.0
 11
527.579203
 21
159.690402
 31
0.0
  0
LINE
  8
0
  6
CENTER
 62
     1
  5
1DF
 10
519.329203
 20
132.880402
 30
0.0
 11
519.329203
 21
175.480402
 31
0.0
  0
LINE
  8
0
  6
CENTER
 62
     1
  5
1E0
 10
483.029203
 20
139.180402
 30
0.0
 11
525.629203
 21
139.180402
 31
0.0
  0
LINE
  8
0
  6
CENTER
 62
     1
  5
1E1
 10
489.329203
 20
132.880402
 30
0.0
 11
489.329203
 21
159.690402
 31
0.0
  0
LINE
  8
0
  6
CENTER
 62
     1
  5
1E2
 10
376.126867
 20
331.452882
 30
0.0
 11
258.626867
 21
331.452882
 31
0.0
  0
LINE
  8
0
  6
CENTER
 62
     1
  5
1E3
 10
376.126867
 20
251.452882
 30
0.0
 11
258.626867
 21
251.452882
 31
0.0
  0
LINE
  8
0
  6
CENTER
 62
     1
  5
1E4
 10
94.626867
 20
331.452882
 30
0.0
 11
82.626867
 21
331.452882
 31
0.0
  0
LINE
  8
0
  6
CENTER
 62
     1
  5
1E5
 10
94.626867
 20
251.452882
 30
0.0
 11
82.626867
 21
251.452882
 31
0.0
  0
LINE
  8
0
  6
CENTER
 62
     1
  5
1E6
 10
376.126867
 20
-24.559958
 30
0.0
 11
258.626867
 21
-24.559958
 31
0.0
  0
TEXT
  8
0
 62
     7
  5
1E7
 10
-91.865753
 20
47.430402
 30
0.0
 40
5.5
  1
Représenté course 100 mm
210
0.0
220
0.0
230
1.0
  0
TEXT
  8
0
 62
     7
  5
1E8
 10
-91.865753
 20
32.430402
 30
0.0
 40
5.5
  1
Represented stroke 100 mm
210
0.0
220
0.0
230
1.0
  0
TEXT
  8
0
 62
     7
  5
1E9
 10
-91.865753
 20
17.430402
 30
0.0
 40
5.5
  1
In Hub 100 mm vorgestellt
210
0.0
220
0.0
230
1.0
  0
ENDSEC
  0
EOF
