  0
SECTION
  2
HEADER
  9
$ACADVER
  1
AC1009
  9
$DWGCODEPAGE
  3
ansi_1252
  9
$INSBASE
 10
0.0
 20
0.0
 30
0.0
  9
$EXTMIN
 10
-97.653698
 20
-45.112248
 30
0.0
  9
$EXTMAX
 10
390.3804
 20
576.291667
 30
5.0
  9
$LIMMIN
 10
-97.653698
 20
-45.112248
  9
$LIMMAX
 10
390.3804
 20
576.291667
  9
$ORTHOMODE
 70
     0
  9
$REGENMODE
 70
     1
  9
$FILLMODE
 70
     1
  9
$QTEXTMODE
 70
     0
  9
$MIRRTEXT
 70
     1
  9
$DRAGMODE
 70
     2
  9
$LTSCALE
 40
10.0
  9
$OSMODE
 70
     0
  9
$ATTMODE
 70
     1
  9
$TEXTSIZE
 40
0.2
  9
$TRACEWID
 40
0.05
  9
$TEXTSTYLE
  7
STANDARD
  9
$CLAYER
  8
0
  9
$CELTYPE
  6
CONTINUOUS
  9
$CECOLOR
 62
   256
  9
$DIMSCALE
 40
1.0
  9
$DIMASZ
 40
1.25
  9
$DIMEXO
 40
1.0
  9
$DIMDLI
 40
0.38
  9
$DIMRND
 40
0.0
  9
$DIMDLE
 40
0.0
  9
$DIMEXE
 40
0.75
  9
$DIMTP
 40
0.0
  9
$DIMTM
 40
0.0
  9
$DIMTXT
 40
2.5
  9
$DIMCEN
 40
0.09
  9
$DIMTSZ
 40
0.0
  9
$DIMTOL
 70
     0
  9
$DIMLIM
 70
     0
  9
$DIMTIH
 70
     0
  9
$DIMTOH
 70
     0
  9
$DIMSE1
 70
     0
  9
$DIMSE2
 70
     0
  9
$DIMTAD
 70
     1
  9
$DIMZIN
 70
     0
  9
$DIMBLK
  1

  9
$DIMASO
 70
     1
  9
$DIMSHO
 70
     1
  9
$DIMPOST
  1

  9
$DIMAPOST
  1

  9
$DIMALT
 70
     0
  9
$DIMALTD
 70
     2
  9
$DIMALTF
 40
25.4
  9
$DIMLFAC
 40
1.0
  9
$DIMTOFL
 70
     0
  9
$DIMTVP
 40
0.0
  9
$DIMTIX
 70
     0
  9
$DIMSOXD
 70
     0
  9
$DIMSAH
 70
     0
  9
$DIMBLK1
  1

  9
$DIMBLK2
  1

  9
$DIMSTYLE
  2
STANDARD
  9
$DIMCLRD
 70
     7
  9
$DIMCLRE
 70
     7
  9
$DIMCLRT
 70
     7
  9
$DIMTFAC
 40
0.8
  9
$DIMGAP
 40
1.25
  9
$LUNITS
 70
     2
  9
$LUPREC
 70
     4
  9
$AXISMODE
 70
     0
  9
$AXISUNIT
 10
0.0
 20
0.0
  9
$SKETCHINC
 40
0.1
  9
$FILLETRAD
 40
0.0
  9
$AUNITS
 70
     0
  9
$AUPREC
 70
     0
  9
$MENU
  1
acad
  9
$ELEVATION
 40
0.0
  9
$PELEVATION
 40
0.0
  9
$THICKNESS
 40
0.0
  9
$LIMCHECK
 70
     0
  9
$BLIPMODE
 70
     1
  9
$CHAMFERA
 40
0.0
  9
$CHAMFERB
 40
0.0
  9
$SKPOLY
 70
     0
  9
$TDCREATE
 40
2454894.651793981
  9
$TDUPDATE
 40
2454894.609826389
  9
$TDINDWG
 40
0.0000000000
  9
$TDUSRTIMER
 40
0.0000000000
  9
$USRTIMER
 70
     1
  9
$ANGBASE
 50
0.0
  9
$ANGDIR
 70
     0
  9
$PDMODE
 70
     0
  9
$PDSIZE
 40
0.0
  9
$PLINEWID
 40
0.0
  9
$COORDS
 70
     0
  9
$SPLFRAME
 70
     0
  9
$SPLINETYPE
 70
     6
  9
$SPLINESEGS
 70
     8
  9
$ATTDIA
 70
     0
  9
$ATTREQ
 70
     1
  9
$HANDLING
 70
     1
  9
$HANDSEED
  5
1A9
  9
$SURFTAB1
 70
     6
  9
$SURFTAB2
 70
     6
  9
$SURFTYPE
 70
     6
  9
$SURFU
 70
     6
  9
$SURFV
 70
     6
  9
$UCSNAME
  2

  9
$UCSORG
 10
0.0
 20
0.0
 30
0.0
  9
$UCSXDIR
 10
1.0
 20
0.0
 30
0.0
  9
$UCSYDIR
 10
0.0
 20
1.0
 30
0.0
  9
$PUCSNAME
  2

  9
$PUCSORG
 10
0.0
 20
0.0
 30
0.0
  9
$PUCSXDIR
 10
1.0
 20
0.0
 30
0.0
  9
$PUCSYDIR
 10
0.0
 20
1.0
 30
0.0
  9
$USERI1
 70
     0
  9
$USERI2
 70
     0
  9
$USERI3
 70
     0
  9
$USERI4
 70
     0
  9
$USERI5
 70
     0
  9
$USERR1
 40
0.0
  9
$USERR2
 40
0.0
  9
$USERR3
 40
0.0
  9
$USERR4
 40
0.0
  9
$USERR5
 40
0.0
  9
$WORLDVIEW
 70
     1
  9
$SHADEDGE
 70
     3
  9
$SHADEDIF
 70
    70
  9
$TILEMODE
 70
     1
  9
$MAXACTVP
 70
    16
  9
$PINSBASE
 10
0.0
 20
0.0
 30
0.0
  9
$PLIMCHECK
 70
     0
  9
$PEXTMIN
 10
1.000000E+20
 20
1.000000E+20
 30
1.000000E+20
  9
$PEXTMAX
 10
-1.000000E+20
 20
-1.000000E+20
 30
-1.000000E+20
  9
$PLIMMIN
 10
0.0
 20
0.0
  9
$PLIMMAX
 10
12.0
 20
9.0
  9
$UNITMODE
 70
     0
  9
$VISRETAIN
 70
     0
  9
$PLINEGEN
 70
     1
  9
$PSLTSCALE
 70
     0
  9
$TREEDEPTH
 70
  3020
  0
ENDSEC
  0
SECTION
  2
TABLES
  0
TABLE
  2
VPORT
 70
     1
  0
VPORT
  2
*ACTIVE
 70
     0
 10
0.0
 20
0.0
 11
1.0
 21
1.0
 12
6.591288
 22
4.579184
 13
0.0
 23
0.0
 14
1.0
 24
1.0
 15
0.0
 25
0.0
 16
0.0
 26
0.0
 36
1.0
 17
0.0
 27
0.0
 37
0.0
 40
9.158369
 41
0.688564
 42
50.0
 43
0.0
 44
0.0
 50
0.0
 51
0.0
 71
     0
 72
   100
 73
     1
 74
     1
 75
     0
 76
     0
 77
     0
 78
     0
  0
ENDTAB
  0
TABLE
  2
LTYPE
 70
     3
  0
LTYPE
  2
CONTINUOUS
 70
    64
  3
Solid line
 72
    65
 73
     0
 40
0.0
  0
LTYPE
  2
DOT
 70
    64
  3
...............................................
 72
    65
 73
     2
 40
0.5
 49
0.25
 49
-0.25
  0
LTYPE
  2
CENTER
 70
    64
  3
____ _ ____ _ ____ _ ____ _ ____ _ ____ _ ____
 72
    65
 73
     4
 40
2.0
 49
1.25
 49
-0.25
 49
0.25
 49
-0.25
  0
ENDTAB
  0
TABLE
  2
LAYER
 70
     1
  0
LAYER
  2
0
 70
     0
 62
     7
  6
CONTINUOUS
  0
ENDTAB
  0
TABLE
  2
STYLE
 70
     1
  0
STYLE
  2
STANDARD
 70
     0
 40
0.0
 41
1.0
 50
0.0
 71
     0
 42
0.0
  3
IsonormD
  4

  0
ENDTAB
  0
TABLE
  2
VIEW
 70
     0
  0
ENDTAB
  0
TABLE
  2
UCS
 70
     0
  0
ENDTAB
  0
TABLE
  2
APPID
 70
     2
  0
APPID
  2
ACAD
 70
     0
  0
APPID
  2
TopSolid_Draft
 70
     0
  0
ENDTAB
  0
TABLE
  2
DIMSTYLE
 70
     1
  0
DIMSTYLE
  2
STANDARD
 70
     0
  3

  4

  5

  6

  7

 40
1.0
 41
1.25
 42
1.0
 43
0.38
 44
0.75
 45
0.0
 46
0.0
 47
0.0
 48
0.0
 71
     0
 72
     0
 73
     0
 74
     0
 75
     0
 76
     0
 77
     1
 78
     0
140
2.5
141
0.09
142
0.0
143
25.4
144
1.0
145
0.0
146
0.8
147
1.25
170
     0
171
     2
172
     0
173
     0
174
     0
175
     0
176
     7
177
     7
178
     7
  0
ENDTAB
  0
ENDSEC
  0
SECTION
  2
BLOCKS
  0
BLOCK
  8
0
  5
25
  2
AID3
 70
     0
 10
0.0
 20
0.0
 30
0.0
  3
#draft view
  0
CIRCLE
  8
0
  6
CONTINUOUS
 62
     7
  5
26
 10
375.8804
 20
188.876869
 30
0.0
 40
5.5
210
0.0
220
0.0
230
1.0
  0
CIRCLE
  8
0
  6
CONTINUOUS
 62
     7
  5
27
 10
375.8804
 20
130.876869
 30
0.0
 40
5.5
210
0.0
220
0.0
230
1.0
  0
LINE
  8
0
  6
CONTINUOUS
 62
     7
  5
28
 10
383.3804
 20
211.876869
 30
0.0
 11
368.3804
 21
211.876869
 31
0.0
  0
LINE
  8
0
  6
CONTINUOUS
 62
     7
  5
29
 10
383.3804
 20
107.876869
 30
0.0
 11
383.3804
 21
211.876869
 31
0.0
  0
LINE
  8
0
  6
CONTINUOUS
 62
     7
  5
2A
 10
383.3804
 20
107.876869
 30
0.0
 11
368.3804
 21
107.876869
 31
0.0
  0
LINE
  8
0
  6
CONTINUOUS
 62
     7
  5
2B
 10
368.3804
 20
107.876869
 30
0.0
 11
368.3804
 21
211.876869
 31
0.0
  0
LINE
  8
0
  6
CONTINUOUS
 62
     7
  5
2C
 10
46.3804
 20
107.876869
 30
0.0
 11
61.3804
 21
107.876869
 31
0.0
  0
LINE
  8
0
  6
CONTINUOUS
 62
     7
  5
2D
 10
61.3804
 20
211.876869
 30
0.0
 11
61.3804
 21
107.876869
 31
0.0
  0
CIRCLE
  8
0
  6
CONTINUOUS
 62
     7
  5
2E
 10
53.8804
 20
130.876869
 30
0.0
 40
5.5
210
0.0
220
0.0
230
1.0
  0
LINE
  8
0
  6
CONTINUOUS
 62
     7
  5
2F
 10
46.3804
 20
211.876869
 30
0.0
 11
46.3804
 21
107.876869
 31
0.0
  0
CIRCLE
  8
0
  6
CONTINUOUS
 62
     7
  5
30
 10
53.8804
 20
188.876869
 30
0.0
 40
5.5
210
0.0
220
0.0
230
1.0
  0
LINE
  8
0
  6
CONTINUOUS
 62
     7
  5
31
 10
46.3804
 20
211.876869
 30
0.0
 11
61.3804
 21
211.876869
 31
0.0
  0
CIRCLE
  8
0
  6
CONTINUOUS
 62
     7
  5
32
 10
375.8804
 20
130.876869
 30
0.0
 40
3.25
210
0.0
220
0.0
230
1.0
  0
CIRCLE
  8
0
  6
CONTINUOUS
 62
     7
  5
33
 10
53.8804
 20
188.876869
 30
0.0
 40
3.25
210
0.0
220
0.0
230
1.0
  0
CIRCLE
  8
0
  6
CONTINUOUS
 62
     7
  5
34
 10
375.8804
 20
188.876869
 30
0.0
 40
3.25
210
0.0
220
0.0
230
1.0
  0
CIRCLE
  8
0
  6
CONTINUOUS
 62
     7
  5
35
 10
53.8804
 20
130.876869
 30
0.0
 40
3.25
210
0.0
220
0.0
230
1.0
  0
LINE
  8
0
  6
CONTINUOUS
 62
     7
  5
36
 10
66.6804
 20
150.626869
 30
0.0
 11
66.6804
 21
169.126869
 31
0.0
  0
LINE
  8
0
  6
CONTINUOUS
 62
     7
  5
37
 10
366.6804
 20
168.626869
 30
0.0
 11
366.6804
 21
151.126869
 31
0.0
  0
LINE
  8
0
  6
CONTINUOUS
 62
     7
  5
38
 10
386.4804
 20
166.376869
 30
0.0
 11
383.3804
 21
166.376869
 31
0.0
  0
LINE
  8
0
  6
CONTINUOUS
 62
     7
  5
39
 10
386.4804
 20
159.876869
 30
0.0
 11
383.3804
 21
159.876869
 31
0.0
  0
LINE
  8
0
  6
CONTINUOUS
 62
     7
  5
3A
 10
386.4804
 20
166.376869
 30
0.0
 11
386.4804
 21
159.876869
 31
0.0
  0
LINE
  8
0
  6
CONTINUOUS
 62
     7
  5
3B
 10
386.4804
 20
153.376869
 30
0.0
 11
383.3804
 21
153.376869
 31
0.0
  0
LINE
  8
0
  6
CONTINUOUS
 62
     7
  5
3C
 10
386.4804
 20
159.876869
 30
0.0
 11
386.4804
 21
153.376869
 31
0.0
  0
LINE
  8
0
  6
CONTINUOUS
 62
     7
  5
3D
 10
356.1804
 20
156.501869
 30
0.0
 11
356.1804
 21
163.251869
 31
0.0
  0
LINE
  8
0
  6
CONTINUOUS
 62
     7
  5
3E
 10
356.8054
 20
163.876869
 30
0.0
 11
356.8054
 21
155.876869
 31
0.0
  0
CIRCLE
  8
0
  6
CONTINUOUS
 62
     7
  5
3F
 10
152.3804
 20
199.876869
 30
0.0
 40
14.0
210
0.0
220
0.0
230
1.0
  0
CIRCLE
  8
0
  6
CONTINUOUS
 62
     7
  5
40
 10
135.3804
 20
141.876869
 30
0.0
 40
2.067
210
0.0
220
0.0
230
1.0
  0
CIRCLE
  8
0
  6
CONTINUOUS
 62
     7
  5
41
 10
135.3804
 20
141.876869
 30
0.0
 40
2.5
210
0.0
220
0.0
230
1.0
  0
CIRCLE
  8
0
  6
CONTINUOUS
 62
     7
  5
42
 10
191.3804
 20
139.876869
 30
0.0
 40
2.067
210
0.0
220
0.0
230
1.0
  0
CIRCLE
  8
0
  6
CONTINUOUS
 62
     7
  5
43
 10
191.3804
 20
139.876869
 30
0.0
 40
2.5
210
0.0
220
0.0
230
1.0
  0
CIRCLE
  8
0
  6
CONTINUOUS
 62
     7
  5
44
 10
159.3804
 20
141.876869
 30
0.0
 40
2.067
210
0.0
220
0.0
230
1.0
  0
CIRCLE
  8
0
  6
CONTINUOUS
 62
     7
  5
45
 10
159.3804
 20
141.876869
 30
0.0
 40
2.5
210
0.0
220
0.0
230
1.0
  0
CIRCLE
  8
0
  6
CONTINUOUS
 62
     7
  5
46
 10
191.3804
 20
179.876869
 30
0.0
 40
2.067
210
0.0
220
0.0
230
1.0
  0
CIRCLE
  8
0
  6
CONTINUOUS
 62
     7
  5
47
 10
191.3804
 20
179.876869
 30
0.0
 40
2.5
210
0.0
220
0.0
230
1.0
  0
CIRCLE
  8
0
  6
CONTINUOUS
 62
     7
  5
48
 10
102.3804
 20
136.626869
 30
0.0
 40
5.5
210
0.0
220
0.0
230
1.0
  0
CIRCLE
  8
0
  6
CONTINUOUS
 62
     7
  5
49
 10
202.3804
 20
136.626869
 30
0.0
 40
5.5
210
0.0
220
0.0
230
1.0
  0
CIRCLE
  8
0
  6
CONTINUOUS
 62
     7
  5
4A
 10
102.3804
 20
183.126869
 30
0.0
 40
5.5
210
0.0
220
0.0
230
1.0
  0
CIRCLE
  8
0
  6
CONTINUOUS
 62
     7
  5
4B
 10
202.3804
 20
183.126869
 30
0.0
 40
5.5
210
0.0
220
0.0
230
1.0
  0
LINE
  8
0
  6
CONTINUOUS
 62
     7
  5
4C
 10
100.3804
 20
153.376869
 30
0.0
 11
223.3804
 21
153.376869
 31
0.0
  0
ARC
  8
0
  6
CONTINUOUS
 62
     7
  5
4D
 10
223.3804
 20
159.376869
 30
0.0
 40
6.0
 50
270.0
 51
360.0
210
0.0
220
0.0
230
1.0
  0
LINE
  8
0
  6
CONTINUOUS
 62
     7
  5
4E
 10
229.3804
 20
159.376869
 30
0.0
 11
229.3804
 21
160.376869
 31
0.0
  0
ARC
  8
0
  6
CONTINUOUS
 62
     7
  5
4F
 10
223.3804
 20
160.376869
 30
0.0
 40
6.0
 50
0.0
 51
90.0
210
0.0
220
0.0
230
1.0
  0
LINE
  8
0
  6
CONTINUOUS
 62
     7
  5
50
 10
223.3804
 20
166.376869
 30
0.0
 11
100.3804
 21
166.376869
 31
0.0
  0
ARC
  8
0
  6
CONTINUOUS
 62
     7
  5
51
 10
100.3804
 20
160.376869
 30
0.0
 40
6.0
 50
90.0
 51
180.0
210
0.0
220
0.0
230
1.0
  0
LINE
  8
0
  6
CONTINUOUS
 62
     7
  5
52
 10
94.3804
 20
160.376869
 30
0.0
 11
94.3804
 21
159.376869
 31
0.0
  0
ARC
  8
0
  6
CONTINUOUS
 62
     7
  5
53
 10
100.3804
 20
159.376869
 30
0.0
 40
6.0
 50
180.0
 51
270.0
210
0.0
220
0.0
230
1.0
  0
LINE
  8
0
  6
CONTINUOUS
 62
     7
  5
54
 10
237.3804
 20
192.076869
 30
0.0
 11
237.3804
 21
127.676869
 31
0.0
  0
LINE
  8
0
  6
CONTINUOUS
 62
     7
  5
55
 10
237.3804
 20
127.676869
 30
0.0
 11
67.3804
 21
127.676869
 31
0.0
  0
LINE
  8
0
  6
CONTINUOUS
 62
     7
  5
56
 10
67.3804
 20
127.676869
 30
0.0
 11
67.3804
 21
176.376869
 31
0.0
  0
LINE
  8
0
  6
CONTINUOUS
 62
     7
  5
57
 10
67.3804
 20
176.376869
 30
0.0
 11
67.3804
 21
192.076869
 31
0.0
  0
LINE
  8
0
  6
CONTINUOUS
 62
     7
  5
58
 10
140.754567
 20
192.076869
 30
0.0
 11
67.3804
 21
192.076869
 31
0.0
  0
LINE
  8
0
  6
CONTINUOUS
 62
     7
  5
59
 10
237.3804
 20
192.076869
 30
0.0
 11
164.006233
 21
192.076869
 31
0.0
  0
LINE
  8
0
  6
CONTINUOUS
 62
     7
  5
5A
 10
237.3804
 20
110.876869
 30
0.0
 11
237.3804
 21
106.876869
 31
0.0
  0
LINE
  8
0
  6
CONTINUOUS
 62
     7
  5
5B
 10
67.3804
 20
106.876869
 30
0.0
 11
237.3804
 21
106.876869
 31
0.0
  0
LINE
  8
0
  6
CONTINUOUS
 62
     7
  5
5C
 10
67.3804
 20
106.876869
 30
0.0
 11
67.3804
 21
110.876869
 31
0.0
  0
LINE
  8
0
  6
CONTINUOUS
 62
     7
  5
5D
 10
237.3804
 20
110.876869
 30
0.0
 11
67.3804
 21
110.876869
 31
0.0
  0
LINE
  8
0
  6
CONTINUOUS
 62
     7
  5
5E
 10
237.3804
 20
125.076869
 30
0.0
 11
237.3804
 21
120.576869
 31
0.0
  0
LINE
  8
0
  6
CONTINUOUS
 62
     7
  5
5F
 10
237.3804
 20
120.576869
 30
0.0
 11
67.3804
 21
120.576869
 31
0.0
  0
LINE
  8
0
  6
CONTINUOUS
 62
     7
  5
60
 10
67.3804
 20
120.576869
 30
0.0
 11
67.3804
 21
125.076869
 31
0.0
  0
LINE
  8
0
  6
CONTINUOUS
 62
     7
  5
61
 10
237.3804
 20
125.076869
 30
0.0
 11
67.3804
 21
125.076869
 31
0.0
  0
LINE
  8
0
  6
CONTINUOUS
 62
     7
  5
62
 10
237.3804
 20
199.176869
 30
0.0
 11
237.3804
 21
194.676869
 31
0.0
  0
LINE
  8
0
  6
CONTINUOUS
 62
     7
  5
63
 10
237.3804
 20
194.676869
 30
0.0
 11
165.378862
 21
194.676869
 31
0.0
  0
LINE
  8
0
  6
CONTINUOUS
 62
     7
  5
64
 10
237.3804
 20
199.176869
 30
0.0
 11
166.362889
 21
199.176869
 31
0.0
  0
LINE
  8
0
  6
CONTINUOUS
 62
     7
  5
65
 10
237.3804
 20
117.976869
 30
0.0
 11
67.3804
 21
117.976869
 31
0.0
  0
LINE
  8
0
  6
CONTINUOUS
 62
     7
  5
66
 10
237.3804
 20
113.476869
 30
0.0
 11
67.3804
 21
113.476869
 31
0.0
  0
LINE
  8
0
  6
CONTINUOUS
 62
     7
  5
67
 10
237.3804
 20
117.976869
 30
0.0
 11
237.3804
 21
113.476869
 31
0.0
  0
LINE
  8
0
  6
CONTINUOUS
 62
     7
  5
68
 10
67.3804
 20
113.476869
 30
0.0
 11
67.3804
 21
117.976869
 31
0.0
  0
LINE
  8
0
  6
CONTINUOUS
 62
     7
  5
69
 10
139.928894
 20
206.276869
 30
0.0
 11
67.3804
 21
206.276869
 31
0.0
  0
LINE
  8
0
  6
CONTINUOUS
 62
     7
  5
6A
 10
67.3804
 20
201.776869
 30
0.0
 11
67.3804
 21
206.276869
 31
0.0
  0
LINE
  8
0
  6
CONTINUOUS
 62
     7
  5
6B
 10
138.509928
 20
201.776869
 30
0.0
 11
67.3804
 21
201.776869
 31
0.0
  0
LINE
  8
0
  6
CONTINUOUS
 62
     7
  5
6C
 10
139.381939
 20
194.676869
 30
0.0
 11
67.3804
 21
194.676869
 31
0.0
  0
LINE
  8
0
  6
CONTINUOUS
 62
     7
  5
6D
 10
138.397911
 20
199.176869
 30
0.0
 11
67.3804
 21
199.176869
 31
0.0
  0
LINE
  8
0
  6
CONTINUOUS
 62
     7
  5
6E
 10
67.3804
 20
194.676869
 30
0.0
 11
67.3804
 21
199.176869
 31
0.0
  0
LINE
  8
0
  6
CONTINUOUS
 62
     7
  5
6F
 10
237.3804
 20
201.776869
 30
0.0
 11
166.250872
 21
201.776869
 31
0.0
  0
LINE
  8
0
  6
CONTINUOUS
 62
     7
  5
70
 10
237.3804
 20
206.276869
 30
0.0
 11
164.831906
 21
206.276869
 31
0.0
  0
LINE
  8
0
  6
CONTINUOUS
 62
     7
  5
71
 10
237.3804
 20
206.276869
 30
0.0
 11
237.3804
 21
201.776869
 31
0.0
  0
LINE
  8
0
  6
CONTINUOUS
 62
     7
  5
72
 10
237.3804
 20
208.876869
 30
0.0
 11
163.104205
 21
208.876869
 31
0.0
  0
LINE
  8
0
  6
CONTINUOUS
 62
     7
  5
73
 10
237.3804
 20
212.876869
 30
0.0
 11
157.576553
 21
212.876869
 31
0.0
  0
LINE
  8
0
  6
CONTINUOUS
 62
     7
  5
74
 10
237.3804
 20
212.876869
 30
0.0
 11
237.3804
 21
208.876869
 31
0.0
  0
LINE
  8
0
  6
CONTINUOUS
 62
     7
  5
75
 10
237.3804
 20
104.876869
 30
0.0
 11
67.3804
 21
104.876869
 31
0.0
  0
LINE
  8
0
  6
CONTINUOUS
 62
     7
  5
76
 10
237.3804
 20
106.876869
 30
0.0
 11
237.3804
 21
104.876869
 31
0.0
  0
LINE
  8
0
  6
CONTINUOUS
 62
     7
  5
77
 10
67.3804
 20
104.876869
 30
0.0
 11
67.3804
 21
106.876869
 31
0.0
  0
LINE
  8
0
  6
CONTINUOUS
 62
     7
  5
78
 10
67.3804
 20
214.876869
 30
0.0
 11
237.3804
 21
214.876869
 31
0.0
  0
LINE
  8
0
  6
CONTINUOUS
 62
     7
  5
79
 10
147.184248
 20
212.876869
 30
0.0
 11
67.3804
 21
212.876869
 31
0.0
  0
LINE
  8
0
  6
CONTINUOUS
 62
     7
  5
7A
 10
237.3804
 20
214.876869
 30
0.0
 11
237.3804
 21
212.876869
 31
0.0
  0
LINE
  8
0
  6
CONTINUOUS
 62
     7
  5
7B
 10
67.3804
 20
212.876869
 30
0.0
 11
67.3804
 21
214.876869
 31
0.0
  0
LINE
  8
0
  6
CONTINUOUS
 62
     7
  5
7C
 10
141.656595
 20
208.876869
 30
0.0
 11
67.3804
 21
208.876869
 31
0.0
  0
LINE
  8
0
  6
CONTINUOUS
 62
     7
  5
7D
 10
67.3804
 20
208.876869
 30
0.0
 11
67.3804
 21
212.876869
 31
0.0
  0
CIRCLE
  8
0
  6
CONTINUOUS
 62
     7
  5
7E
 10
202.3804
 20
136.626869
 30
0.0
 40
4.0
210
0.0
220
0.0
230
1.0
  0
CIRCLE
  8
0
  6
CONTINUOUS
 62
     7
  5
7F
 10
202.3804
 20
183.126869
 30
0.0
 40
3.3235
210
0.0
220
0.0
230
1.0
  0
CIRCLE
  8
0
  6
CONTINUOUS
 62
     7
  5
80
 10
202.3804
 20
183.126869
 30
0.0
 40
4.0
210
0.0
220
0.0
230
1.0
  0
CIRCLE
  8
0
  6
CONTINUOUS
 62
     7
  5
81
 10
102.3804
 20
136.626869
 30
0.0
 40
3.3235
210
0.0
220
0.0
230
1.0
  0
CIRCLE
  8
0
  6
CONTINUOUS
 62
     7
  5
82
 10
102.3804
 20
136.626869
 30
0.0
 40
4.0
210
0.0
220
0.0
230
1.0
  0
CIRCLE
  8
0
  6
CONTINUOUS
 62
     7
  5
83
 10
102.3804
 20
183.126869
 30
0.0
 40
3.3235
210
0.0
220
0.0
230
1.0
  0
CIRCLE
  8
0
  6
CONTINUOUS
 62
     7
  5
84
 10
102.3804
 20
183.126869
 30
0.0
 40
4.0
210
0.0
220
0.0
230
1.0
  0
CIRCLE
  8
0
  6
CONTINUOUS
 62
     7
  5
85
 10
202.3804
 20
136.626869
 30
0.0
 40
3.3235
210
0.0
220
0.0
230
1.0
  0
LINE
  8
0
  6
CONTINUOUS
 62
     7
  5
86
 10
98.3804
 20
166.033723
 30
0.0
 11
98.3804
 21
153.720015
 31
0.0
  0
LINE
  8
0
  6
CONTINUOUS
 62
     7
  5
87
 10
237.3804
 20
127.676869
 30
0.0
 11
237.3804
 21
125.076869
 31
0.0
  0
LINE
  8
0
  6
CONTINUOUS
 62
     7
  5
88
 10
67.3804
 20
125.076869
 30
0.0
 11
67.3804
 21
127.676869
 31
0.0
  0
LINE
  8
0
  6
CONTINUOUS
 62
     7
  5
89
 10
67.3804
 20
192.076869
 30
0.0
 11
67.3804
 21
194.676869
 31
0.0
  0
LINE
  8
0
  6
CONTINUOUS
 62
     7
  5
8A
 10
237.3804
 20
120.576869
 30
0.0
 11
237.3804
 21
117.976869
 31
0.0
  0
LINE
  8
0
  6
CONTINUOUS
 62
     7
  5
8B
 10
67.3804
 20
117.976869
 30
0.0
 11
67.3804
 21
120.576869
 31
0.0
  0
LINE
  8
0
  6
CONTINUOUS
 62
     7
  5
8C
 10
67.3804
 20
199.176869
 30
0.0
 11
67.3804
 21
201.776869
 31
0.0
  0
LINE
  8
0
  6
CONTINUOUS
 62
     7
  5
8D
 10
237.3804
 20
208.876869
 30
0.0
 11
237.3804
 21
206.276869
 31
0.0
  0
LINE
  8
0
  6
CONTINUOUS
 62
     7
  5
8E
 10
237.3804
 20
201.776869
 30
0.0
 11
237.3804
 21
199.176869
 31
0.0
  0
LINE
  8
0
  6
CONTINUOUS
 62
     7
  5
8F
 10
237.3804
 20
113.476869
 30
0.0
 11
237.3804
 21
110.876869
 31
0.0
  0
LINE
  8
0
  6
CONTINUOUS
 62
     7
  5
90
 10
67.3804
 20
110.876869
 30
0.0
 11
67.3804
 21
113.476869
 31
0.0
  0
LINE
  8
0
  6
CONTINUOUS
 62
     7
  5
91
 10
67.3804
 20
206.276869
 30
0.0
 11
67.3804
 21
208.876869
 31
0.0
  0
LINE
  8
0
  6
CONTINUOUS
 62
     7
  5
92
 10
237.3804
 20
194.676869
 30
0.0
 11
237.3804
 21
192.076869
 31
0.0
  0
LINE
  8
0
  6
CONTINUOUS
 62
     7
  5
93
 10
67.3804
 20
182.376869
 30
0.0
 11
61.3804
 21
182.376869
 31
0.0
  0
LINE
  8
0
  6
CONTINUOUS
 62
     7
  5
94
 10
61.3804
 20
170.376869
 30
0.0
 11
67.3804
 21
170.376869
 31
0.0
  0
LINE
  8
0
  6
CONTINUOUS
 62
     7
  5
95
 10
66.6804
 20
169.126869
 30
0.0
 11
61.3804
 21
169.126869
 31
0.0
  0
LINE
  8
0
  6
CONTINUOUS
 62
     7
  5
96
 10
61.3804
 20
150.626869
 30
0.0
 11
66.6804
 21
150.626869
 31
0.0
  0
LINE
  8
0
  6
CONTINUOUS
 62
     7
  5
97
 10
368.3804
 20
207.876869
 30
0.0
 11
237.3804
 21
207.876869
 31
0.0
  0
LINE
  8
0
  6
CONTINUOUS
 62
     7
  5
98
 10
67.3804
 20
207.876869
 30
0.0
 11
61.3804
 21
207.876869
 31
0.0
  0
LINE
  8
0
  6
CONTINUOUS
 62
     7
  5
99
 10
61.3804
 20
191.876869
 30
0.0
 11
67.3804
 21
191.876869
 31
0.0
  0
LINE
  8
0
  6
CONTINUOUS
 62
     7
  5
9A
 10
237.3804
 20
191.876869
 30
0.0
 11
368.3804
 21
191.876869
 31
0.0
  0
LINE
  8
0
  6
CONTINUOUS
 62
     7
  5
9B
 10
368.3804
 20
168.626869
 30
0.0
 11
366.6804
 21
168.626869
 31
0.0
  0
LINE
  8
0
  6
CONTINUOUS
 62
     7
  5
9C
 10
366.6804
 20
151.126869
 30
0.0
 11
368.3804
 21
151.126869
 31
0.0
  0
LINE
  8
0
  6
CONTINUOUS
 62
     7
  5
9D
 10
368.3804
 20
127.876869
 30
0.0
 11
237.3804
 21
127.876869
 31
0.0
  0
LINE
  8
0
  6
CONTINUOUS
 62
     7
  5
9E
 10
67.3804
 20
127.876869
 30
0.0
 11
61.3804
 21
127.876869
 31
0.0
  0
LINE
  8
0
  6
CONTINUOUS
 62
     7
  5
9F
 10
61.3804
 20
111.876869
 30
0.0
 11
67.3804
 21
111.876869
 31
0.0
  0
LINE
  8
0
  6
CONTINUOUS
 62
     7
  5
A0
 10
237.3804
 20
111.876869
 30
0.0
 11
368.3804
 21
111.876869
 31
0.0
  0
LINE
  8
0
  6
CONTINUOUS
 62
     7
  5
A1
 10
356.8054
 20
163.876869
 30
0.0
 11
356.1804
 21
163.251869
 31
0.0
  0
LINE
  8
0
  6
CONTINUOUS
 62
     7
  5
A2
 10
356.1804
 20
156.501869
 30
0.0
 11
356.8054
 21
155.876869
 31
0.0
  0
LINE
  8
0
  6
CONTINUOUS
 62
     7
  5
A3
 10
366.6804
 20
163.876869
 30
0.0
 11
356.8054
 21
163.876869
 31
0.0
  0
LINE
  8
0
  6
CONTINUOUS
 62
     7
  5
A4
 10
356.8054
 20
155.876869
 30
0.0
 11
366.6804
 21
155.876869
 31
0.0
  0
LINE
  8
0
  6
CONTINUOUS
 62
     7
  5
A5
 10
67.3804
 20
163.876869
 30
0.0
 11
66.6804
 21
163.876869
 31
0.0
  0
LINE
  8
0
  6
CONTINUOUS
 62
     7
  5
A6
 10
66.6804
 20
155.876869
 30
0.0
 11
67.3804
 21
155.876869
 31
0.0
  0
ENDBLK
  8
0
  5
A7
  0
BLOCK
  8
0
  5
AA
  2
AID265
 70
     0
 10
0.0
 20
0.0
 30
0.0
  3
#auxiliary draft view
  0
LINE
  8
0
  6
CONTINUOUS
 62
     7
  5
AB
 10
46.3804
 20
364.648571
 30
0.0
 11
61.3804
 21
364.648571
 31
0.0
  0
LINE
  8
0
  6
CONTINUOUS
 62
     7
  5
AC
 10
61.3804
 20
364.648571
 30
0.0
 11
61.3804
 21
315.648571
 31
0.0
  0
LINE
  8
0
  6
CONTINUOUS
 62
     7
  5
AD
 10
46.3804
 20
315.648571
 30
0.0
 11
61.3804
 21
315.648571
 31
0.0
  0
LINE
  8
0
  6
CONTINUOUS
 62
     7
  5
AE
 10
46.3804
 20
364.648571
 30
0.0
 11
46.3804
 21
315.648571
 31
0.0
  0
LINE
  8
0
  6
CONTINUOUS
 62
     7
  5
AF
 10
383.3804
 20
364.648571
 30
0.0
 11
368.3804
 21
364.648571
 31
0.0
  0
LINE
  8
0
  6
CONTINUOUS
 62
     7
  5
B0
 10
383.3804
 20
315.648571
 30
0.0
 11
368.3804
 21
315.648571
 31
0.0
  0
LINE
  8
0
  6
CONTINUOUS
 62
     7
  5
B1
 10
383.3804
 20
315.648571
 30
0.0
 11
383.3804
 21
364.648571
 31
0.0
  0
LINE
  8
0
  6
CONTINUOUS
 62
     7
  5
B2
 10
368.3804
 20
315.648571
 30
0.0
 11
368.3804
 21
364.648571
 31
0.0
  0
LINE
  8
0
  6
CONTINUOUS
 62
     7
  5
B3
 10
66.6804
 20
330.898571
 30
0.0
 11
66.6804
 21
331.148571
 31
0.0
  0
LINE
  8
0
  6
CONTINUOUS
 62
     7
  5
B4
 10
66.6804
 20
347.148571
 30
0.0
 11
66.6804
 21
349.398571
 31
0.0
  0
LINE
  8
0
  6
CONTINUOUS
 62
     7
  5
B5
 10
366.6804
 20
348.898571
 30
0.0
 11
366.6804
 21
347.148571
 31
0.0
  0
LINE
  8
0
  6
CONTINUOUS
 62
     7
  5
B6
 10
386.4804
 20
347.654124
 30
0.0
 11
383.3804
 21
347.654124
 31
0.0
  0
LINE
  8
0
  6
CONTINUOUS
 62
     7
  5
B7
 10
386.4804
 20
343.901347
 30
0.0
 11
383.3804
 21
343.901347
 31
0.0
  0
LINE
  8
0
  6
CONTINUOUS
 62
     7
  5
B8
 10
386.4804
 20
347.654124
 30
0.0
 11
386.4804
 21
343.901347
 31
0.0
  0
LINE
  8
0
  6
CONTINUOUS
 62
     7
  5
B9
 10
386.4804
 20
336.395794
 30
0.0
 11
383.3804
 21
336.395794
 31
0.0
  0
LINE
  8
0
  6
CONTINUOUS
 62
     7
  5
BA
 10
386.4804
 20
343.901347
 30
0.0
 11
386.4804
 21
336.395794
 31
0.0
  0
LINE
  8
0
  6
CONTINUOUS
 62
     7
  5
BB
 10
386.4804
 20
332.643017
 30
0.0
 11
383.3804
 21
332.643017
 31
0.0
  0
LINE
  8
0
  6
CONTINUOUS
 62
     7
  5
BC
 10
386.4804
 20
336.395794
 30
0.0
 11
386.4804
 21
332.643017
 31
0.0
  0
LINE
  8
0
  6
CONTINUOUS
 62
     7
  5
BD
 10
237.3804
 20
317.148571
 30
0.0
 11
67.3804
 21
317.148571
 31
0.0
  0
LINE
  8
0
  6
CONTINUOUS
 62
     7
  5
BE
 10
67.3804
 20
361.148571
 30
0.0
 11
67.3804
 21
317.148571
 31
0.0
  0
LINE
  8
0
  6
CONTINUOUS
 62
     7
  5
BF
 10
237.3804
 20
361.148571
 30
0.0
 11
67.3804
 21
361.148571
 31
0.0
  0
LINE
  8
0
  6
CONTINUOUS
 62
     7
  5
C0
 10
237.3804
 20
361.148571
 30
0.0
 11
237.3804
 21
317.148571
 31
0.0
  0
LINE
  8
0
  6
CONTINUOUS
 62
     7
  5
C1
 10
67.3804
 20
361.148571
 30
0.0
 11
67.3804
 21
363.148571
 31
0.0
  0
LINE
  8
0
  6
CONTINUOUS
 62
     7
  5
C2
 10
67.3804
 20
363.148571
 30
0.0
 11
237.3804
 21
363.148571
 31
0.0
  0
LINE
  8
0
  6
CONTINUOUS
 62
     7
  5
C3
 10
237.3804
 20
363.148571
 30
0.0
 11
237.3804
 21
361.148571
 31
0.0
  0
LINE
  8
0
  6
CONTINUOUS
 62
     7
  5
C4
 10
138.3804
 20
364.648571
 30
0.0
 11
166.3804
 21
364.648571
 31
0.0
  0
LINE
  8
0
  6
CONTINUOUS
 62
     7
  5
C5
 10
368.3804
 20
347.148571
 30
0.0
 11
237.3804
 21
347.148571
 31
0.0
  0
LINE
  8
0
  6
CONTINUOUS
 62
     7
  5
C6
 10
67.3804
 20
347.148571
 30
0.0
 11
61.3804
 21
347.148571
 31
0.0
  0
LINE
  8
0
  6
CONTINUOUS
 62
     7
  5
C7
 10
61.3804
 20
331.148571
 30
0.0
 11
67.3804
 21
331.148571
 31
0.0
  0
LINE
  8
0
  6
CONTINUOUS
 62
     7
  5
C8
 10
237.3804
 20
331.148571
 30
0.0
 11
368.3804
 21
331.148571
 31
0.0
  0
LINE
  8
0
  6
CONTINUOUS
 62
     7
  5
C9
 10
66.6804
 20
349.398571
 30
0.0
 11
61.3804
 21
349.398571
 31
0.0
  0
LINE
  8
0
  6
CONTINUOUS
 62
     7
  5
CA
 10
61.3804
 20
330.898571
 30
0.0
 11
66.6804
 21
330.898571
 31
0.0
  0
LINE
  8
0
  6
CONTINUOUS
 62
     7
  5
CB
 10
368.3804
 20
348.898571
 30
0.0
 11
366.6804
 21
348.898571
 31
0.0
  0
LINE
  8
0
  6
CONTINUOUS
 62
     7
  5
CC
 10
67.3804
 20
363.148571
 30
0.0
 11
61.3804
 21
363.148571
 31
0.0
  0
LINE
  8
0
  6
CONTINUOUS
 62
     7
  5
CD
 10
61.3804
 20
351.148571
 30
0.0
 11
67.3804
 21
351.148571
 31
0.0
  0
LINE
  8
0
  6
CONTINUOUS
 62
     7
  5
CE
 10
368.3804
 20
349.148571
 30
0.0
 11
237.3804
 21
349.148571
 31
0.0
  0
LINE
  8
0
  6
CONTINUOUS
 62
     7
  5
CF
 10
67.3804
 20
349.148571
 30
0.0
 11
66.6804
 21
349.148571
 31
0.0
  0
LINE
  8
0
  6
CONTINUOUS
 62
     7
  5
D0
 10
166.3804
 20
363.148571
 30
0.0
 11
166.3804
 21
364.648571
 31
0.0
  0
LINE
  8
0
  6
CONTINUOUS
 62
     7
  5
D1
 10
138.3804
 20
364.648571
 30
0.0
 11
138.3804
 21
363.148571
 31
0.0
  0
ENDBLK
  8
0
  5
D2
  0
BLOCK
  8
0
  5
D5
  2
AID347
 70
     0
 10
0.0
 20
0.0
 30
0.0
  3
#auxiliary draft view
  0
LINE
  8
0
  6
CONTINUOUS
 62
     7
  5
D6
 10
-75.406474
 20
153.376869
 30
0.0
 11
-67.900921
 21
153.376869
 31
0.0
  0
LINE
  8
0
  6
CONTINUOUS
 62
     7
  5
D7
 10
-79.159251
 20
159.876869
 30
0.0
 11
-75.406474
 21
153.376869
 31
0.0
  0
LINE
  8
0
  6
CONTINUOUS
 62
     7
  5
D8
 10
-67.900921
 20
166.376869
 30
0.0
 11
-75.406474
 21
166.376869
 31
0.0
  0
LINE
  8
0
  6
CONTINUOUS
 62
     7
  5
D9
 10
-75.406474
 20
166.376869
 30
0.0
 11
-79.159251
 21
159.876869
 31
0.0
  0
LINE
  8
0
  6
CONTINUOUS
 62
     7
  5
DA
 10
-67.900921
 20
153.376869
 30
0.0
 11
-64.148144
 21
159.876869
 31
0.0
  0
LINE
  8
0
  6
CONTINUOUS
 62
     7
  5
DB
 10
-64.148144
 20
159.876869
 30
0.0
 11
-67.900921
 21
166.376869
 31
0.0
  0
CIRCLE
  8
0
  6
CONTINUOUS
 62
     7
  5
DC
 10
-71.653698
 20
159.876869
 30
0.0
 40
8.75
210
0.0
220
0.0
230
1.0
  0
LINE
  8
0
  6
CONTINUOUS
 62
     7
  5
DD
 10
-47.153698
 20
211.876869
 30
0.0
 11
-47.153698
 21
107.876869
 31
0.0
  0
LINE
  8
0
  6
CONTINUOUS
 62
     7
  5
DE
 10
-96.153698
 20
107.876869
 30
0.0
 11
-96.153698
 21
211.876869
 31
0.0
  0
LINE
  8
0
  6
CONTINUOUS
 62
     7
  5
DF
 10
-96.153698
 20
211.876869
 30
0.0
 11
-47.153698
 21
211.876869
 31
0.0
  0
LINE
  8
0
  6
CONTINUOUS
 62
     7
  5
E0
 10
-47.153698
 20
107.876869
 30
0.0
 11
-96.153698
 21
107.876869
 31
0.0
  0
LINE
  8
0
  6
DOT
 62
     9
  5
E2
 10
-89.653698
 20
136.376869
 30
0.0
 11
-89.653698
 21
130.876869
 31
0.0
  0
LINE
  8
0
  6
DOT
 62
     9
  5
E3
 10
-89.653698
 20
130.876869
 30
0.0
 11
-89.653698
 21
125.376869
 31
0.0
  0
LINE
  8
0
  6
DOT
 62
     9
  5
E4
 10
-53.653698
 20
125.376869
 30
0.0
 11
-53.653698
 21
136.376869
 31
0.0
  0
LINE
  8
0
  6
DOT
 62
     9
  5
E5
 10
-89.653698
 20
183.376869
 30
0.0
 11
-89.653698
 21
188.876869
 31
0.0
  0
LINE
  8
0
  6
DOT
 62
     9
  5
E6
 10
-89.653698
 20
188.876869
 30
0.0
 11
-89.653698
 21
194.376869
 31
0.0
  0
LINE
  8
0
  6
DOT
 62
     9
  5
E7
 10
-53.653698
 20
194.376869
 30
0.0
 11
-53.653698
 21
183.376869
 31
0.0
  0
LINE
  8
0
  6
CONTINUOUS
 62
     7
  5
E8
 10
-92.653698
 20
214.876869
 30
0.0
 11
-94.653698
 21
212.876869
 31
0.0
  0
LINE
  8
0
  6
CONTINUOUS
 62
     7
  5
E9
 10
-92.653698
 20
214.876869
 30
0.0
 11
-48.653698
 21
214.876869
 31
0.0
  0
LINE
  8
0
  6
CONTINUOUS
 62
     7
  5
EA
 10
-48.653698
 20
214.876869
 30
0.0
 11
-48.653698
 21
211.876869
 31
0.0
  0
LINE
  8
0
  6
CONTINUOUS
 62
     7
  5
EB
 10
-48.653698
 20
107.876869
 30
0.0
 11
-48.653698
 21
104.876869
 31
0.0
  0
LINE
  8
0
  6
CONTINUOUS
 62
     7
  5
EC
 10
-92.653698
 20
104.876869
 30
0.0
 11
-48.653698
 21
104.876869
 31
0.0
  0
LINE
  8
0
  6
CONTINUOUS
 62
     7
  5
ED
 10
-94.653698
 20
106.876869
 30
0.0
 11
-92.653698
 21
104.876869
 31
0.0
  0
LINE
  8
0
  6
CONTINUOUS
 62
     7
  5
EE
 10
-94.653698
 20
107.876869
 30
0.0
 11
-94.653698
 21
106.876869
 31
0.0
  0
LINE
  8
0
  6
CONTINUOUS
 62
     7
  5
EF
 10
-94.653698
 20
212.876869
 30
0.0
 11
-94.653698
 21
211.876869
 31
0.0
  0
LINE
  8
0
  6
CONTINUOUS
 62
     7
  5
F0
 10
-94.653698
 20
212.876869
 30
0.0
 11
-94.653698
 21
213.876869
 31
0.0
  0
LINE
  8
0
  6
CONTINUOUS
 62
     7
  5
F1
 10
-96.153698
 20
211.876869
 30
0.0
 11
-96.153698
 21
213.876869
 31
0.0
  0
LINE
  8
0
  6
DOT
 62
     9
  5
F2
 10
-72.247323
 20
191.887197
 30
0.0
 11
-72.614714
 21
191.876964
 31
0.0
  0
LINE
  8
0
  6
DOT
 62
     9
  5
F3
 10
-53.653698
 20
183.376869
 30
0.0
 11
-53.653698
 21
183.126869
 31
0.0
  0
LINE
  8
0
  6
DOT
 62
     9
  5
F4
 10
-89.653698
 20
136.376869
 30
0.0
 11
-96.153698
 21
136.376869
 31
0.0
  0
LINE
  8
0
  6
DOT
 62
     9
  5
F5
 10
-96.153698
 20
125.376869
 30
0.0
 11
-89.653698
 21
125.376869
 31
0.0
  0
LINE
  8
0
  6
DOT
 62
     9
  5
F6
 10
-53.653698
 20
125.376869
 30
0.0
 11
-47.153698
 21
125.376869
 31
0.0
  0
LINE
  8
0
  6
DOT
 62
     9
  5
F7
 10
-47.153698
 20
136.376869
 30
0.0
 11
-53.653698
 21
136.376869
 31
0.0
  0
LINE
  8
0
  6
DOT
 62
     9
  5
F8
 10
-89.653698
 20
194.376869
 30
0.0
 11
-96.153698
 21
194.376869
 31
0.0
  0
LINE
  8
0
  6
DOT
 62
     9
  5
F9
 10
-96.153698
 20
183.376869
 30
0.0
 11
-89.653698
 21
183.376869
 31
0.0
  0
LINE
  8
0
  6
DOT
 62
     9
  5
FA
 10
-53.653698
 20
183.376869
 30
0.0
 11
-47.153698
 21
183.376869
 31
0.0
  0
LINE
  8
0
  6
DOT
 62
     9
  5
FB
 10
-47.153698
 20
194.376869
 30
0.0
 11
-53.653698
 21
194.376869
 31
0.0
  0
LINE
  8
0
  6
DOT
 62
     9
  5
FC
 10
-53.653698
 20
134.126869
 30
0.0
 11
-89.653698
 21
134.126869
 31
0.0
  0
LINE
  8
0
  6
DOT
 62
     9
  5
FD
 10
-89.653698
 20
127.626869
 30
0.0
 11
-53.653698
 21
127.626869
 31
0.0
  0
LINE
  8
0
  6
DOT
 62
     9
  5
FE
 10
-53.653698
 20
192.126869
 30
0.0
 11
-89.653698
 21
192.126869
 31
0.0
  0
LINE
  8
0
  6
DOT
 62
     9
  5
FF
 10
-89.653698
 20
185.626869
 30
0.0
 11
-53.653698
 21
185.626869
 31
0.0
  0
LINE
  8
0
  6
CONTINUOUS
 62
     7
  5
100
 10
-94.653698
 20
213.876869
 30
0.0
 11
-96.153698
 21
213.876869
 31
0.0
  0
ENDBLK
  8
0
  5
101
  0
BLOCK
  8
0
  5
104
  2
AID733
 70
     0
 10
0.0
 20
0.0
 30
0.0
  3
#auxiliary draft view
  0
LINE
  8
0
  6
CONTINUOUS
 62
     7
  5
105
 10
383.3804
 20
-42.112248
 30
0.0
 11
383.3804
 21
6.887752
 31
0.0
  0
LINE
  8
0
  6
CONTINUOUS
 62
     7
  5
106
 10
383.3804
 20
-42.112248
 30
0.0
 11
368.3804
 21
-42.112248
 31
0.0
  0
LINE
  8
0
  6
CONTINUOUS
 62
     7
  5
107
 10
383.3804
 20
6.887752
 30
0.0
 11
368.3804
 21
6.887752
 31
0.0
  0
LINE
  8
0
  6
CONTINUOUS
 62
     7
  5
108
 10
368.3804
 20
-42.112248
 30
0.0
 11
368.3804
 21
6.887752
 31
0.0
  0
LINE
  8
0
  6
CONTINUOUS
 62
     7
  5
109
 10
46.3804
 20
-42.112248
 30
0.0
 11
61.3804
 21
-42.112248
 31
0.0
  0
LINE
  8
0
  6
CONTINUOUS
 62
     7
  5
10A
 10
61.3804
 20
6.887752
 30
0.0
 11
61.3804
 21
-42.112248
 31
0.0
  0
LINE
  8
0
  6
CONTINUOUS
 62
     7
  5
10B
 10
46.3804
 20
6.887752
 30
0.0
 11
61.3804
 21
6.887752
 31
0.0
  0
LINE
  8
0
  6
CONTINUOUS
 62
     7
  5
10C
 10
46.3804
 20
6.887752
 30
0.0
 11
46.3804
 21
-42.112248
 31
0.0
  0
LINE
  8
0
  6
CONTINUOUS
 62
     7
  5
10D
 10
66.6804
 20
-26.862248
 30
0.0
 11
66.6804
 21
-26.612248
 31
0.0
  0
LINE
  8
0
  6
CONTINUOUS
 62
     7
  5
10E
 10
66.6804
 20
-10.612248
 30
0.0
 11
66.6804
 21
-8.362248
 31
0.0
  0
LINE
  8
0
  6
CONTINUOUS
 62
     7
  5
10F
 10
366.6804
 20
-8.862248
 30
0.0
 11
366.6804
 21
-10.612248
 31
0.0
  0
LINE
  8
0
  6
CONTINUOUS
 62
     7
  5
110
 10
386.4804
 20
-13.859471
 30
0.0
 11
383.3804
 21
-13.859471
 31
0.0
  0
LINE
  8
0
  6
CONTINUOUS
 62
     7
  5
111
 10
386.4804
 20
-13.859471
 30
0.0
 11
386.4804
 21
-21.365024
 31
0.0
  0
LINE
  8
0
  6
CONTINUOUS
 62
     7
  5
112
 10
386.4804
 20
-21.365024
 30
0.0
 11
383.3804
 21
-21.365024
 31
0.0
  0
LINE
  8
0
  6
CONTINUOUS
 62
     7
  5
113
 10
386.4804
 20
-21.365024
 30
0.0
 11
386.4804
 21
-25.117801
 31
0.0
  0
LINE
  8
0
  6
CONTINUOUS
 62
     7
  5
114
 10
386.4804
 20
-25.117801
 30
0.0
 11
383.3804
 21
-25.117801
 31
0.0
  0
LINE
  8
0
  6
CONTINUOUS
 62
     7
  5
115
 10
386.4804
 20
-10.106694
 30
0.0
 11
383.3804
 21
-10.106694
 31
0.0
  0
LINE
  8
0
  6
CONTINUOUS
 62
     7
  5
116
 10
386.4804
 20
-10.106694
 30
0.0
 11
386.4804
 21
-13.859471
 31
0.0
  0
LINE
  8
0
  6
CONTINUOUS
 62
     7
  5
117
 10
67.3804
 20
-38.612248
 30
0.0
 11
237.3804
 21
-38.612248
 31
0.0
  0
LINE
  8
0
  6
CONTINUOUS
 62
     7
  5
118
 10
237.3804
 20
-38.612248
 30
0.0
 11
237.3804
 21
-40.612248
 31
0.0
  0
LINE
  8
0
  6
CONTINUOUS
 62
     7
  5
119
 10
237.3804
 20
-40.612248
 30
0.0
 11
157.576553
 21
-40.612248
 31
0.0
  0
LINE
  8
0
  6
CONTINUOUS
 62
     7
  5
11A
 10
147.184248
 20
-40.612248
 30
0.0
 11
67.3804
 21
-40.612248
 31
0.0
  0
LINE
  8
0
  6
CONTINUOUS
 62
     7
  5
11B
 10
67.3804
 20
-40.612248
 30
0.0
 11
67.3804
 21
-38.612248
 31
0.0
  0
LINE
  8
0
  6
CONTINUOUS
 62
     7
  5
11C
 10
67.3804
 20
5.387752
 30
0.0
 11
237.3804
 21
5.387752
 31
0.0
  0
LINE
  8
0
  6
CONTINUOUS
 62
     7
  5
11D
 10
237.3804
 20
-38.612248
 30
0.0
 11
237.3804
 21
5.387752
 31
0.0
  0
LINE
  8
0
  6
CONTINUOUS
 62
     7
  5
11E
 10
67.3804
 20
-38.612248
 30
0.0
 11
67.3804
 21
5.387752
 31
0.0
  0
LINE
  8
0
  6
CONTINUOUS
 62
     7
  5
11F
 10
157.576553
 20
-40.612248
 30
0.0
 11
147.184248
 21
-40.612248
 31
0.0
  0
LINE
  8
0
  6
CONTINUOUS
 62
     7
  5
120
 10
166.3804
 20
-42.112248
 30
0.0
 11
138.3804
 21
-42.112248
 31
0.0
  0
LINE
  8
0
  6
CONTINUOUS
 62
     7
  5
121
 10
368.3804
 20
-10.612248
 30
0.0
 11
237.3804
 21
-10.612248
 31
0.0
  0
LINE
  8
0
  6
CONTINUOUS
 62
     7
  5
122
 10
67.3804
 20
-10.612248
 30
0.0
 11
61.3804
 21
-10.612248
 31
0.0
  0
LINE
  8
0
  6
CONTINUOUS
 62
     7
  5
123
 10
61.3804
 20
-26.612248
 30
0.0
 11
67.3804
 21
-26.612248
 31
0.0
  0
LINE
  8
0
  6
CONTINUOUS
 62
     7
  5
124
 10
237.3804
 20
-26.612248
 30
0.0
 11
368.3804
 21
-26.612248
 31
0.0
  0
LINE
  8
0
  6
CONTINUOUS
 62
     7
  5
125
 10
67.3804
 20
-28.612248
 30
0.0
 11
61.3804
 21
-28.612248
 31
0.0
  0
LINE
  8
0
  6
CONTINUOUS
 62
     7
  5
126
 10
61.3804
 20
-40.612248
 30
0.0
 11
67.3804
 21
-40.612248
 31
0.0
  0
LINE
  8
0
  6
CONTINUOUS
 62
     7
  5
127
 10
66.6804
 20
-8.362248
 30
0.0
 11
61.3804
 21
-8.362248
 31
0.0
  0
LINE
  8
0
  6
CONTINUOUS
 62
     7
  5
128
 10
61.3804
 20
-26.862248
 30
0.0
 11
66.6804
 21
-26.862248
 31
0.0
  0
LINE
  8
0
  6
CONTINUOUS
 62
     7
  5
129
 10
368.3804
 20
-8.862248
 30
0.0
 11
366.6804
 21
-8.862248
 31
0.0
  0
LINE
  8
0
  6
CONTINUOUS
 62
     7
  5
12A
 10
368.3804
 20
-8.612248
 30
0.0
 11
237.3804
 21
-8.612248
 31
0.0
  0
LINE
  8
0
  6
CONTINUOUS
 62
     7
  5
12B
 10
67.3804
 20
-8.612248
 30
0.0
 11
66.6804
 21
-8.612248
 31
0.0
  0
LINE
  8
0
  6
CONTINUOUS
 62
     7
  5
12C
 10
138.3804
 20
-40.612248
 30
0.0
 11
138.3804
 21
-42.112248
 31
0.0
  0
LINE
  8
0
  6
CONTINUOUS
 62
     7
  5
12D
 10
166.3804
 20
-42.112248
 30
0.0
 11
166.3804
 21
-40.612248
 31
0.0
  0
ENDBLK
  8
0
  5
12E
  0
BLOCK
  8
0
  5
131
  2
AID819
 70
     0
 10
0.0
 20
0.0
 30
0.0
  3
#auxiliary draft view
  0
CIRCLE
  8
0
  6
CONTINUOUS
 62
     7
  5
132
 10
53.8804
 20
489.291667
 30
0.0
 40
5.5
210
0.0
220
0.0
230
1.0
  0
CIRCLE
  8
0
  6
CONTINUOUS
 62
     7
  5
133
 10
53.8804
 20
547.291667
 30
0.0
 40
5.5
210
0.0
220
0.0
230
1.0
  0
LINE
  8
0
  6
CONTINUOUS
 62
     7
  5
134
 10
46.3804
 20
466.291667
 30
0.0
 11
61.3804
 21
466.291667
 31
0.0
  0
LINE
  8
0
  6
CONTINUOUS
 62
     7
  5
135
 10
46.3804
 20
570.291667
 30
0.0
 11
61.3804
 21
570.291667
 31
0.0
  0
LINE
  8
0
  6
CONTINUOUS
 62
     7
  5
136
 10
61.3804
 20
570.291667
 30
0.0
 11
61.3804
 21
466.291667
 31
0.0
  0
LINE
  8
0
  6
CONTINUOUS
 62
     7
  5
137
 10
46.3804
 20
570.291667
 30
0.0
 11
46.3804
 21
466.291667
 31
0.0
  0
CIRCLE
  8
0
  6
CONTINUOUS
 62
     7
  5
138
 10
375.8804
 20
489.291667
 30
0.0
 40
5.5
210
0.0
220
0.0
230
1.0
  0
CIRCLE
  8
0
  6
CONTINUOUS
 62
     7
  5
139
 10
375.8804
 20
547.291667
 30
0.0
 40
5.5
210
0.0
220
0.0
230
1.0
  0
LINE
  8
0
  6
CONTINUOUS
 62
     7
  5
13A
 10
383.3804
 20
570.291667
 30
0.0
 11
368.3804
 21
570.291667
 31
0.0
  0
LINE
  8
0
  6
CONTINUOUS
 62
     7
  5
13B
 10
383.3804
 20
466.291667
 30
0.0
 11
383.3804
 21
570.291667
 31
0.0
  0
LINE
  8
0
  6
CONTINUOUS
 62
     7
  5
13C
 10
383.3804
 20
466.291667
 30
0.0
 11
368.3804
 21
466.291667
 31
0.0
  0
LINE
  8
0
  6
CONTINUOUS
 62
     7
  5
13D
 10
368.3804
 20
466.291667
 30
0.0
 11
368.3804
 21
570.291667
 31
0.0
  0
CIRCLE
  8
0
  6
CONTINUOUS
 62
     7
  5
13E
 10
53.8804
 20
547.291667
 30
0.0
 40
3.25
210
0.0
220
0.0
230
1.0
  0
CIRCLE
  8
0
  6
CONTINUOUS
 62
     7
  5
13F
 10
53.8804
 20
489.291667
 30
0.0
 40
3.25
210
0.0
220
0.0
230
1.0
  0
CIRCLE
  8
0
  6
CONTINUOUS
 62
     7
  5
140
 10
375.8804
 20
489.291667
 30
0.0
 40
3.25
210
0.0
220
0.0
230
1.0
  0
CIRCLE
  8
0
  6
CONTINUOUS
 62
     7
  5
141
 10
375.8804
 20
547.291667
 30
0.0
 40
3.25
210
0.0
220
0.0
230
1.0
  0
LINE
  8
0
  6
CONTINUOUS
 62
     7
  5
142
 10
66.6804
 20
509.041667
 30
0.0
 11
66.6804
 21
527.541667
 31
0.0
  0
LINE
  8
0
  6
CONTINUOUS
 62
     7
  5
143
 10
366.6804
 20
527.041667
 30
0.0
 11
366.6804
 21
509.541667
 31
0.0
  0
LINE
  8
0
  6
CONTINUOUS
 62
     7
  5
144
 10
386.4804
 20
524.791667
 30
0.0
 11
383.3804
 21
524.791667
 31
0.0
  0
LINE
  8
0
  6
CONTINUOUS
 62
     7
  5
145
 10
386.4804
 20
518.291667
 30
0.0
 11
383.3804
 21
518.291667
 31
0.0
  0
LINE
  8
0
  6
CONTINUOUS
 62
     7
  5
146
 10
386.4804
 20
524.791667
 30
0.0
 11
386.4804
 21
518.291667
 31
0.0
  0
LINE
  8
0
  6
CONTINUOUS
 62
     7
  5
147
 10
386.4804
 20
511.791667
 30
0.0
 11
383.3804
 21
511.791667
 31
0.0
  0
LINE
  8
0
  6
CONTINUOUS
 62
     7
  5
148
 10
386.4804
 20
518.291667
 30
0.0
 11
386.4804
 21
511.791667
 31
0.0
  0
LINE
  8
0
  6
CONTINUOUS
 62
     7
  5
149
 10
356.8054
 20
522.291667
 30
0.0
 11
356.8054
 21
514.291667
 31
0.0
  0
LINE
  8
0
  6
CONTINUOUS
 62
     7
  5
14A
 10
356.1804
 20
514.916667
 30
0.0
 11
356.1804
 21
521.666667
 31
0.0
  0
CIRCLE
  8
0
  6
CONTINUOUS
 62
     7
  5
14B
 10
152.3804
 20
495.041667
 30
0.0
 40
2.51
210
0.0
220
0.0
230
1.0
  0
CIRCLE
  8
0
  6
CONTINUOUS
 62
     7
  5
14C
 10
152.3804
 20
541.541667
 30
0.0
 40
2.51
210
0.0
220
0.0
230
1.0
  0
CIRCLE
  8
0
  6
CONTINUOUS
 62
     7
  5
14D
 10
202.3804
 20
495.041667
 30
0.0
 40
4.0
210
0.0
220
0.0
230
1.0
  0
CIRCLE
  8
0
  6
CONTINUOUS
 62
     7
  5
14E
 10
102.3804
 20
495.041667
 30
0.0
 40
4.0
210
0.0
220
0.0
230
1.0
  0
CIRCLE
  8
0
  6
CONTINUOUS
 62
     7
  5
14F
 10
202.3804
 20
541.541667
 30
0.0
 40
4.0
210
0.0
220
0.0
230
1.0
  0
CIRCLE
  8
0
  6
CONTINUOUS
 62
     7
  5
150
 10
102.3804
 20
541.541667
 30
0.0
 40
4.0
210
0.0
220
0.0
230
1.0
  0
LINE
  8
0
  6
CONTINUOUS
 62
     7
  5
151
 10
237.3804
 20
573.291667
 30
0.0
 11
67.3804
 21
573.291667
 31
0.0
  0
LINE
  8
0
  6
CONTINUOUS
 62
     7
  5
152
 10
237.3804
 20
463.291667
 30
0.0
 11
237.3804
 21
573.291667
 31
0.0
  0
LINE
  8
0
  6
CONTINUOUS
 62
     7
  5
153
 10
67.3804
 20
463.291667
 30
0.0
 11
237.3804
 21
463.291667
 31
0.0
  0
LINE
  8
0
  6
CONTINUOUS
 62
     7
  5
154
 10
67.3804
 20
573.291667
 30
0.0
 11
67.3804
 21
463.291667
 31
0.0
  0
CIRCLE
  8
0
  6
CONTINUOUS
 62
     7
  5
155
 10
202.3804
 20
541.541667
 30
0.0
 40
3.3235
210
0.0
220
0.0
230
1.0
  0
CIRCLE
  8
0
  6
CONTINUOUS
 62
     7
  5
156
 10
102.3804
 20
541.541667
 30
0.0
 40
3.3235
210
0.0
220
0.0
230
1.0
  0
CIRCLE
  8
0
  6
CONTINUOUS
 62
     7
  5
157
 10
202.3804
 20
495.041667
 30
0.0
 40
3.3235
210
0.0
220
0.0
230
1.0
  0
CIRCLE
  8
0
  6
CONTINUOUS
 62
     7
  5
158
 10
102.3804
 20
495.041667
 30
0.0
 40
3.3235
210
0.0
220
0.0
230
1.0
  0
LINE
  8
0
  6
CONTINUOUS
 62
     7
  5
159
 10
66.6804
 20
527.541667
 30
0.0
 11
61.3804
 21
527.541667
 31
0.0
  0
LINE
  8
0
  6
CONTINUOUS
 62
     7
  5
15A
 10
61.3804
 20
509.041667
 30
0.0
 11
66.6804
 21
509.041667
 31
0.0
  0
LINE
  8
0
  6
CONTINUOUS
 62
     7
  5
15B
 10
368.3804
 20
566.291667
 30
0.0
 11
237.3804
 21
566.291667
 31
0.0
  0
LINE
  8
0
  6
CONTINUOUS
 62
     7
  5
15C
 10
67.3804
 20
566.291667
 30
0.0
 11
61.3804
 21
566.291667
 31
0.0
  0
LINE
  8
0
  6
CONTINUOUS
 62
     7
  5
15D
 10
61.3804
 20
550.291667
 30
0.0
 11
67.3804
 21
550.291667
 31
0.0
  0
LINE
  8
0
  6
CONTINUOUS
 62
     7
  5
15E
 10
237.3804
 20
550.291667
 30
0.0
 11
368.3804
 21
550.291667
 31
0.0
  0
LINE
  8
0
  6
CONTINUOUS
 62
     7
  5
15F
 10
368.3804
 20
527.041667
 30
0.0
 11
366.6804
 21
527.041667
 31
0.0
  0
LINE
  8
0
  6
CONTINUOUS
 62
     7
  5
160
 10
366.6804
 20
509.541667
 30
0.0
 11
368.3804
 21
509.541667
 31
0.0
  0
LINE
  8
0
  6
CONTINUOUS
 62
     7
  5
161
 10
368.3804
 20
486.291667
 30
0.0
 11
237.3804
 21
486.291667
 31
0.0
  0
LINE
  8
0
  6
CONTINUOUS
 62
     7
  5
162
 10
67.3804
 20
486.291667
 30
0.0
 11
61.3804
 21
486.291667
 31
0.0
  0
LINE
  8
0
  6
CONTINUOUS
 62
     7
  5
163
 10
61.3804
 20
470.291667
 30
0.0
 11
67.3804
 21
470.291667
 31
0.0
  0
LINE
  8
0
  6
CONTINUOUS
 62
     7
  5
164
 10
237.3804
 20
470.291667
 30
0.0
 11
368.3804
 21
470.291667
 31
0.0
  0
LINE
  8
0
  6
CONTINUOUS
 62
     7
  5
165
 10
67.3804
 20
522.291667
 30
0.0
 11
66.6804
 21
522.291667
 31
0.0
  0
LINE
  8
0
  6
CONTINUOUS
 62
     7
  5
166
 10
66.6804
 20
514.291667
 30
0.0
 11
67.3804
 21
514.291667
 31
0.0
  0
LINE
  8
0
  6
CONTINUOUS
 62
     7
  5
167
 10
366.6804
 20
522.291667
 30
0.0
 11
356.8054
 21
522.291667
 31
0.0
  0
LINE
  8
0
  6
CONTINUOUS
 62
     7
  5
168
 10
356.8054
 20
514.291667
 30
0.0
 11
366.6804
 21
514.291667
 31
0.0
  0
LINE
  8
0
  6
CONTINUOUS
 62
     7
  5
169
 10
356.8054
 20
522.291667
 30
0.0
 11
356.1804
 21
521.666667
 31
0.0
  0
LINE
  8
0
  6
CONTINUOUS
 62
     7
  5
16A
 10
356.1804
 20
514.916667
 30
0.0
 11
356.8054
 21
514.291667
 31
0.0
  0
LINE
  8
0
  6
CONTINUOUS
 62
     7
  5
16B
 10
67.3804
 20
507.791667
 30
0.0
 11
61.3804
 21
507.791667
 31
0.0
  0
LINE
  8
0
  6
CONTINUOUS
 62
     7
  5
16C
 10
61.3804
 20
495.791667
 30
0.0
 11
67.3804
 21
495.791667
 31
0.0
  0
ENDBLK
  8
0
  5
16D
  0
ENDSEC
  0
SECTION
  2
ENTITIES
  0
INSERT
  8
0
  5
A8
  2
AID3
 10
0.0
 20
0.0
 30
0.0
  0
INSERT
  8
0
  5
D3
  2
AID265
 10
0.0
 20
0.0
 30
0.0
  0
INSERT
  8
0
  5
102
  2
AID347
 10
0.0
 20
0.0
 30
0.0
  0
INSERT
  8
0
  5
12F
  2
AID733
 10
0.0
 20
0.0
 30
0.0
  0
INSERT
  8
0
  5
16E
  2
AID819
 10
0.0
 20
0.0
 30
0.0
  0
LINE
  8
0
  6
CENTER
 62
     1
  5
170
 10
47.6304
 20
547.291667
 30
0.0
 11
60.1304
 21
547.291667
 31
0.0
  0
LINE
  8
0
  6
CENTER
 62
     1
  5
171
 10
47.6304
 20
489.291667
 30
0.0
 11
60.1304
 21
489.291667
 31
0.0
  0
LINE
  8
0
  6
CENTER
 62
     1
  5
172
 10
369.6304
 20
547.291667
 30
0.0
 11
382.1304
 21
547.291667
 31
0.0
  0
LINE
  8
0
  6
CENTER
 62
     1
  5
173
 10
369.6304
 20
489.291667
 30
0.0
 11
382.1304
 21
489.291667
 31
0.0
  0
LINE
  8
0
  6
CENTER
 62
     1
  5
174
 10
371.3804
 20
558.291667
 30
0.0
 11
234.3804
 21
558.291667
 31
0.0
  0
LINE
  8
0
  6
CENTER
 62
     1
  5
175
 10
371.3804
 20
478.291667
 30
0.0
 11
234.3804
 21
478.291667
 31
0.0
  0
LINE
  8
0
  6
CENTER
 62
     1
  5
176
 10
70.3804
 20
558.291667
 30
0.0
 11
58.3804
 21
558.291667
 31
0.0
  0
LINE
  8
0
  6
CENTER
 62
     1
  5
177
 10
70.3804
 20
478.291667
 30
0.0
 11
58.3804
 21
478.291667
 31
0.0
  0
LINE
  8
0
  6
CENTER
 62
     1
  5
178
 10
390.3804
 20
518.291667
 30
0.0
 11
44.3804
 21
518.291667
 31
0.0
  0
LINE
  8
0
  6
CENTER
 62
     1
  5
179
 10
152.3804
 20
576.291667
 30
0.0
 11
152.3804
 21
460.291667
 31
0.0
  0
LINE
  8
0
  6
CENTER
 62
     1
  5
17A
 10
96.0569
 20
541.541667
 30
0.0
 11
208.7039
 21
541.541667
 31
0.0
  0
LINE
  8
0
  6
CENTER
 62
     1
  5
17B
 10
96.0569
 20
495.041667
 30
0.0
 11
208.7039
 21
495.041667
 31
0.0
  0
LINE
  8
0
  6
CENTER
 62
     1
  5
17C
 10
102.3804
 20
488.718167
 30
0.0
 11
102.3804
 21
547.865167
 31
0.0
  0
LINE
  8
0
  6
CENTER
 62
     1
  5
17D
 10
202.3804
 20
488.718167
 30
0.0
 11
202.3804
 21
547.865167
 31
0.0
  0
LINE
  8
0
  6
CENTER
 62
     1
  5
17E
 10
53.8804
 20
483.041667
 30
0.0
 11
53.8804
 21
553.541667
 31
0.0
  0
LINE
  8
0
  6
CENTER
 62
     1
  5
17F
 10
375.8804
 20
483.041667
 30
0.0
 11
375.8804
 21
553.541667
 31
0.0
  0
LINE
  8
0
  6
CENTER
 62
     1
  5
180
 10
53.8804
 20
367.648571
 30
0.0
 11
53.8804
 21
312.648571
 31
0.0
  0
LINE
  8
0
  6
CENTER
 62
     1
  5
181
 10
375.8804
 20
312.648571
 30
0.0
 11
375.8804
 21
367.648571
 31
0.0
  0
LINE
  8
0
  6
CENTER
 62
     1
  5
182
 10
152.3804
 20
364.148571
 30
0.0
 11
152.3804
 21
314.148571
 31
0.0
  0
LINE
  8
0
  6
CENTER
 62
     1
  5
183
 10
53.8804
 20
9.887752
 30
0.0
 11
53.8804
 21
-45.112248
 31
0.0
  0
LINE
  8
0
  6
CENTER
 62
     1
  5
184
 10
375.8804
 20
-45.112248
 30
0.0
 11
375.8804
 21
9.887752
 31
0.0
  0
LINE
  8
0
  6
CENTER
 62
     1
  5
185
 10
152.3804
 20
-41.612248
 30
0.0
 11
152.3804
 21
8.387752
 31
0.0
  0
LINE
  8
0
  6
CENTER
 62
     1
  5
186
 10
47.6304
 20
188.876869
 30
0.0
 11
60.1304
 21
188.876869
 31
0.0
  0
LINE
  8
0
  6
CENTER
 62
     1
  5
187
 10
47.6304
 20
130.876869
 30
0.0
 11
60.1304
 21
130.876869
 31
0.0
  0
LINE
  8
0
  6
CENTER
 62
     1
  5
188
 10
96.0569
 20
136.626869
 30
0.0
 11
108.7039
 21
136.626869
 31
0.0
  0
LINE
  8
0
  6
CENTER
 62
     1
  5
189
 10
102.3804
 20
130.303369
 30
0.0
 11
102.3804
 21
142.950369
 31
0.0
  0
LINE
  8
0
  6
CENTER
 62
     1
  5
18A
 10
96.0569
 20
183.126869
 30
0.0
 11
108.7039
 21
183.126869
 31
0.0
  0
LINE
  8
0
  6
CENTER
 62
     1
  5
18B
 10
102.3804
 20
176.803369
 30
0.0
 11
102.3804
 21
189.450369
 31
0.0
  0
LINE
  8
0
  6
CENTER
 62
     1
  5
18C
 10
196.0569
 20
183.126869
 30
0.0
 11
208.7039
 21
183.126869
 31
0.0
  0
LINE
  8
0
  6
CENTER
 62
     1
  5
18D
 10
202.3804
 20
176.803369
 30
0.0
 11
202.3804
 21
189.450369
 31
0.0
  0
LINE
  8
0
  6
CENTER
 62
     1
  5
18E
 10
196.0569
 20
136.626869
 30
0.0
 11
208.7039
 21
136.626869
 31
0.0
  0
LINE
  8
0
  6
CENTER
 62
     1
  5
18F
 10
202.3804
 20
130.303369
 30
0.0
 11
202.3804
 21
142.950369
 31
0.0
  0
LINE
  8
0
  6
CENTER
 62
     1
  5
190
 10
185.8804
 20
139.876869
 30
0.0
 11
196.8804
 21
139.876869
 31
0.0
  0
LINE
  8
0
  6
CENTER
 62
     1
  5
191
 10
191.3804
 20
134.376869
 30
0.0
 11
191.3804
 21
145.376869
 31
0.0
  0
LINE
  8
0
  6
CENTER
 62
     1
  5
192
 10
186.3134
 20
179.876869
 30
0.0
 11
196.4474
 21
179.876869
 31
0.0
  0
LINE
  8
0
  6
CENTER
 62
     1
  5
193
 10
191.3804
 20
174.809869
 30
0.0
 11
191.3804
 21
184.943869
 31
0.0
  0
LINE
  8
0
  6
CENTER
 62
     1
  5
194
 10
154.3134
 20
141.876869
 30
0.0
 11
164.4474
 21
141.876869
 31
0.0
  0
LINE
  8
0
  6
CENTER
 62
     1
  5
195
 10
159.3804
 20
136.809869
 30
0.0
 11
159.3804
 21
146.943869
 31
0.0
  0
LINE
  8
0
  6
CENTER
 62
     1
  5
196
 10
130.3134
 20
141.876869
 30
0.0
 11
140.4474
 21
141.876869
 31
0.0
  0
LINE
  8
0
  6
CENTER
 62
     1
  5
197
 10
135.3804
 20
136.809869
 30
0.0
 11
135.3804
 21
146.943869
 31
0.0
  0
LINE
  8
0
  6
CENTER
 62
     1
  5
198
 10
369.6304
 20
130.876869
 30
0.0
 11
382.1304
 21
130.876869
 31
0.0
  0
LINE
  8
0
  6
CENTER
 62
     1
  5
199
 10
369.6304
 20
188.876869
 30
0.0
 11
382.1304
 21
188.876869
 31
0.0
  0
LINE
  8
0
  6
CENTER
 62
     1
  5
19A
 10
375.8804
 20
124.626869
 30
0.0
 11
375.8804
 21
195.126869
 31
0.0
  0
LINE
  8
0
  6
CENTER
 62
     1
  5
19B
 10
53.8804
 20
124.626869
 30
0.0
 11
53.8804
 21
195.126869
 31
0.0
  0
LINE
  8
0
  6
CENTER
 62
     1
  5
19C
 10
44.3804
 20
159.876869
 30
0.0
 11
390.3804
 21
159.876869
 31
0.0
  0
LINE
  8
0
  6
CENTER
 62
     1
  5
19D
 10
371.3804
 20
199.876869
 30
0.0
 11
234.3804
 21
199.876869
 31
0.0
  0
LINE
  8
0
  6
CENTER
 62
     1
  5
19E
 10
371.3804
 20
119.876869
 30
0.0
 11
234.3804
 21
119.876869
 31
0.0
  0
LINE
  8
0
  6
CENTER
 62
     1
  5
19F
 10
70.3804
 20
119.876869
 30
0.0
 11
58.3804
 21
119.876869
 31
0.0
  0
LINE
  8
0
  6
CENTER
 62
     1
  5
1A0
 10
70.3804
 20
199.876869
 30
0.0
 11
58.3804
 21
199.876869
 31
0.0
  0
LINE
  8
0
  6
CENTER
 62
     1
  5
1A1
 10
-45.653698
 20
188.876869
 30
0.0
 11
-97.653698
 21
188.876869
 31
0.0
  0
LINE
  8
0
  6
CENTER
 62
     1
  5
1A2
 10
-45.653698
 20
130.876869
 30
0.0
 11
-97.653698
 21
130.876869
 31
0.0
  0
LINE
  8
0
  6
CENTER
 62
     1
  5
1A3
 10
152.3804
 20
220.076869
 30
0.0
 11
152.3804
 21
99.676869
 31
0.0
  0
TEXT
  8
0
 62
     7
  5
1A4
 10
-94.153698
 20
32.376869
 30
0.0
 40
5.5
  1
Représenté pour LS 300 mm
210
0.0
220
0.0
230
1.0
  0
TEXT
  8
0
 62
     7
  5
1A5
 10
-94.153698
 20
17.376869
 30
0.0
 40
5.5
  1
Represented for LS 300 mm
210
0.0
220
0.0
230
1.0
  0
TEXT
  8
0
 62
     7
  5
1A6
 10
-94.153698
 20
2.376869
 30
0.0
 40
5.5
  1
Für LS 300 mm vorgestellt
210
0.0
220
0.0
230
1.0
  0
ENDSEC
  0
EOF
