  0
SECTION
  2
HEADER
  9
$ACADVER
  1
AC1009
  9
$DWGCODEPAGE
  3
ansi_1252
  9
$INSBASE
 10
0.0
 20
0.0
 30
0.0
  9
$EXTMIN
 10
-11.0
 20
-10.9525
 30
0.0
  9
$EXTMAX
 10
588.0
 20
389.6
 30
4.0
  9
$LIMMIN
 10
-11.0
 20
-10.9525
  9
$LIMMAX
 10
588.0
 20
389.6
  9
$ORTHOMODE
 70
     0
  9
$REGENMODE
 70
     1
  9
$FILLMODE
 70
     1
  9
$QTEXTMODE
 70
     0
  9
$MIRRTEXT
 70
     1
  9
$DRAGMODE
 70
     2
  9
$LTSCALE
 40
10.0
  9
$OSMODE
 70
     0
  9
$ATTMODE
 70
     1
  9
$TEXTSIZE
 40
0.2
  9
$TRACEWID
 40
0.05
  9
$TEXTSTYLE
  7
STANDARD
  9
$CLAYER
  8
0
  9
$CELTYPE
  6
CONTINUOUS
  9
$CECOLOR
 62
   256
  9
$DIMSCALE
 40
1.0
  9
$DIMASZ
 40
1.25
  9
$DIMEXO
 40
1.0
  9
$DIMDLI
 40
0.38
  9
$DIMRND
 40
0.0
  9
$DIMDLE
 40
0.0
  9
$DIMEXE
 40
0.75
  9
$DIMTP
 40
0.0
  9
$DIMTM
 40
0.0
  9
$DIMTXT
 40
2.5
  9
$DIMCEN
 40
0.09
  9
$DIMTSZ
 40
0.0
  9
$DIMTOL
 70
     0
  9
$DIMLIM
 70
     0
  9
$DIMTIH
 70
     0
  9
$DIMTOH
 70
     0
  9
$DIMSE1
 70
     0
  9
$DIMSE2
 70
     0
  9
$DIMTAD
 70
     1
  9
$DIMZIN
 70
     0
  9
$DIMBLK
  1

  9
$DIMASO
 70
     1
  9
$DIMSHO
 70
     1
  9
$DIMPOST
  1

  9
$DIMAPOST
  1

  9
$DIMALT
 70
     0
  9
$DIMALTD
 70
     2
  9
$DIMALTF
 40
25.4
  9
$DIMLFAC
 40
1.0
  9
$DIMTOFL
 70
     0
  9
$DIMTVP
 40
0.0
  9
$DIMTIX
 70
     0
  9
$DIMSOXD
 70
     0
  9
$DIMSAH
 70
     0
  9
$DIMBLK1
  1

  9
$DIMBLK2
  1

  9
$DIMSTYLE
  2
STANDARD
  9
$DIMCLRD
 70
     7
  9
$DIMCLRE
 70
     7
  9
$DIMCLRT
 70
     7
  9
$DIMTFAC
 40
0.8
  9
$DIMGAP
 40
1.25
  9
$LUNITS
 70
     2
  9
$LUPREC
 70
     4
  9
$AXISMODE
 70
     0
  9
$AXISUNIT
 10
0.0
 20
0.0
  9
$SKETCHINC
 40
0.1
  9
$FILLETRAD
 40
0.0
  9
$AUNITS
 70
     0
  9
$AUPREC
 70
     0
  9
$MENU
  1
acad
  9
$ELEVATION
 40
0.0
  9
$PELEVATION
 40
0.0
  9
$THICKNESS
 40
0.0
  9
$LIMCHECK
 70
     0
  9
$BLIPMODE
 70
     1
  9
$CHAMFERA
 40
0.0
  9
$CHAMFERB
 40
0.0
  9
$SKPOLY
 70
     0
  9
$TDCREATE
 40
2454629.352523148
  9
$TDUPDATE
 40
2454629.268692130
  9
$TDINDWG
 40
0.0000000000
  9
$TDUSRTIMER
 40
0.0000000000
  9
$USRTIMER
 70
     1
  9
$ANGBASE
 50
0.0
  9
$ANGDIR
 70
     0
  9
$PDMODE
 70
     0
  9
$PDSIZE
 40
0.0
  9
$PLINEWID
 40
0.0
  9
$COORDS
 70
     0
  9
$SPLFRAME
 70
     0
  9
$SPLINETYPE
 70
     6
  9
$SPLINESEGS
 70
     8
  9
$ATTDIA
 70
     0
  9
$ATTREQ
 70
     1
  9
$HANDLING
 70
     1
  9
$HANDSEED
  5
1BB
  9
$SURFTAB1
 70
     6
  9
$SURFTAB2
 70
     6
  9
$SURFTYPE
 70
     6
  9
$SURFU
 70
     6
  9
$SURFV
 70
     6
  9
$UCSNAME
  2

  9
$UCSORG
 10
0.0
 20
0.0
 30
0.0
  9
$UCSXDIR
 10
1.0
 20
0.0
 30
0.0
  9
$UCSYDIR
 10
0.0
 20
1.0
 30
0.0
  9
$PUCSNAME
  2

  9
$PUCSORG
 10
0.0
 20
0.0
 30
0.0
  9
$PUCSXDIR
 10
1.0
 20
0.0
 30
0.0
  9
$PUCSYDIR
 10
0.0
 20
1.0
 30
0.0
  9
$USERI1
 70
     0
  9
$USERI2
 70
     0
  9
$USERI3
 70
     0
  9
$USERI4
 70
     0
  9
$USERI5
 70
     0
  9
$USERR1
 40
0.0
  9
$USERR2
 40
0.0
  9
$USERR3
 40
0.0
  9
$USERR4
 40
0.0
  9
$USERR5
 40
0.0
  9
$WORLDVIEW
 70
     1
  9
$SHADEDGE
 70
     3
  9
$SHADEDIF
 70
    70
  9
$TILEMODE
 70
     1
  9
$MAXACTVP
 70
    16
  9
$PINSBASE
 10
0.0
 20
0.0
 30
0.0
  9
$PLIMCHECK
 70
     0
  9
$PEXTMIN
 10
1.000000E+20
 20
1.000000E+20
 30
1.000000E+20
  9
$PEXTMAX
 10
-1.000000E+20
 20
-1.000000E+20
 30
-1.000000E+20
  9
$PLIMMIN
 10
0.0
 20
0.0
  9
$PLIMMAX
 10
12.0
 20
9.0
  9
$UNITMODE
 70
     0
  9
$VISRETAIN
 70
     0
  9
$PLINEGEN
 70
     1
  9
$PSLTSCALE
 70
     0
  9
$TREEDEPTH
 70
  3020
  0
ENDSEC
  0
SECTION
  2
TABLES
  0
TABLE
  2
VPORT
 70
     1
  0
VPORT
  2
*ACTIVE
 70
     0
 10
0.0
 20
0.0
 11
1.0
 21
1.0
 12
6.591288
 22
4.579184
 13
0.0
 23
0.0
 14
1.0
 24
1.0
 15
0.0
 25
0.0
 16
0.0
 26
0.0
 36
1.0
 17
0.0
 27
0.0
 37
0.0
 40
9.158369
 41
0.688564
 42
50.0
 43
0.0
 44
0.0
 50
0.0
 51
0.0
 71
     0
 72
   100
 73
     1
 74
     1
 75
     0
 76
     0
 77
     0
 78
     0
  0
ENDTAB
  0
TABLE
  2
LTYPE
 70
     2
  0
LTYPE
  2
CONTINUOUS
 70
    64
  3
Solid line
 72
    65
 73
     0
 40
0.0
  0
LTYPE
  2
CENTER
 70
    64
  3
____ _ ____ _ ____ _ ____ _ ____ _ ____ _ ____
 72
    65
 73
     4
 40
2.0
 49
1.25
 49
-0.25
 49
0.25
 49
-0.25
  0
ENDTAB
  0
TABLE
  2
LAYER
 70
     1
  0
LAYER
  2
0
 70
     0
 62
     7
  6
CONTINUOUS
  0
ENDTAB
  0
TABLE
  2
STYLE
 70
     1
  0
STYLE
  2
STANDARD
 70
     0
 40
0.0
 41
1.0
 50
0.0
 71
     0
 42
0.0
  3
IsonormD
  4

  0
ENDTAB
  0
TABLE
  2
VIEW
 70
     0
  0
ENDTAB
  0
TABLE
  2
UCS
 70
     0
  0
ENDTAB
  0
TABLE
  2
APPID
 70
     2
  0
APPID
  2
ACAD
 70
     0
  0
APPID
  2
TopSolid_Draft
 70
     0
  0
ENDTAB
  0
TABLE
  2
DIMSTYLE
 70
     1
  0
DIMSTYLE
  2
STANDARD
 70
     0
  3

  4

  5

  6

  7

 40
1.0
 41
1.25
 42
1.0
 43
0.38
 44
0.75
 45
0.0
 46
0.0
 47
0.0
 48
0.0
 71
     0
 72
     0
 73
     0
 74
     0
 75
     0
 76
     0
 77
     1
 78
     0
140
2.5
141
0.09
142
0.0
143
25.4
144
1.0
145
0.0
146
0.8
147
1.25
170
     0
171
     2
172
     0
173
     0
174
     0
175
     0
176
     7
177
     7
178
     7
  0
ENDTAB
  0
ENDSEC
  0
SECTION
  2
BLOCKS
  0
BLOCK
  8
0
  5
2D
  2
AID145
 70
     0
 10
0.0
 20
0.0
 30
0.0
  3
#draft view
  0
LINE
  8
0
  6
CONTINUOUS
 62
     7
  5
2E
 10
236.0
 20
228.75
 30
0.0
 11
316.0
 21
228.75
 31
0.0
  0
LINE
  8
0
  6
CONTINUOUS
 62
     7
  5
2F
 10
236.0
 20
231.75
 30
0.0
 11
236.0
 21
228.75
 31
0.0
  0
LINE
  8
0
  6
CONTINUOUS
 62
     7
  5
30
 10
316.0
 20
231.75
 30
0.0
 11
236.0
 21
231.75
 31
0.0
  0
LINE
  8
0
  6
CONTINUOUS
 62
     7
  5
31
 10
316.0
 20
231.75
 30
0.0
 11
316.0
 21
228.75
 31
0.0
  0
LINE
  8
0
  6
CONTINUOUS
 62
     7
  5
32
 10
316.0
 20
225.75
 30
0.0
 11
236.0
 21
225.75
 31
0.0
  0
LINE
  8
0
  6
CONTINUOUS
 62
     7
  5
33
 10
236.0
 20
225.75
 30
0.0
 11
236.0
 21
228.75
 31
0.0
  0
LINE
  8
0
  6
CONTINUOUS
 62
     7
  5
34
 10
316.0
 20
228.75
 30
0.0
 11
316.0
 21
225.75
 31
0.0
  0
LINE
  8
0
  6
CONTINUOUS
 62
     7
  5
35
 10
316.0
 20
257.25
 30
0.0
 11
316.0
 21
244.25
 31
0.0
  0
LINE
  8
0
  6
CONTINUOUS
 62
     7
  5
36
 10
316.0
 20
244.25
 30
0.0
 11
236.0
 21
244.25
 31
0.0
  0
LINE
  8
0
  6
CONTINUOUS
 62
     7
  5
37
 10
316.0
 20
257.25
 30
0.0
 11
236.0
 21
257.25
 31
0.0
  0
LINE
  8
0
  6
CONTINUOUS
 62
     7
  5
38
 10
236.0
 20
257.25
 30
0.0
 11
236.0
 21
244.25
 31
0.0
  0
LINE
  8
0
  6
CONTINUOUS
 62
     7
  5
39
 10
316.0
 20
241.75
 30
0.0
 11
316.0
 21
239.25
 31
0.0
  0
LINE
  8
0
  6
CONTINUOUS
 62
     7
  5
3A
 10
316.0
 20
241.75
 30
0.0
 11
236.0
 21
241.75
 31
0.0
  0
LINE
  8
0
  6
CONTINUOUS
 62
     7
  5
3B
 10
316.0
 20
239.25
 30
0.0
 11
236.0
 21
239.25
 31
0.0
  0
LINE
  8
0
  6
CONTINUOUS
 62
     7
  5
3C
 10
236.0
 20
241.75
 30
0.0
 11
236.0
 21
239.25
 31
0.0
  0
LINE
  8
0
  6
CONTINUOUS
 62
     7
  5
3D
 10
316.0
 20
236.75
 30
0.0
 11
316.0
 21
234.25
 31
0.0
  0
LINE
  8
0
  6
CONTINUOUS
 62
     7
  5
3E
 10
316.0
 20
236.75
 30
0.0
 11
236.0
 21
236.75
 31
0.0
  0
LINE
  8
0
  6
CONTINUOUS
 62
     7
  5
3F
 10
316.0
 20
234.25
 30
0.0
 11
236.0
 21
234.25
 31
0.0
  0
LINE
  8
0
  6
CONTINUOUS
 62
     7
  5
40
 10
236.0
 20
236.75
 30
0.0
 11
236.0
 21
234.25
 31
0.0
  0
LINE
  8
0
  6
CONTINUOUS
 62
     7
  5
41
 10
316.0
 20
234.25
 30
0.0
 11
316.0
 21
231.75
 31
0.0
  0
LINE
  8
0
  6
CONTINUOUS
 62
     7
  5
42
 10
236.0
 20
231.75
 30
0.0
 11
236.0
 21
234.25
 31
0.0
  0
LINE
  8
0
  6
CONTINUOUS
 62
     7
  5
43
 10
316.0
 20
244.25
 30
0.0
 11
316.0
 21
241.75
 31
0.0
  0
LINE
  8
0
  6
CONTINUOUS
 62
     7
  5
44
 10
236.0
 20
241.75
 30
0.0
 11
236.0
 21
244.25
 31
0.0
  0
LINE
  8
0
  6
CONTINUOUS
 62
     7
  5
45
 10
316.0
 20
239.25
 30
0.0
 11
316.0
 21
236.75
 31
0.0
  0
LINE
  8
0
  6
CONTINUOUS
 62
     7
  5
46
 10
236.0
 20
236.75
 30
0.0
 11
236.0
 21
239.25
 31
0.0
  0
LINE
  8
0
  6
CONTINUOUS
 62
     7
  5
47
 10
316.0
 20
220.25
 30
0.0
 11
316.0
 21
225.75
 31
0.0
  0
LINE
  8
0
  6
CONTINUOUS
 62
     7
  5
48
 10
199.0
 20
220.25
 30
0.0
 11
316.0
 21
220.25
 31
0.0
  0
LINE
  8
0
  6
CONTINUOUS
 62
     7
  5
49
 10
199.0
 20
226.05
 30
0.0
 11
199.0
 21
220.25
 31
0.0
  0
LINE
  8
0
  6
CONTINUOUS
 62
     7
  5
4A
 10
199.0
 20
227.25
 30
0.0
 11
199.0
 21
226.05
 31
0.0
  0
LINE
  8
0
  6
CONTINUOUS
 62
     7
  5
4B
 10
199.0
 20
227.25
 30
0.0
 11
236.0
 21
227.25
 31
0.0
  0
LINE
  8
0
  6
CONTINUOUS
 62
     7
  5
4C
 10
195.5
 20
220.25
 30
0.0
 11
195.5
 21
226.05
 31
0.0
  0
LINE
  8
0
  6
CONTINUOUS
 62
     7
  5
4D
 10
199.0
 20
220.25
 30
0.0
 11
195.5
 21
220.25
 31
0.0
  0
LINE
  8
0
  6
CONTINUOUS
 62
     7
  5
4E
 10
195.5
 20
226.05
 30
0.0
 11
199.0
 21
226.05
 31
0.0
  0
LINE
  8
0
  6
CONTINUOUS
 62
     7
  5
4F
 10
316.0
 20
226.05
 30
0.0
 11
319.5
 21
226.05
 31
0.0
  0
LINE
  8
0
  6
CONTINUOUS
 62
     7
  5
50
 10
319.5
 20
226.05
 30
0.0
 11
319.5
 21
220.25
 31
0.0
  0
LINE
  8
0
  6
CONTINUOUS
 62
     7
  5
51
 10
319.5
 20
220.25
 30
0.0
 11
316.0
 21
220.25
 31
0.0
  0
LINE
  8
0
  6
CONTINUOUS
 62
     7
  5
52
 10
195.75
 20
219.75
 30
0.0
 11
195.75
 21
220.25
 31
0.0
  0
LINE
  8
0
  6
CONTINUOUS
 62
     7
  5
53
 10
319.25
 20
219.75
 30
0.0
 11
319.25
 21
220.25
 31
0.0
  0
LINE
  8
0
  6
CONTINUOUS
 62
     7
  5
54
 10
180.0
 20
200.75
 30
0.0
 11
440.0
 21
200.75
 31
0.0
  0
LINE
  8
0
  6
CONTINUOUS
 62
     7
  5
55
 10
180.0
 20
200.75
 30
0.0
 11
180.0
 21
209.376261
 31
0.0
  0
LINE
  8
0
  6
CONTINUOUS
 62
     7
  5
56
 10
180.0
 20
209.376261
 30
0.0
 11
440.0
 21
209.376261
 31
0.0
  0
LINE
  8
0
  6
CONTINUOUS
 62
     7
  5
57
 10
440.0
 20
200.75
 30
0.0
 11
440.0
 21
209.376261
 31
0.0
  0
LINE
  8
0
  6
CONTINUOUS
 62
     7
  5
58
 10
180.0
 20
209.376261
 30
0.0
 11
180.0
 21
210.75
 31
0.0
  0
LINE
  8
0
  6
CONTINUOUS
 62
     7
  5
59
 10
180.0
 20
210.75
 30
0.0
 11
440.0
 21
210.75
 31
0.0
  0
LINE
  8
0
  6
CONTINUOUS
 62
     7
  5
5A
 10
440.0
 20
209.376261
 30
0.0
 11
440.0
 21
210.75
 31
0.0
  0
LINE
  8
0
  6
CONTINUOUS
 62
     7
  5
5B
 10
190.0
 20
226.75
 30
0.0
 11
180.0
 21
226.75
 31
0.0
  0
LINE
  8
0
  6
CONTINUOUS
 62
     7
  5
5C
 10
190.0
 20
226.75
 30
0.0
 11
190.0
 21
219.75
 31
0.0
  0
LINE
  8
0
  6
CONTINUOUS
 62
     7
  5
5D
 10
190.0
 20
219.75
 30
0.0
 11
430.0
 21
219.75
 31
0.0
  0
LINE
  8
0
  6
CONTINUOUS
 62
     7
  5
5E
 10
430.0
 20
226.75
 30
0.0
 11
430.0
 21
219.75
 31
0.0
  0
LINE
  8
0
  6
CONTINUOUS
 62
     7
  5
5F
 10
440.0
 20
226.75
 30
0.0
 11
430.0
 21
226.75
 31
0.0
  0
LINE
  8
0
  6
CONTINUOUS
 62
     7
  5
60
 10
440.0
 20
210.75
 30
0.0
 11
440.0
 21
226.75
 31
0.0
  0
LINE
  8
0
  6
CONTINUOUS
 62
     7
  5
61
 10
180.0
 20
210.75
 30
0.0
 11
180.0
 21
226.75
 31
0.0
  0
LINE
  8
0
  6
CONTINUOUS
 62
     7
  5
62
 10
190.0
 20
226.75
 30
0.0
 11
190.0
 21
232.013839
 31
0.0
  0
LINE
  8
0
  6
CONTINUOUS
 62
     7
  5
63
 10
180.0
 20
226.75
 30
0.0
 11
180.0
 21
232.013839
 31
0.0
  0
LINE
  8
0
  6
CONTINUOUS
 62
     7
  5
64
 10
190.0
 20
243.886161
 30
0.0
 11
190.0
 21
232.013839
 31
0.0
  0
LINE
  8
0
  6
CONTINUOUS
 62
     7
  5
65
 10
180.0
 20
243.886161
 30
0.0
 11
180.0
 21
232.013839
 31
0.0
  0
LINE
  8
0
  6
CONTINUOUS
 62
     7
  5
66
 10
190.0
 20
249.15
 30
0.0
 11
180.0
 21
249.15
 31
0.0
  0
LINE
  8
0
  6
CONTINUOUS
 62
     7
  5
67
 10
190.0
 20
249.15
 30
0.0
 11
190.0
 21
243.886161
 31
0.0
  0
LINE
  8
0
  6
CONTINUOUS
 62
     7
  5
68
 10
180.0
 20
249.15
 30
0.0
 11
180.0
 21
243.886161
 31
0.0
  0
LINE
  8
0
  6
CONTINUOUS
 62
     7
  5
69
 10
192.0
 20
246.5
 30
0.0
 11
192.0
 21
236.0
 31
0.0
  0
LINE
  8
0
  6
CONTINUOUS
 62
     7
  5
6A
 10
195.0
 20
219.75
 30
0.0
 11
195.0
 21
225.75
 31
0.0
  0
LINE
  8
0
  6
CONTINUOUS
 62
     7
  5
6B
 10
425.0
 20
219.75
 30
0.0
 11
425.0
 21
221.75
 31
0.0
  0
LINE
  8
0
  6
CONTINUOUS
 62
     7
  5
6C
 10
425.0
 20
221.75
 30
0.0
 11
425.0
 21
225.75
 31
0.0
  0
LINE
  8
0
  6
CONTINUOUS
 62
     7
  5
6D
 10
199.1
 20
238.75
 30
0.0
 11
199.1
 21
241.25
 31
0.0
  0
LINE
  8
0
  6
CONTINUOUS
 62
     7
  5
6E
 10
199.1
 20
241.25
 30
0.0
 11
199.1
 21
243.75
 31
0.0
  0
LINE
  8
0
  6
CONTINUOUS
 62
     7
  5
6F
 10
199.3
 20
238.95
 30
0.0
 11
199.3
 21
241.25
 31
0.0
  0
LINE
  8
0
  6
CONTINUOUS
 62
     7
  5
70
 10
199.3
 20
241.25
 30
0.0
 11
199.3
 21
243.55
 31
0.0
  0
LINE
  8
0
  6
CONTINUOUS
 62
     7
  5
71
 10
192.0
 20
246.5
 30
0.0
 11
190.0
 21
246.5
 31
0.0
  0
LINE
  8
0
  6
CONTINUOUS
 62
     7
  5
72
 10
190.0
 20
236.0
 30
0.0
 11
192.0
 21
236.0
 31
0.0
  0
LINE
  8
0
  6
CONTINUOUS
 62
     7
  5
73
 10
195.0
 20
225.75
 30
0.0
 11
190.0
 21
225.75
 31
0.0
  0
LINE
  8
0
  6
CONTINUOUS
 62
     7
  5
74
 10
430.0
 20
225.75
 30
0.0
 11
425.0
 21
225.75
 31
0.0
  0
LINE
  8
0
  6
CONTINUOUS
 62
     7
  5
75
 10
199.1
 20
243.75
 30
0.0
 11
192.0
 21
243.75
 31
0.0
  0
LINE
  8
0
  6
CONTINUOUS
 62
     7
  5
76
 10
192.0
 20
238.75
 30
0.0
 11
199.1
 21
238.75
 31
0.0
  0
LINE
  8
0
  6
CONTINUOUS
 62
     7
  5
77
 10
199.1
 20
238.75
 30
0.0
 11
199.3
 21
238.95
 31
0.0
  0
LINE
  8
0
  6
CONTINUOUS
 62
     7
  5
78
 10
199.3
 20
243.55
 30
0.0
 11
199.1
 21
243.75
 31
0.0
  0
ENDBLK
  8
0
  5
79
  0
BLOCK
  8
0
  5
7C
  2
AID299
 70
     0
 10
0.0
 20
0.0
 30
0.0
  3
#auxiliary draft view
  0
LINE
  8
0
  6
CONTINUOUS
 62
     7
  5
7D
 10
92.5
 20
251.25
 30
0.0
 11
92.5
 21
250.03365
 31
0.0
  0
ARC
  8
0
  6
CONTINUOUS
 62
     7
  5
7E
 10
87.5
 20
251.25
 30
0.0
 40
5.0
 50
360.0
 51
90.0
210
0.0
220
0.0
230
1.0
  0
LINE
  8
0
  6
CONTINUOUS
 62
     7
  5
7F
 10
82.5
 20
256.25
 30
0.0
 11
87.5
 21
256.25
 31
0.0
  0
ARC
  8
0
  6
CONTINUOUS
 62
     7
  5
80
 10
82.5
 20
251.25
 30
0.0
 40
5.0
 50
90.0
 51
180.0
210
0.0
220
0.0
230
1.0
  0
LINE
  8
0
  6
CONTINUOUS
 62
     7
  5
81
 10
77.5
 20
250.03365
 30
0.0
 11
77.5
 21
251.25
 31
0.0
  0
ARC
  8
0
  6
CONTINUOUS
 62
     7
  5
82
 10
85.0
 20
241.25
 30
0.0
 40
11.55
 50
130.492661
 51
49.507339
210
0.0
220
0.0
230
1.0
  0
LINE
  8
0
  6
CONTINUOUS
 62
     7
  5
83
 10
67.6
 20
231.75
 30
0.0
 11
63.5
 21
231.75
 31
0.0
  0
LINE
  8
0
  6
CONTINUOUS
 62
     7
  5
84
 10
67.6
 20
234.25
 30
0.0
 11
67.6
 21
231.75
 31
0.0
  0
LINE
  8
0
  6
CONTINUOUS
 62
     7
  5
85
 10
67.6
 20
239.25
 30
0.0
 11
67.6
 21
236.75
 31
0.0
  0
LINE
  8
0
  6
CONTINUOUS
 62
     7
  5
86
 10
67.6
 20
241.75
 30
0.0
 11
63.5
 21
241.75
 31
0.0
  0
LINE
  8
0
  6
CONTINUOUS
 62
     7
  5
87
 10
67.6
 20
244.25
 30
0.0
 11
67.6
 21
241.75
 31
0.0
  0
LINE
  8
0
  6
CONTINUOUS
 62
     7
  5
88
 10
63.5
 20
244.25
 30
0.0
 11
67.6
 21
244.25
 31
0.0
  0
LINE
  8
0
  6
CONTINUOUS
 62
     7
  5
89
 10
106.5
 20
257.25
 30
0.0
 11
106.5
 21
249.25
 31
0.0
  0
LINE
  8
0
  6
CONTINUOUS
 62
     7
  5
8A
 10
102.9
 20
249.25
 30
0.0
 11
106.5
 21
249.25
 31
0.0
  0
LINE
  8
0
  6
CONTINUOUS
 62
     7
  5
8B
 10
102.9
 20
246.75
 30
0.0
 11
102.9
 21
249.25
 31
0.0
  0
LINE
  8
0
  6
CONTINUOUS
 62
     7
  5
8C
 10
106.5
 20
246.75
 30
0.0
 11
102.9
 21
246.75
 31
0.0
  0
LINE
  8
0
  6
CONTINUOUS
 62
     7
  5
8D
 10
106.5
 20
246.75
 30
0.0
 11
106.5
 21
244.25
 31
0.0
  0
LINE
  8
0
  6
CONTINUOUS
 62
     7
  5
8E
 10
106.5
 20
244.25
 30
0.0
 11
102.4
 21
244.25
 31
0.0
  0
LINE
  8
0
  6
CONTINUOUS
 62
     7
  5
8F
 10
102.4
 20
244.25
 30
0.0
 11
102.4
 21
241.75
 31
0.0
  0
LINE
  8
0
  6
CONTINUOUS
 62
     7
  5
90
 10
102.4
 20
241.75
 30
0.0
 11
106.5
 21
241.75
 31
0.0
  0
LINE
  8
0
  6
CONTINUOUS
 62
     7
  5
91
 10
106.5
 20
241.75
 30
0.0
 11
106.5
 21
239.25
 31
0.0
  0
LINE
  8
0
  6
CONTINUOUS
 62
     7
  5
92
 10
106.5
 20
239.25
 30
0.0
 11
102.4
 21
239.25
 31
0.0
  0
LINE
  8
0
  6
CONTINUOUS
 62
     7
  5
93
 10
102.4
 20
239.25
 30
0.0
 11
102.4
 21
236.75
 31
0.0
  0
LINE
  8
0
  6
CONTINUOUS
 62
     7
  5
94
 10
102.4
 20
236.75
 30
0.0
 11
106.5
 21
236.75
 31
0.0
  0
LINE
  8
0
  6
CONTINUOUS
 62
     7
  5
95
 10
106.5
 20
236.75
 30
0.0
 11
106.5
 21
234.25
 31
0.0
  0
LINE
  8
0
  6
CONTINUOUS
 62
     7
  5
96
 10
106.5
 20
234.25
 30
0.0
 11
102.4
 21
234.25
 31
0.0
  0
LINE
  8
0
  6
CONTINUOUS
 62
     7
  5
97
 10
102.4
 20
234.25
 30
0.0
 11
102.4
 21
231.75
 31
0.0
  0
LINE
  8
0
  6
CONTINUOUS
 62
     7
  5
98
 10
102.4
 20
231.75
 30
0.0
 11
106.5
 21
231.75
 31
0.0
  0
LINE
  8
0
  6
CONTINUOUS
 62
     7
  5
99
 10
106.5
 20
231.75
 30
0.0
 11
106.5
 21
228.75
 31
0.0
  0
LINE
  8
0
  6
CONTINUOUS
 62
     7
  5
9A
 10
104.5
 20
226.75
 30
0.0
 11
106.5
 21
228.75
 31
0.0
  0
LINE
  8
0
  6
CONTINUOUS
 62
     7
  5
9B
 10
63.5
 20
257.25
 30
0.0
 11
63.5
 21
244.25
 31
0.0
  0
LINE
  8
0
  6
CONTINUOUS
 62
     7
  5
9C
 10
63.5
 20
231.75
 30
0.0
 11
63.5
 21
228.75
 31
0.0
  0
LINE
  8
0
  6
CONTINUOUS
 62
     7
  5
9D
 10
63.5
 20
239.25
 30
0.0
 11
67.6
 21
239.25
 31
0.0
  0
LINE
  8
0
  6
CONTINUOUS
 62
     7
  5
9E
 10
63.5
 20
228.75
 30
0.0
 11
65.5
 21
226.75
 31
0.0
  0
LINE
  8
0
  6
CONTINUOUS
 62
     7
  5
9F
 10
106.5
 20
257.25
 30
0.0
 11
63.5
 21
257.25
 31
0.0
  0
LINE
  8
0
  6
CONTINUOUS
 62
     7
  5
A0
 10
63.5
 20
241.75
 30
0.0
 11
63.5
 21
239.25
 31
0.0
  0
LINE
  8
0
  6
CONTINUOUS
 62
     7
  5
A1
 10
63.5
 20
234.25
 30
0.0
 11
67.6
 21
234.25
 31
0.0
  0
LINE
  8
0
  6
CONTINUOUS
 62
     7
  5
A2
 10
67.6
 20
236.75
 30
0.0
 11
63.5
 21
236.75
 31
0.0
  0
LINE
  8
0
  6
CONTINUOUS
 62
     7
  5
A3
 10
63.5
 20
236.75
 30
0.0
 11
63.5
 21
234.25
 31
0.0
  0
LINE
  8
0
  6
CONTINUOUS
 62
     7
  5
A4
 10
78.5
 20
254.25
 30
0.0
 11
78.5
 21
250.797382
 31
0.0
  0
ARC
  8
0
  6
CONTINUOUS
 62
     7
  5
A5
 10
85.0
 20
241.25
 30
0.0
 40
11.55
 50
124.247618
 51
130.492661
210
0.0
220
0.0
230
1.0
  0
LINE
  8
0
  6
CONTINUOUS
 62
     7
  5
A6
 10
91.5
 20
254.25
 30
0.0
 11
91.5
 21
250.797382
 31
0.0
  0
ARC
  8
0
  6
CONTINUOUS
 62
     7
  5
A7
 10
85.0
 20
241.25
 30
0.0
 40
11.55
 50
49.507339
 51
55.752382
210
0.0
220
0.0
230
1.0
  0
LINE
  8
0
  6
CONTINUOUS
 62
     7
  5
A8
 10
58.0
 20
200.75
 30
0.0
 11
58.0
 21
209.376261
 31
0.0
  0
LINE
  8
0
  6
CONTINUOUS
 62
     7
  5
A9
 10
58.0
 20
209.376261
 30
0.0
 11
58.5
 21
210.75
 31
0.0
  0
LINE
  8
0
  6
CONTINUOUS
 62
     7
  5
AA
 10
111.5
 20
226.75
 30
0.0
 11
58.5
 21
226.75
 31
0.0
  0
LINE
  8
0
  6
CONTINUOUS
 62
     7
  5
AB
 10
112.0
 20
209.376261
 30
0.0
 11
112.0
 21
200.75
 31
0.0
  0
LINE
  8
0
  6
CONTINUOUS
 62
     7
  5
AC
 10
58.5
 20
210.75
 30
0.0
 11
58.5
 21
226.75
 31
0.0
  0
LINE
  8
0
  6
CONTINUOUS
 62
     7
  5
AD
 10
112.0
 20
200.75
 30
0.0
 11
58.0
 21
200.75
 31
0.0
  0
LINE
  8
0
  6
CONTINUOUS
 62
     7
  5
AE
 10
111.5
 20
210.75
 30
0.0
 11
112.0
 21
209.376261
 31
0.0
  0
LINE
  8
0
  6
CONTINUOUS
 62
     7
  5
AF
 10
111.5
 20
226.75
 30
0.0
 11
111.5
 21
210.75
 31
0.0
  0
CIRCLE
  8
0
  6
CONTINUOUS
 62
     7
  5
B0
 10
85.0
 20
241.25
 30
0.0
 40
2.3
210
0.0
220
0.0
230
1.0
  0
CIRCLE
  8
0
  6
CONTINUOUS
 62
     7
  5
B1
 10
85.0
 20
241.25
 30
0.0
 40
2.5
210
0.0
220
0.0
230
1.0
  0
CIRCLE
  8
0
  6
CONTINUOUS
 62
     7
  5
B2
 10
85.0
 20
241.25
 30
0.0
 40
2.75
210
0.0
220
0.0
230
1.0
  0
CIRCLE
  8
0
  6
CONTINUOUS
 62
     7
  5
B3
 10
85.0
 20
241.25
 30
0.0
 40
5.25
210
0.0
220
0.0
230
1.0
  0
CIRCLE
  8
0
  6
CONTINUOUS
 62
     7
  5
B4
 10
85.0
 20
241.25
 30
0.0
 40
6.0
210
0.0
220
0.0
230
1.0
  0
LINE
  8
0
  6
CONTINUOUS
 62
     7
  5
B5
 10
77.446053
 20
243.886161
 30
0.0
 11
74.633147
 21
236.157766
 31
0.0
  0
LINE
  8
0
  6
CONTINUOUS
 62
     7
  5
B6
 10
85.036406
 20
249.15
 30
0.0
 11
84.963594
 21
249.15
 31
0.0
  0
ARC
  8
0
  6
CONTINUOUS
 62
     7
  5
B7
 10
85.036406
 20
241.15
 30
0.0
 40
8.0
 50
20.0
 51
90.0
210
0.0
220
0.0
230
1.0
  0
LINE
  8
0
  6
CONTINUOUS
 62
     7
  5
B8
 10
95.366853
 20
236.157766
 30
0.0
 11
92.553947
 21
243.886161
 31
0.0
  0
ARC
  8
0
  6
CONTINUOUS
 62
     7
  5
B9
 10
84.963594
 20
241.15
 30
0.0
 40
8.0
 50
90.0
 51
160.0
210
0.0
220
0.0
230
1.0
  0
ENDBLK
  8
0
  5
BA
  0
BLOCK
  8
0
  5
BD
  2
AID453
 70
     0
 10
0.0
 20
0.0
 30
0.0
  3
#auxiliary draft view
  0
LINE
  8
0
  6
CONTINUOUS
 62
     7
  5
BE
 10
547.0
 20
227.25
 30
0.0
 11
547.0
 21
227.116182
 31
0.0
  0
LINE
  8
0
  6
CONTINUOUS
 62
     7
  5
BF
 10
513.0
 20
227.25
 30
0.0
 11
513.0
 21
227.116182
 31
0.0
  0
LINE
  8
0
  6
CONTINUOUS
 62
     7
  5
C0
 10
547.0
 20
227.25
 30
0.0
 11
546.608778
 21
227.25
 31
0.0
  0
LINE
  8
0
  6
CONTINUOUS
 62
     7
  5
C1
 10
513.391222
 20
227.25
 30
0.0
 11
513.0
 21
227.25
 31
0.0
  0
LINE
  8
0
  6
CONTINUOUS
 62
     7
  5
C2
 10
532.5
 20
256.25
 30
0.0
 11
527.5
 21
256.25
 31
0.0
  0
LINE
  8
0
  6
CONTINUOUS
 62
     7
  5
C3
 10
522.5
 20
251.25
 30
0.0
 11
522.5
 21
250.03365
 31
0.0
  0
LINE
  8
0
  6
CONTINUOUS
 62
     7
  5
C4
 10
537.5
 20
250.03365
 30
0.0
 11
537.5
 21
251.25
 31
0.0
  0
LINE
  8
0
  6
CONTINUOUS
 62
     7
  5
C5
 10
508.5
 20
228.75
 30
0.0
 11
510.5
 21
226.75
 31
0.0
  0
LINE
  8
0
  6
CONTINUOUS
 62
     7
  5
C6
 10
508.5
 20
231.75
 30
0.0
 11
508.5
 21
228.75
 31
0.0
  0
LINE
  8
0
  6
CONTINUOUS
 62
     7
  5
C7
 10
512.6
 20
231.75
 30
0.0
 11
508.5
 21
231.75
 31
0.0
  0
LINE
  8
0
  6
CONTINUOUS
 62
     7
  5
C8
 10
512.6
 20
234.25
 30
0.0
 11
512.6
 21
231.75
 31
0.0
  0
LINE
  8
0
  6
CONTINUOUS
 62
     7
  5
C9
 10
508.5
 20
234.25
 30
0.0
 11
512.6
 21
234.25
 31
0.0
  0
LINE
  8
0
  6
CONTINUOUS
 62
     7
  5
CA
 10
508.5
 20
236.75
 30
0.0
 11
508.5
 21
234.25
 31
0.0
  0
LINE
  8
0
  6
CONTINUOUS
 62
     7
  5
CB
 10
512.6
 20
236.75
 30
0.0
 11
508.5
 21
236.75
 31
0.0
  0
LINE
  8
0
  6
CONTINUOUS
 62
     7
  5
CC
 10
512.6
 20
239.25
 30
0.0
 11
512.6
 21
236.75
 31
0.0
  0
LINE
  8
0
  6
CONTINUOUS
 62
     7
  5
CD
 10
508.5
 20
239.25
 30
0.0
 11
512.6
 21
239.25
 31
0.0
  0
LINE
  8
0
  6
CONTINUOUS
 62
     7
  5
CE
 10
508.5
 20
241.75
 30
0.0
 11
508.5
 21
239.25
 31
0.0
  0
LINE
  8
0
  6
CONTINUOUS
 62
     7
  5
CF
 10
512.6
 20
241.75
 30
0.0
 11
508.5
 21
241.75
 31
0.0
  0
LINE
  8
0
  6
CONTINUOUS
 62
     7
  5
D0
 10
512.6
 20
244.25
 30
0.0
 11
512.6
 21
241.75
 31
0.0
  0
LINE
  8
0
  6
CONTINUOUS
 62
     7
  5
D1
 10
508.5
 20
244.25
 30
0.0
 11
512.6
 21
244.25
 31
0.0
  0
LINE
  8
0
  6
CONTINUOUS
 62
     7
  5
D2
 10
508.5
 20
246.75
 30
0.0
 11
508.5
 21
244.25
 31
0.0
  0
LINE
  8
0
  6
CONTINUOUS
 62
     7
  5
D3
 10
508.5
 20
246.75
 30
0.0
 11
512.1
 21
246.75
 31
0.0
  0
LINE
  8
0
  6
CONTINUOUS
 62
     7
  5
D4
 10
512.1
 20
246.75
 30
0.0
 11
512.1
 21
249.25
 31
0.0
  0
LINE
  8
0
  6
CONTINUOUS
 62
     7
  5
D5
 10
551.5
 20
257.25
 30
0.0
 11
508.5
 21
257.25
 31
0.0
  0
LINE
  8
0
  6
CONTINUOUS
 62
     7
  5
D6
 10
551.5
 20
257.25
 30
0.0
 11
551.5
 21
244.25
 31
0.0
  0
LINE
  8
0
  6
CONTINUOUS
 62
     7
  5
D7
 10
547.4
 20
244.25
 30
0.0
 11
551.5
 21
244.25
 31
0.0
  0
LINE
  8
0
  6
CONTINUOUS
 62
     7
  5
D8
 10
547.4
 20
241.75
 30
0.0
 11
547.4
 21
244.25
 31
0.0
  0
LINE
  8
0
  6
CONTINUOUS
 62
     7
  5
D9
 10
551.5
 20
241.75
 30
0.0
 11
547.4
 21
241.75
 31
0.0
  0
LINE
  8
0
  6
CONTINUOUS
 62
     7
  5
DA
 10
551.5
 20
236.75
 30
0.0
 11
551.5
 21
234.25
 31
0.0
  0
LINE
  8
0
  6
CONTINUOUS
 62
     7
  5
DB
 10
547.4
 20
234.25
 30
0.0
 11
551.5
 21
234.25
 31
0.0
  0
LINE
  8
0
  6
CONTINUOUS
 62
     7
  5
DC
 10
547.4
 20
231.75
 30
0.0
 11
547.4
 21
234.25
 31
0.0
  0
LINE
  8
0
  6
CONTINUOUS
 62
     7
  5
DD
 10
551.5
 20
231.75
 30
0.0
 11
551.5
 21
228.75
 31
0.0
  0
LINE
  8
0
  6
CONTINUOUS
 62
     7
  5
DE
 10
549.5
 20
226.75
 30
0.0
 11
551.5
 21
228.75
 31
0.0
  0
LINE
  8
0
  6
CONTINUOUS
 62
     7
  5
DF
 10
547.4
 20
239.25
 30
0.0
 11
551.5
 21
239.25
 31
0.0
  0
ARC
  8
0
  6
CONTINUOUS
 62
     7
  5
E0
 10
530.0
 20
241.25
 30
0.0
 40
11.55
 50
130.492661
 51
206.160431
210
0.0
220
0.0
230
1.0
  0
ARC
  8
0
  6
CONTINUOUS
 62
     7
  5
E1
 10
530.0
 20
241.25
 30
0.0
 40
11.55
 50
333.839569
 51
49.507339
210
0.0
220
0.0
230
1.0
  0
LINE
  8
0
  6
CONTINUOUS
 62
     7
  5
E2
 10
508.5
 20
257.25
 30
0.0
 11
508.5
 21
249.25
 31
0.0
  0
LINE
  8
0
  6
CONTINUOUS
 62
     7
  5
E3
 10
512.1
 20
249.25
 30
0.0
 11
508.5
 21
249.25
 31
0.0
  0
ARC
  8
0
  6
CONTINUOUS
 62
     7
  5
E4
 10
527.5
 20
251.25
 30
0.0
 40
5.0
 50
90.0
 51
180.0
210
0.0
220
0.0
230
1.0
  0
LINE
  8
0
  6
CONTINUOUS
 62
     7
  5
E5
 10
551.5
 20
231.75
 30
0.0
 11
547.4
 21
231.75
 31
0.0
  0
ARC
  8
0
  6
CONTINUOUS
 62
     7
  5
E6
 10
532.5
 20
251.25
 30
0.0
 40
5.0
 50
0.0
 51
90.0
210
0.0
220
0.0
230
1.0
  0
LINE
  8
0
  6
CONTINUOUS
 62
     7
  5
E7
 10
547.4
 20
236.75
 30
0.0
 11
547.4
 21
239.25
 31
0.0
  0
LINE
  8
0
  6
CONTINUOUS
 62
     7
  5
E8
 10
551.5
 20
236.75
 30
0.0
 11
547.4
 21
236.75
 31
0.0
  0
LINE
  8
0
  6
CONTINUOUS
 62
     7
  5
E9
 10
551.5
 20
241.75
 30
0.0
 11
551.5
 21
239.25
 31
0.0
  0
LINE
  8
0
  6
CONTINUOUS
 62
     7
  5
EA
 10
523.5
 20
250.797382
 30
0.0
 11
523.5
 21
254.25
 31
0.0
  0
ARC
  8
0
  6
CONTINUOUS
 62
     7
  5
EB
 10
530.0
 20
241.25
 30
0.0
 40
11.55
 50
124.247618
 51
130.492661
210
0.0
220
0.0
230
1.0
  0
LINE
  8
0
  6
CONTINUOUS
 62
     7
  5
EC
 10
536.5
 20
254.25
 30
0.0
 11
536.5
 21
250.797382
 31
0.0
  0
ARC
  8
0
  6
CONTINUOUS
 62
     7
  5
ED
 10
530.0
 20
241.25
 30
0.0
 40
11.55
 50
49.507339
 51
55.752382
210
0.0
220
0.0
230
1.0
  0
ARC
  8
0
  6
CONTINUOUS
 62
     7
  5
EE
 10
510.60734
 20
234.75
 30
0.0
 40
8.0
 50
270.0
 51
340.0
210
0.0
220
0.0
230
1.0
  0
LINE
  8
0
  6
CONTINUOUS
 62
     7
  5
EF
 10
518.124881
 20
232.013839
 30
0.0
 11
522.446053
 21
243.886161
 31
0.0
  0
ARC
  8
0
  6
CONTINUOUS
 62
     7
  5
F0
 10
529.963594
 20
241.15
 30
0.0
 40
8.0
 50
90.0
 51
160.0
210
0.0
220
0.0
230
1.0
  0
LINE
  8
0
  6
CONTINUOUS
 62
     7
  5
F1
 10
529.963594
 20
249.15
 30
0.0
 11
530.036406
 21
249.15
 31
0.0
  0
ARC
  8
0
  6
CONTINUOUS
 62
     7
  5
F2
 10
530.036406
 20
241.15
 30
0.0
 40
8.0
 50
20.0
 51
90.0
210
0.0
220
0.0
230
1.0
  0
LINE
  8
0
  6
CONTINUOUS
 62
     7
  5
F3
 10
557.0
 20
209.376261
 30
0.0
 11
556.5
 21
210.75
 31
0.0
  0
LINE
  8
0
  6
CONTINUOUS
 62
     7
  5
F4
 10
557.0
 20
200.75
 30
0.0
 11
557.0
 21
209.376261
 31
0.0
  0
LINE
  8
0
  6
CONTINUOUS
 62
     7
  5
F5
 10
556.5
 20
226.75
 30
0.0
 11
549.39266
 21
226.75
 31
0.0
  0
LINE
  8
0
  6
CONTINUOUS
 62
     7
  5
F6
 10
503.5
 20
226.75
 30
0.0
 11
503.5
 21
210.75
 31
0.0
  0
LINE
  8
0
  6
CONTINUOUS
 62
     7
  5
F7
 10
510.60734
 20
226.75
 30
0.0
 11
503.5
 21
226.75
 31
0.0
  0
LINE
  8
0
  6
CONTINUOUS
 62
     7
  5
F8
 10
556.5
 20
210.75
 30
0.0
 11
556.5
 21
226.75
 31
0.0
  0
LINE
  8
0
  6
CONTINUOUS
 62
     7
  5
F9
 10
503.0
 20
209.376261
 30
0.0
 11
503.0
 21
200.75
 31
0.0
  0
LINE
  8
0
  6
CONTINUOUS
 62
     7
  5
FA
 10
503.0
 20
200.75
 30
0.0
 11
557.0
 21
200.75
 31
0.0
  0
CIRCLE
  8
0
  6
CONTINUOUS
 62
     7
  5
FB
 10
530.0
 20
241.25
 30
0.0
 40
6.0
210
0.0
220
0.0
230
1.0
  0
LINE
  8
0
  6
CONTINUOUS
 62
     7
  5
FC
 10
503.5
 20
210.75
 30
0.0
 11
503.0
 21
209.376261
 31
0.0
  0
ARC
  8
0
  6
CONTINUOUS
 62
     7
  5
FD
 10
549.39266
 20
234.75
 30
0.0
 40
8.0
 50
200.0
 51
270.0
210
0.0
220
0.0
230
1.0
  0
LINE
  8
0
  6
CONTINUOUS
 62
     7
  5
FE
 10
537.553947
 20
243.886161
 30
0.0
 11
541.875119
 21
232.013839
 31
0.0
  0
CIRCLE
  8
0
  6
CONTINUOUS
 62
     7
  5
FF
 10
530.0
 20
241.25
 30
0.0
 40
2.25
210
0.0
220
0.0
230
1.0
  0
CIRCLE
  8
0
  6
CONTINUOUS
 62
     7
  5
100
 10
530.0
 20
241.25
 30
0.0
 40
4.75
210
0.0
220
0.0
230
1.0
  0
LINE
  8
0
  6
CONTINUOUS
 62
     7
  5
101
 10
531.5
 20
242.116025
 30
0.0
 11
530.0
 21
242.982051
 31
0.0
  0
LINE
  8
0
  6
CONTINUOUS
 62
     7
  5
102
 10
530.0
 20
242.982051
 30
0.0
 11
528.5
 21
242.116025
 31
0.0
  0
LINE
  8
0
  6
CONTINUOUS
 62
     7
  5
103
 10
528.5
 20
240.383975
 30
0.0
 11
530.0
 21
239.517949
 31
0.0
  0
LINE
  8
0
  6
CONTINUOUS
 62
     7
  5
104
 10
530.0
 20
239.517949
 30
0.0
 11
531.5
 21
240.383975
 31
0.0
  0
LINE
  8
0
  6
CONTINUOUS
 62
     7
  5
105
 10
531.5
 20
240.383975
 30
0.0
 11
531.5
 21
242.116025
 31
0.0
  0
LINE
  8
0
  6
CONTINUOUS
 62
     7
  5
106
 10
528.5
 20
242.116025
 30
0.0
 11
528.5
 21
240.383975
 31
0.0
  0
CIRCLE
  8
0
  6
CONTINUOUS
 62
     7
  5
107
 10
530.0
 20
241.25
 30
0.0
 40
5.25
210
0.0
220
0.0
230
1.0
  0
ENDBLK
  8
0
  5
108
  0
BLOCK
  8
0
  5
10B
  2
AID633
 70
     0
 10
0.0
 20
0.0
 30
0.0
  3
#auxiliary draft view
  0
LINE
  8
0
  6
CONTINUOUS
 62
     7
  5
10C
 10
249.0
 20
96.5
 30
0.0
 11
303.0
 21
96.5
 31
0.0
  0
CIRCLE
  8
0
  6
CONTINUOUS
 62
     7
  5
10D
 10
296.0
 20
118.0
 30
0.0
 40
2.5
210
0.0
220
0.0
230
1.0
  0
CIRCLE
  8
0
  6
CONTINUOUS
 62
     7
  5
10E
 10
256.0
 20
118.0
 30
0.0
 40
2.5
210
0.0
220
0.0
230
1.0
  0
CIRCLE
  8
0
  6
CONTINUOUS
 62
     7
  5
10F
 10
296.0
 20
88.0
 30
0.0
 40
2.5
210
0.0
220
0.0
230
1.0
  0
CIRCLE
  8
0
  6
CONTINUOUS
 62
     7
  5
110
 10
256.0
 20
88.0
 30
0.0
 40
2.5
210
0.0
220
0.0
230
1.0
  0
LINE
  8
0
  6
CONTINUOUS
 62
     7
  5
111
 10
316.0
 20
81.5
 30
0.0
 11
236.0
 21
81.5
 31
0.0
  0
LINE
  8
0
  6
CONTINUOUS
 62
     7
  5
112
 10
236.0
 20
81.5
 30
0.0
 11
236.0
 21
124.5
 31
0.0
  0
LINE
  8
0
  6
CONTINUOUS
 62
     7
  5
113
 10
236.0
 20
124.5
 30
0.0
 11
316.0
 21
124.5
 31
0.0
  0
LINE
  8
0
  6
CONTINUOUS
 62
     7
  5
114
 10
243.0
 20
103.5
 30
0.0
 11
243.0
 21
102.5
 31
0.0
  0
ARC
  8
0
  6
CONTINUOUS
 62
     7
  5
115
 10
249.0
 20
103.5
 30
0.0
 40
6.0
 50
90.0
 51
180.0
210
0.0
220
0.0
230
1.0
  0
ARC
  8
0
  6
CONTINUOUS
 62
     7
  5
116
 10
303.0
 20
103.5
 30
0.0
 40
6.0
 50
0.0
 51
90.0
210
0.0
220
0.0
230
1.0
  0
LINE
  8
0
  6
CONTINUOUS
 62
     7
  5
117
 10
316.0
 20
124.5
 30
0.0
 11
316.0
 21
81.5
 31
0.0
  0
LINE
  8
0
  6
CONTINUOUS
 62
     7
  5
118
 10
303.0
 20
109.5
 30
0.0
 11
249.0
 21
109.5
 31
0.0
  0
ARC
  8
0
  6
CONTINUOUS
 62
     7
  5
119
 10
249.0
 20
102.5
 30
0.0
 40
6.0
 50
180.0
 51
270.0
210
0.0
220
0.0
230
1.0
  0
LINE
  8
0
  6
CONTINUOUS
 62
     7
  5
11A
 10
309.0
 20
102.5
 30
0.0
 11
309.0
 21
103.5
 31
0.0
  0
ARC
  8
0
  6
CONTINUOUS
 62
     7
  5
11B
 10
303.0
 20
102.5
 30
0.0
 40
6.0
 50
270.0
 51
360.0
210
0.0
220
0.0
230
1.0
  0
CIRCLE
  8
0
  6
CONTINUOUS
 62
     7
  5
11C
 10
256.0
 20
88.0
 30
0.0
 40
2.067
210
0.0
220
0.0
230
1.0
  0
CIRCLE
  8
0
  6
CONTINUOUS
 62
     7
  5
11D
 10
296.0
 20
118.0
 30
0.0
 40
2.067
210
0.0
220
0.0
230
1.0
  0
CIRCLE
  8
0
  6
CONTINUOUS
 62
     7
  5
11E
 10
296.0
 20
88.0
 30
0.0
 40
2.067
210
0.0
220
0.0
230
1.0
  0
CIRCLE
  8
0
  6
CONTINUOUS
 62
     7
  5
11F
 10
256.0
 20
118.0
 30
0.0
 40
2.067
210
0.0
220
0.0
230
1.0
  0
LINE
  8
0
  6
CONTINUOUS
 62
     7
  5
120
 10
199.0
 20
86.0
 30
0.0
 11
199.0
 21
100.5
 31
0.0
  0
LINE
  8
0
  6
CONTINUOUS
 62
     7
  5
121
 10
199.0
 20
105.5
 30
0.0
 11
199.0
 21
120.0
 31
0.0
  0
LINE
  8
0
  6
CONTINUOUS
 62
     7
  5
122
 10
199.0
 20
86.0
 30
0.0
 11
236.0
 21
86.0
 31
0.0
  0
LINE
  8
0
  6
CONTINUOUS
 62
     7
  5
123
 10
236.0
 20
120.0
 30
0.0
 11
199.0
 21
120.0
 31
0.0
  0
LINE
  8
0
  6
CONTINUOUS
 62
     7
  5
124
 10
316.0
 20
86.0
 30
0.0
 11
319.5
 21
89.5
 31
0.0
  0
LINE
  8
0
  6
CONTINUOUS
 62
     7
  5
125
 10
319.5
 20
116.5
 30
0.0
 11
316.0
 21
120.0
 31
0.0
  0
LINE
  8
0
  6
CONTINUOUS
 62
     7
  5
126
 10
319.5
 20
116.5
 30
0.0
 11
319.5
 21
89.5
 31
0.0
  0
LINE
  8
0
  6
CONTINUOUS
 62
     7
  5
127
 10
195.5
 20
89.5
 30
0.0
 11
199.0
 21
86.0
 31
0.0
  0
LINE
  8
0
  6
CONTINUOUS
 62
     7
  5
128
 10
199.0
 20
120.0
 30
0.0
 11
195.5
 21
116.5
 31
0.0
  0
LINE
  8
0
  6
CONTINUOUS
 62
     7
  5
129
 10
195.5
 20
116.5
 30
0.0
 11
195.5
 21
105.5
 31
0.0
  0
LINE
  8
0
  6
CONTINUOUS
 62
     7
  5
12A
 10
195.5
 20
100.5
 30
0.0
 11
195.5
 21
89.5
 31
0.0
  0
LINE
  8
0
  6
CONTINUOUS
 62
     7
  5
12B
 10
195.5
 20
98.438933
 30
0.0
 11
193.25
 21
98.438933
 31
0.0
  0
LINE
  8
0
  6
CONTINUOUS
 62
     7
  5
12C
 10
193.25
 20
99.0
 30
0.0
 11
193.25
 21
98.438933
 31
0.0
  0
LINE
  8
0
  6
CONTINUOUS
 62
     7
  5
12D
 10
319.5
 20
98.438933
 30
0.0
 11
321.75
 21
98.438933
 31
0.0
  0
LINE
  8
0
  6
CONTINUOUS
 62
     7
  5
12E
 10
319.5
 20
100.719466
 30
0.0
 11
321.75
 21
100.719466
 31
0.0
  0
LINE
  8
0
  6
CONTINUOUS
 62
     7
  5
12F
 10
321.75
 20
100.719466
 30
0.0
 11
321.75
 21
98.438933
 31
0.0
  0
LINE
  8
0
  6
CONTINUOUS
 62
     7
  5
130
 10
319.5
 20
105.280534
 30
0.0
 11
321.75
 21
105.280534
 31
0.0
  0
LINE
  8
0
  6
CONTINUOUS
 62
     7
  5
131
 10
319.5
 20
107.561067
 30
0.0
 11
321.75
 21
107.561067
 31
0.0
  0
LINE
  8
0
  6
CONTINUOUS
 62
     7
  5
132
 10
321.75
 20
107.561067
 30
0.0
 11
321.75
 21
105.280534
 31
0.0
  0
LINE
  8
0
  6
CONTINUOUS
 62
     7
  5
133
 10
321.75
 20
105.280534
 30
0.0
 11
321.75
 21
100.719466
 31
0.0
  0
LINE
  8
0
  6
CONTINUOUS
 62
     7
  5
134
 10
195.5
 20
107.561067
 30
0.0
 11
193.25
 21
107.561067
 31
0.0
  0
LINE
  8
0
  6
CONTINUOUS
 62
     7
  5
135
 10
193.25
 20
107.561067
 30
0.0
 11
193.25
 21
107.0
 31
0.0
  0
LINE
  8
0
  6
CONTINUOUS
 62
     7
  5
136
 10
190.0
 20
102.963594
 30
0.0
 11
190.0
 21
95.446053
 31
0.0
  0
LINE
  8
0
  6
CONTINUOUS
 62
     7
  5
137
 10
180.0
 20
102.963594
 30
0.0
 11
180.0
 21
95.446053
 31
0.0
  0
LINE
  8
0
  6
CONTINUOUS
 62
     7
  5
138
 10
190.0
 20
110.553947
 30
0.0
 11
190.0
 21
103.036406
 31
0.0
  0
LINE
  8
0
  6
CONTINUOUS
 62
     7
  5
139
 10
180.0
 20
110.553947
 30
0.0
 11
180.0
 21
103.036406
 31
0.0
  0
LINE
  8
0
  6
CONTINUOUS
 62
     7
  5
13A
 10
190.0
 20
103.036406
 30
0.0
 11
190.0
 21
102.963594
 31
0.0
  0
LINE
  8
0
  6
CONTINUOUS
 62
     7
  5
13B
 10
180.0
 20
103.036406
 30
0.0
 11
180.0
 21
102.963594
 31
0.0
  0
LINE
  8
0
  6
CONTINUOUS
 62
     7
  5
13C
 10
192.0
 20
108.25
 30
0.0
 11
192.0
 21
97.75
 31
0.0
  0
LINE
  8
0
  6
CONTINUOUS
 62
     7
  5
13D
 10
180.0
 20
114.875119
 30
0.0
 11
180.0
 21
110.553947
 31
0.0
  0
LINE
  8
0
  6
CONTINUOUS
 62
     7
  5
13E
 10
190.0
 20
114.875119
 30
0.0
 11
190.0
 21
110.553947
 31
0.0
  0
LINE
  8
0
  6
CONTINUOUS
 62
     7
  5
13F
 10
180.0
 20
95.446053
 30
0.0
 11
180.0
 21
91.124881
 31
0.0
  0
LINE
  8
0
  6
CONTINUOUS
 62
     7
  5
140
 10
190.0
 20
95.446053
 30
0.0
 11
190.0
 21
91.124881
 31
0.0
  0
LINE
  8
0
  6
CONTINUOUS
 62
     7
  5
141
 10
199.1
 20
100.5
 30
0.0
 11
199.1
 21
105.5
 31
0.0
  0
LINE
  8
0
  6
CONTINUOUS
 62
     7
  5
142
 10
199.3
 20
100.7
 30
0.0
 11
199.3
 21
105.3
 31
0.0
  0
LINE
  8
0
  6
CONTINUOUS
 62
     7
  5
143
 10
180.0
 20
114.875119
 30
0.0
 11
180.0
 21
122.39266
 31
0.0
  0
LINE
  8
0
  6
CONTINUOUS
 62
     7
  5
144
 10
190.0
 20
114.875119
 30
0.0
 11
190.0
 21
122.39266
 31
0.0
  0
LINE
  8
0
  6
CONTINUOUS
 62
     7
  5
145
 10
180.0
 20
83.60734
 30
0.0
 11
180.0
 21
91.124881
 31
0.0
  0
LINE
  8
0
  6
CONTINUOUS
 62
     7
  5
146
 10
190.0
 20
83.60734
 30
0.0
 11
190.0
 21
91.124881
 31
0.0
  0
LINE
  8
0
  6
CONTINUOUS
 62
     7
  5
147
 10
440.0
 20
129.5
 30
0.0
 11
440.0
 21
76.5
 31
0.0
  0
LINE
  8
0
  6
CONTINUOUS
 62
     7
  5
148
 10
440.0
 20
76.5
 30
0.0
 11
430.0
 21
76.5
 31
0.0
  0
LINE
  8
0
  6
CONTINUOUS
 62
     7
  5
149
 10
430.0
 20
76.5
 30
0.0
 11
430.0
 21
129.5
 31
0.0
  0
LINE
  8
0
  6
CONTINUOUS
 62
     7
  5
14A
 10
430.0
 20
129.5
 30
0.0
 11
440.0
 21
129.5
 31
0.0
  0
LINE
  8
0
  6
CONTINUOUS
 62
     7
  5
14B
 10
190.0
 20
76.5
 30
0.0
 11
180.0
 21
76.5
 31
0.0
  0
LINE
  8
0
  6
CONTINUOUS
 62
     7
  5
14C
 10
180.0
 20
76.5
 30
0.0
 11
180.0
 21
83.60734
 31
0.0
  0
LINE
  8
0
  6
CONTINUOUS
 62
     7
  5
14D
 10
190.0
 20
83.60734
 30
0.0
 11
190.0
 21
76.5
 31
0.0
  0
LINE
  8
0
  6
CONTINUOUS
 62
     7
  5
14E
 10
180.0
 20
129.5
 30
0.0
 11
190.0
 21
129.5
 31
0.0
  0
LINE
  8
0
  6
CONTINUOUS
 62
     7
  5
14F
 10
180.0
 20
122.39266
 30
0.0
 11
180.0
 21
129.5
 31
0.0
  0
LINE
  8
0
  6
CONTINUOUS
 62
     7
  5
150
 10
190.0
 20
129.5
 30
0.0
 11
190.0
 21
122.39266
 31
0.0
  0
LINE
  8
0
  6
CONTINUOUS
 62
     7
  5
151
 10
195.0
 20
99.0
 30
0.0
 11
195.0
 21
100.5
 31
0.0
  0
LINE
  8
0
  6
CONTINUOUS
 62
     7
  5
152
 10
195.0
 20
105.5
 30
0.0
 11
195.0
 21
107.0
 31
0.0
  0
LINE
  8
0
  6
CONTINUOUS
 62
     7
  5
153
 10
425.0
 20
99.0
 30
0.0
 11
425.0
 21
107.0
 31
0.0
  0
CIRCLE
  8
0
  6
CONTINUOUS
 62
     7
  5
154
 10
345.0
 20
125.0
 30
0.0
 40
2.6
210
0.0
220
0.0
230
1.0
  0
CIRCLE
  8
0
  6
CONTINUOUS
 62
     7
  5
155
 10
205.0
 20
125.0
 30
0.0
 40
2.6
210
0.0
220
0.0
230
1.0
  0
LINE
  8
0
  6
CONTINUOUS
 62
     7
  5
156
 10
190.0
 20
118.3
 30
0.0
 11
197.3
 21
118.3
 31
0.0
  0
LINE
  8
0
  6
CONTINUOUS
 62
     7
  5
157
 10
317.7
 20
118.3
 30
0.0
 11
430.0
 21
118.3
 31
0.0
  0
CIRCLE
  8
0
  6
CONTINUOUS
 62
     7
  5
158
 10
415.0
 20
125.0
 30
0.0
 40
2.6
210
0.0
220
0.0
230
1.0
  0
ARC
  8
0
  6
CONTINUOUS
 62
     7
  5
159
 10
275.0
 20
125.0
 30
0.0
 40
2.6
 50
348.912511
 51
360.0
210
0.0
220
0.0
230
1.0
  0
ARC
  8
0
  6
CONTINUOUS
 62
     7
  5
15A
 10
275.0
 20
125.0
 30
0.0
 40
2.6
 50
0.0
 51
191.087489
210
0.0
220
0.0
230
0.9999999999999999
  0
LINE
  8
0
  6
CONTINUOUS
 62
     7
  5
15B
 10
190.0
 20
129.5
 30
0.0
 11
430.0
 21
129.5
 31
0.0
  0
CIRCLE
  8
0
  6
CONTINUOUS
 62
     7
  5
15C
 10
345.0
 20
81.0
 30
0.0
 40
2.6
210
0.0
220
0.0
230
1.0
  0
ARC
  8
0
  6
CONTINUOUS
 62
     7
  5
15D
 10
275.0
 20
81.0
 30
0.0
 40
2.6
 50
168.912511
 51
360.0
210
0.0
220
0.0
230
1.0
  0
ARC
  8
0
  6
CONTINUOUS
 62
     7
  5
15E
 10
275.0
 20
81.0
 30
0.0
 40
2.6
 50
360.0
 51
11.087489
210
0.0
220
0.0
230
0.9999999999999999
  0
CIRCLE
  8
0
  6
CONTINUOUS
 62
     7
  5
15F
 10
205.0
 20
81.0
 30
0.0
 40
2.6
210
0.0
220
0.0
230
1.0
  0
LINE
  8
0
  6
CONTINUOUS
 62
     7
  5
160
 10
190.0
 20
87.7
 30
0.0
 11
197.3
 21
87.7
 31
0.0
  0
LINE
  8
0
  6
CONTINUOUS
 62
     7
  5
161
 10
317.7
 20
87.7
 30
0.0
 11
430.0
 21
87.7
 31
0.0
  0
CIRCLE
  8
0
  6
CONTINUOUS
 62
     7
  5
162
 10
415.0
 20
81.0
 30
0.0
 40
2.6
210
0.0
220
0.0
230
1.0
  0
LINE
  8
0
  6
CONTINUOUS
 62
     7
  5
163
 10
190.0
 20
76.5
 30
0.0
 11
430.0
 21
76.5
 31
0.0
  0
LINE
  8
0
  6
CONTINUOUS
 62
     7
  5
164
 10
180.0
 20
76.0
 30
0.0
 11
440.0
 21
76.0
 31
0.0
  0
LINE
  8
0
  6
CONTINUOUS
 62
     7
  5
165
 10
440.0
 20
76.0
 30
0.0
 11
440.0
 21
76.5
 31
0.0
  0
LINE
  8
0
  6
CONTINUOUS
 62
     7
  5
166
 10
180.0
 20
76.0
 30
0.0
 11
180.0
 21
76.5
 31
0.0
  0
LINE
  8
0
  6
CONTINUOUS
 62
     7
  5
167
 10
180.0
 20
130.0
 30
0.0
 11
440.0
 21
130.0
 31
0.0
  0
LINE
  8
0
  6
CONTINUOUS
 62
     7
  5
168
 10
440.0
 20
129.5
 30
0.0
 11
440.0
 21
130.0
 31
0.0
  0
LINE
  8
0
  6
CONTINUOUS
 62
     7
  5
169
 10
180.0
 20
129.5
 30
0.0
 11
180.0
 21
130.0
 31
0.0
  0
LINE
  8
0
  6
CONTINUOUS
 62
     7
  5
16A
 10
192.0
 20
108.25
 30
0.0
 11
190.0
 21
108.25
 31
0.0
  0
LINE
  8
0
  6
CONTINUOUS
 62
     7
  5
16B
 10
190.0
 20
97.75
 30
0.0
 11
192.0
 21
97.75
 31
0.0
  0
LINE
  8
0
  6
CONTINUOUS
 62
     7
  5
16C
 10
199.1
 20
105.5
 30
0.0
 11
192.0
 21
105.5
 31
0.0
  0
LINE
  8
0
  6
CONTINUOUS
 62
     7
  5
16D
 10
192.0
 20
100.5
 30
0.0
 11
199.1
 21
100.5
 31
0.0
  0
LINE
  8
0
  6
CONTINUOUS
 62
     7
  5
16E
 10
199.1
 20
100.5
 30
0.0
 11
199.3
 21
100.7
 31
0.0
  0
LINE
  8
0
  6
CONTINUOUS
 62
     7
  5
16F
 10
199.3
 20
105.3
 30
0.0
 11
199.1
 21
105.5
 31
0.0
  0
LINE
  8
0
  6
CONTINUOUS
 62
     7
  5
170
 10
195.0
 20
107.0
 30
0.0
 11
192.0
 21
107.0
 31
0.0
  0
LINE
  8
0
  6
CONTINUOUS
 62
     7
  5
171
 10
192.0
 20
99.0
 30
0.0
 11
195.0
 21
99.0
 31
0.0
  0
LINE
  8
0
  6
CONTINUOUS
 62
     7
  5
172
 10
425.0
 20
99.0
 30
0.0
 11
430.0
 21
99.0
 31
0.0
  0
LINE
  8
0
  6
CONTINUOUS
 62
     7
  5
173
 10
430.0
 20
107.0
 30
0.0
 11
425.0
 21
107.0
 31
0.0
  0
LINE
  8
0
  6
CONTINUOUS
 62
     7
  5
174
 10
430.0
 20
90.6
 30
0.0
 11
319.5
 21
90.6
 31
0.0
  0
LINE
  8
0
  6
CONTINUOUS
 62
     7
  5
175
 10
195.5
 20
90.6
 30
0.0
 11
190.0
 21
90.6
 31
0.0
  0
LINE
  8
0
  6
CONTINUOUS
 62
     7
  5
176
 10
190.0
 20
115.4
 30
0.0
 11
195.5
 21
115.4
 31
0.0
  0
LINE
  8
0
  6
CONTINUOUS
 62
     7
  5
177
 10
319.5
 20
115.4
 30
0.0
 11
430.0
 21
115.4
 31
0.0
  0
ENDBLK
  8
0
  5
178
  0
BLOCK
  8
0
  5
17B
  2
AID859
 70
     0
 10
0.0
 20
0.0
 30
0.0
  3
#auxiliary draft view
  0
CIRCLE
  8
0
  6
CONTINUOUS
 62
     7
  5
17C
 10
345.0
 20
384.0
 30
0.0
 40
2.6
210
0.0
220
0.0
230
1.0
  0
CIRCLE
  8
0
  6
CONTINUOUS
 62
     7
  5
17D
 10
415.0
 20
384.0
 30
0.0
 40
2.6
210
0.0
220
0.0
230
1.0
  0
CIRCLE
  8
0
  6
CONTINUOUS
 62
     7
  5
17E
 10
275.0
 20
384.0
 30
0.0
 40
2.6
210
0.0
220
0.0
230
1.0
  0
CIRCLE
  8
0
  6
CONTINUOUS
 62
     7
  5
17F
 10
205.0
 20
384.0
 30
0.0
 40
2.6
210
0.0
220
0.0
230
1.0
  0
CIRCLE
  8
0
  6
CONTINUOUS
 62
     7
  5
180
 10
345.0
 20
340.0
 30
0.0
 40
2.6
210
0.0
220
0.0
230
1.0
  0
CIRCLE
  8
0
  6
CONTINUOUS
 62
     7
  5
181
 10
415.0
 20
340.0
 30
0.0
 40
2.6
210
0.0
220
0.0
230
1.0
  0
CIRCLE
  8
0
  6
CONTINUOUS
 62
     7
  5
182
 10
275.0
 20
340.0
 30
0.0
 40
2.6
210
0.0
220
0.0
230
1.0
  0
CIRCLE
  8
0
  6
CONTINUOUS
 62
     7
  5
183
 10
205.0
 20
340.0
 30
0.0
 40
2.6
210
0.0
220
0.0
230
1.0
  0
LINE
  8
0
  6
CONTINUOUS
 62
     7
  5
184
 10
180.0
 20
335.0
 30
0.0
 11
440.0
 21
335.0
 31
0.0
  0
LINE
  8
0
  6
CONTINUOUS
 62
     7
  5
185
 10
180.0
 20
335.0
 30
0.0
 11
180.0
 21
389.0
 31
0.0
  0
LINE
  8
0
  6
CONTINUOUS
 62
     7
  5
186
 10
440.0
 20
335.0
 30
0.0
 11
440.0
 21
389.0
 31
0.0
  0
LINE
  8
0
  6
CONTINUOUS
 62
     7
  5
187
 10
180.0
 20
389.0
 30
0.0
 11
440.0
 21
389.0
 31
0.0
  0
ENDBLK
  8
0
  5
188
  0
ENDSEC
  0
SECTION
  2
ENTITIES
  0
INSERT
  8
0
  5
7A
  2
AID145
 10
0.0
 20
0.0
 30
0.0
  0
INSERT
  8
0
  5
BB
  2
AID299
 10
0.0
 20
0.0
 30
0.0
  0
INSERT
  8
0
  5
109
  2
AID453
 10
0.0
 20
0.0
 30
0.0
  0
INSERT
  8
0
  5
179
  2
AID633
 10
0.0
 20
0.0
 30
0.0
  0
INSERT
  8
0
  5
189
  2
AID859
 10
0.0
 20
0.0
 30
0.0
  0
LINE
  8
0
  6
CENTER
 62
     1
  5
18B
 10
199.4
 20
340.0
 30
0.0
 11
210.6
 21
340.0
 31
0.0
  0
LINE
  8
0
  6
CENTER
 62
     1
  5
18C
 10
205.0
 20
334.4
 30
0.0
 11
205.0
 21
345.6
 31
0.0
  0
LINE
  8
0
  6
CENTER
 62
     1
  5
18D
 10
199.4
 20
384.0
 30
0.0
 11
210.6
 21
384.0
 31
0.0
  0
LINE
  8
0
  6
CENTER
 62
     1
  5
18E
 10
205.0
 20
378.4
 30
0.0
 11
205.0
 21
389.6
 31
0.0
  0
LINE
  8
0
  6
CENTER
 62
     1
  5
18F
 10
269.4
 20
340.0
 30
0.0
 11
280.6
 21
340.0
 31
0.0
  0
LINE
  8
0
  6
CENTER
 62
     1
  5
190
 10
275.0
 20
334.4
 30
0.0
 11
275.0
 21
345.6
 31
0.0
  0
LINE
  8
0
  6
CENTER
 62
     1
  5
191
 10
269.4
 20
384.0
 30
0.0
 11
280.6
 21
384.0
 31
0.0
  0
LINE
  8
0
  6
CENTER
 62
     1
  5
192
 10
275.0
 20
378.4
 30
0.0
 11
275.0
 21
389.6
 31
0.0
  0
LINE
  8
0
  6
CENTER
 62
     1
  5
193
 10
339.4
 20
340.0
 30
0.0
 11
350.6
 21
340.0
 31
0.0
  0
LINE
  8
0
  6
CENTER
 62
     1
  5
194
 10
345.0
 20
334.4
 30
0.0
 11
345.0
 21
345.6
 31
0.0
  0
LINE
  8
0
  6
CENTER
 62
     1
  5
195
 10
339.4
 20
384.0
 30
0.0
 11
350.6
 21
384.0
 31
0.0
  0
LINE
  8
0
  6
CENTER
 62
     1
  5
196
 10
345.0
 20
378.4
 30
0.0
 11
345.0
 21
389.6
 31
0.0
  0
LINE
  8
0
  6
CENTER
 62
     1
  5
197
 10
409.4
 20
340.0
 30
0.0
 11
420.6
 21
340.0
 31
0.0
  0
LINE
  8
0
  6
CENTER
 62
     1
  5
198
 10
415.0
 20
334.4
 30
0.0
 11
415.0
 21
345.6
 31
0.0
  0
LINE
  8
0
  6
CENTER
 62
     1
  5
199
 10
409.4
 20
384.0
 30
0.0
 11
420.6
 21
384.0
 31
0.0
  0
LINE
  8
0
  6
CENTER
 62
     1
  5
19A
 10
415.0
 20
378.4
 30
0.0
 11
415.0
 21
389.6
 31
0.0
  0
LINE
  8
0
  6
CENTER
 62
     1
  5
19B
 10
177.0
 20
241.25
 30
0.0
 11
202.3
 21
241.25
 31
0.0
  0
LINE
  8
0
  6
CENTER
 62
     1
  5
19C
 10
70.45
 20
241.25
 30
0.0
 11
99.55
 21
241.25
 31
0.0
  0
LINE
  8
0
  6
CENTER
 62
     1
  5
19D
 10
85.0
 20
226.7
 30
0.0
 11
85.0
 21
255.8
 31
0.0
  0
LINE
  8
0
  6
CENTER
 62
     1
  5
19E
 10
521.0
 20
241.25
 30
0.0
 11
539.0
 21
241.25
 31
0.0
  0
LINE
  8
0
  6
CENTER
 62
     1
  5
19F
 10
530.0
 20
232.25
 30
0.0
 11
530.0
 21
250.25
 31
0.0
  0
LINE
  8
0
  6
CENTER
 62
     1
  5
1A0
 10
199.4
 20
81.0
 30
0.0
 11
210.6
 21
81.0
 31
0.0
  0
LINE
  8
0
  6
CENTER
 62
     1
  5
1A1
 10
205.0
 20
75.4
 30
0.0
 11
205.0
 21
86.6
 31
0.0
  0
LINE
  8
0
  6
CENTER
 62
     1
  5
1A2
 10
199.4
 20
125.0
 30
0.0
 11
210.6
 21
125.0
 31
0.0
  0
LINE
  8
0
  6
CENTER
 62
     1
  5
1A3
 10
205.0
 20
119.4
 30
0.0
 11
205.0
 21
130.6
 31
0.0
  0
LINE
  8
0
  6
CENTER
 62
     1
  5
1A4
 10
250.5
 20
88.0
 30
0.0
 11
261.5
 21
88.0
 31
0.0
  0
LINE
  8
0
  6
CENTER
 62
     1
  5
1A5
 10
256.0
 20
82.5
 30
0.0
 11
256.0
 21
93.5
 31
0.0
  0
LINE
  8
0
  6
CENTER
 62
     1
  5
1A6
 10
250.5
 20
118.0
 30
0.0
 11
261.5
 21
118.0
 31
0.0
  0
LINE
  8
0
  6
CENTER
 62
     1
  5
1A7
 10
256.0
 20
112.5
 30
0.0
 11
256.0
 21
123.5
 31
0.0
  0
LINE
  8
0
  6
CENTER
 62
     1
  5
1A8
 10
290.5
 20
88.0
 30
0.0
 11
301.5
 21
88.0
 31
0.0
  0
LINE
  8
0
  6
CENTER
 62
     1
  5
1A9
 10
296.0
 20
82.5
 30
0.0
 11
296.0
 21
93.5
 31
0.0
  0
LINE
  8
0
  6
CENTER
 62
     1
  5
1AA
 10
290.5
 20
118.0
 30
0.0
 11
301.5
 21
118.0
 31
0.0
  0
LINE
  8
0
  6
CENTER
 62
     1
  5
1AB
 10
296.0
 20
112.5
 30
0.0
 11
296.0
 21
123.5
 31
0.0
  0
LINE
  8
0
  6
CENTER
 62
     1
  5
1AC
 10
339.4
 20
81.0
 30
0.0
 11
350.6
 21
81.0
 31
0.0
  0
LINE
  8
0
  6
CENTER
 62
     1
  5
1AD
 10
345.0
 20
75.4
 30
0.0
 11
345.0
 21
86.6
 31
0.0
  0
LINE
  8
0
  6
CENTER
 62
     1
  5
1AE
 10
339.4
 20
125.0
 30
0.0
 11
350.6
 21
125.0
 31
0.0
  0
LINE
  8
0
  6
CENTER
 62
     1
  5
1AF
 10
345.0
 20
119.4
 30
0.0
 11
345.0
 21
130.6
 31
0.0
  0
LINE
  8
0
  6
CENTER
 62
     1
  5
1B0
 10
409.4
 20
81.0
 30
0.0
 11
420.6
 21
81.0
 31
0.0
  0
LINE
  8
0
  6
CENTER
 62
     1
  5
1B1
 10
415.0
 20
75.4
 30
0.0
 11
415.0
 21
86.6
 31
0.0
  0
LINE
  8
0
  6
CENTER
 62
     1
  5
1B2
 10
409.4
 20
125.0
 30
0.0
 11
420.6
 21
125.0
 31
0.0
  0
LINE
  8
0
  6
CENTER
 62
     1
  5
1B3
 10
415.0
 20
119.4
 30
0.0
 11
415.0
 21
130.6
 31
0.0
  0
LINE
  8
0
  6
CENTER
 62
     1
  5
1B4
 10
269.4
 20
125.0
 30
0.0
 11
280.6
 21
125.0
 31
0.0
  0
LINE
  8
0
  6
CENTER
 62
     1
  5
1B5
 10
275.0
 20
119.4
 30
0.0
 11
275.0
 21
130.6
 31
0.0
  0
LINE
  8
0
  6
CENTER
 62
     1
  5
1B6
 10
269.4
 20
81.0
 30
0.0
 11
280.6
 21
81.0
 31
0.0
  0
LINE
  8
0
  6
CENTER
 62
     1
  5
1B7
 10
275.0
 20
75.4
 30
0.0
 11
275.0
 21
86.6
 31
0.0
  0
LINE
  8
0
  6
CENTER
 62
     1
  5
1B8
 10
177.0
 20
103.0
 30
0.0
 11
433.0
 21
103.0
 31
0.0
  0
ENDSEC
  0
EOF
