  0
SECTION
  2
HEADER
  9
$ACADVER
  1
AC1009
  9
$DWGCODEPAGE
  3
ansi_1252
  9
$INSBASE
 10
0.0
 20
0.0
 30
0.0
  9
$EXTMIN
 10
-11.0
 20
-10.9525
 30
0.0
  9
$EXTMAX
 10
588.0
 20
386.6
 30
4.0
  9
$LIMMIN
 10
-11.0
 20
-10.9525
  9
$LIMMAX
 10
588.0
 20
386.6
  9
$ORTHOMODE
 70
     0
  9
$REGENMODE
 70
     1
  9
$FILLMODE
 70
     1
  9
$QTEXTMODE
 70
     0
  9
$MIRRTEXT
 70
     1
  9
$DRAGMODE
 70
     2
  9
$LTSCALE
 40
10.0
  9
$OSMODE
 70
     0
  9
$ATTMODE
 70
     1
  9
$TEXTSIZE
 40
0.2
  9
$TRACEWID
 40
0.05
  9
$TEXTSTYLE
  7
STANDARD
  9
$CLAYER
  8
0
  9
$CELTYPE
  6
CONTINUOUS
  9
$CECOLOR
 62
   256
  9
$DIMSCALE
 40
1.0
  9
$DIMASZ
 40
1.25
  9
$DIMEXO
 40
1.0
  9
$DIMDLI
 40
0.38
  9
$DIMRND
 40
0.0
  9
$DIMDLE
 40
0.0
  9
$DIMEXE
 40
0.75
  9
$DIMTP
 40
0.0
  9
$DIMTM
 40
0.0
  9
$DIMTXT
 40
2.5
  9
$DIMCEN
 40
0.09
  9
$DIMTSZ
 40
0.0
  9
$DIMTOL
 70
     0
  9
$DIMLIM
 70
     0
  9
$DIMTIH
 70
     0
  9
$DIMTOH
 70
     0
  9
$DIMSE1
 70
     0
  9
$DIMSE2
 70
     0
  9
$DIMTAD
 70
     1
  9
$DIMZIN
 70
     0
  9
$DIMBLK
  1

  9
$DIMASO
 70
     1
  9
$DIMSHO
 70
     1
  9
$DIMPOST
  1

  9
$DIMAPOST
  1

  9
$DIMALT
 70
     0
  9
$DIMALTD
 70
     2
  9
$DIMALTF
 40
25.4
  9
$DIMLFAC
 40
1.0
  9
$DIMTOFL
 70
     0
  9
$DIMTVP
 40
0.0
  9
$DIMTIX
 70
     0
  9
$DIMSOXD
 70
     0
  9
$DIMSAH
 70
     0
  9
$DIMBLK1
  1

  9
$DIMBLK2
  1

  9
$DIMSTYLE
  2
STANDARD
  9
$DIMCLRD
 70
     7
  9
$DIMCLRE
 70
     7
  9
$DIMCLRT
 70
     7
  9
$DIMTFAC
 40
0.8
  9
$DIMGAP
 40
1.25
  9
$LUNITS
 70
     2
  9
$LUPREC
 70
     4
  9
$AXISMODE
 70
     0
  9
$AXISUNIT
 10
0.0
 20
0.0
  9
$SKETCHINC
 40
0.1
  9
$FILLETRAD
 40
0.0
  9
$AUNITS
 70
     0
  9
$AUPREC
 70
     0
  9
$MENU
  1
acad
  9
$ELEVATION
 40
0.0
  9
$PELEVATION
 40
0.0
  9
$THICKNESS
 40
0.0
  9
$LIMCHECK
 70
     0
  9
$BLIPMODE
 70
     1
  9
$CHAMFERA
 40
0.0
  9
$CHAMFERB
 40
0.0
  9
$SKPOLY
 70
     0
  9
$TDCREATE
 40
2454629.365578704
  9
$TDUPDATE
 40
2454629.281851852
  9
$TDINDWG
 40
0.0000000000
  9
$TDUSRTIMER
 40
0.0000000000
  9
$USRTIMER
 70
     1
  9
$ANGBASE
 50
0.0
  9
$ANGDIR
 70
     0
  9
$PDMODE
 70
     0
  9
$PDSIZE
 40
0.0
  9
$PLINEWID
 40
0.0
  9
$COORDS
 70
     0
  9
$SPLFRAME
 70
     0
  9
$SPLINETYPE
 70
     6
  9
$SPLINESEGS
 70
     8
  9
$ATTDIA
 70
     0
  9
$ATTREQ
 70
     1
  9
$HANDLING
 70
     1
  9
$HANDSEED
  5
1AA
  9
$SURFTAB1
 70
     6
  9
$SURFTAB2
 70
     6
  9
$SURFTYPE
 70
     6
  9
$SURFU
 70
     6
  9
$SURFV
 70
     6
  9
$UCSNAME
  2

  9
$UCSORG
 10
0.0
 20
0.0
 30
0.0
  9
$UCSXDIR
 10
1.0
 20
0.0
 30
0.0
  9
$UCSYDIR
 10
0.0
 20
1.0
 30
0.0
  9
$PUCSNAME
  2

  9
$PUCSORG
 10
0.0
 20
0.0
 30
0.0
  9
$PUCSXDIR
 10
1.0
 20
0.0
 30
0.0
  9
$PUCSYDIR
 10
0.0
 20
1.0
 30
0.0
  9
$USERI1
 70
     0
  9
$USERI2
 70
     0
  9
$USERI3
 70
     0
  9
$USERI4
 70
     0
  9
$USERI5
 70
     0
  9
$USERR1
 40
0.0
  9
$USERR2
 40
0.0
  9
$USERR3
 40
0.0
  9
$USERR4
 40
0.0
  9
$USERR5
 40
0.0
  9
$WORLDVIEW
 70
     1
  9
$SHADEDGE
 70
     3
  9
$SHADEDIF
 70
    70
  9
$TILEMODE
 70
     1
  9
$MAXACTVP
 70
    16
  9
$PINSBASE
 10
0.0
 20
0.0
 30
0.0
  9
$PLIMCHECK
 70
     0
  9
$PEXTMIN
 10
1.000000E+20
 20
1.000000E+20
 30
1.000000E+20
  9
$PEXTMAX
 10
-1.000000E+20
 20
-1.000000E+20
 30
-1.000000E+20
  9
$PLIMMIN
 10
0.0
 20
0.0
  9
$PLIMMAX
 10
12.0
 20
9.0
  9
$UNITMODE
 70
     0
  9
$VISRETAIN
 70
     0
  9
$PLINEGEN
 70
     1
  9
$PSLTSCALE
 70
     0
  9
$TREEDEPTH
 70
  3020
  0
ENDSEC
  0
SECTION
  2
TABLES
  0
TABLE
  2
VPORT
 70
     1
  0
VPORT
  2
*ACTIVE
 70
     0
 10
0.0
 20
0.0
 11
1.0
 21
1.0
 12
6.591288
 22
4.579184
 13
0.0
 23
0.0
 14
1.0
 24
1.0
 15
0.0
 25
0.0
 16
0.0
 26
0.0
 36
1.0
 17
0.0
 27
0.0
 37
0.0
 40
9.158369
 41
0.688564
 42
50.0
 43
0.0
 44
0.0
 50
0.0
 51
0.0
 71
     0
 72
   100
 73
     1
 74
     1
 75
     0
 76
     0
 77
     0
 78
     0
  0
ENDTAB
  0
TABLE
  2
LTYPE
 70
     2
  0
LTYPE
  2
CONTINUOUS
 70
    64
  3
Solid line
 72
    65
 73
     0
 40
0.0
  0
LTYPE
  2
CENTER
 70
    64
  3
____ _ ____ _ ____ _ ____ _ ____ _ ____ _ ____
 72
    65
 73
     4
 40
2.0
 49
1.25
 49
-0.25
 49
0.25
 49
-0.25
  0
ENDTAB
  0
TABLE
  2
LAYER
 70
     1
  0
LAYER
  2
0
 70
     0
 62
     7
  6
CONTINUOUS
  0
ENDTAB
  0
TABLE
  2
STYLE
 70
     1
  0
STYLE
  2
STANDARD
 70
     0
 40
0.0
 41
1.0
 50
0.0
 71
     0
 42
0.0
  3
IsonormD
  4

  0
ENDTAB
  0
TABLE
  2
VIEW
 70
     0
  0
ENDTAB
  0
TABLE
  2
UCS
 70
     0
  0
ENDTAB
  0
TABLE
  2
APPID
 70
     2
  0
APPID
  2
ACAD
 70
     0
  0
APPID
  2
TopSolid_Draft
 70
     0
  0
ENDTAB
  0
TABLE
  2
DIMSTYLE
 70
     1
  0
DIMSTYLE
  2
STANDARD
 70
     0
  3

  4

  5

  6

  7

 40
1.0
 41
1.25
 42
1.0
 43
0.38
 44
0.75
 45
0.0
 46
0.0
 47
0.0
 48
0.0
 71
     0
 72
     0
 73
     0
 74
     0
 75
     0
 76
     0
 77
     1
 78
     0
140
2.5
141
0.09
142
0.0
143
25.4
144
1.0
145
0.0
146
0.8
147
1.25
170
     0
171
     2
172
     0
173
     0
174
     0
175
     0
176
     7
177
     7
178
     7
  0
ENDTAB
  0
ENDSEC
  0
SECTION
  2
BLOCKS
  0
BLOCK
  8
0
  5
2D
  2
AID145
 70
     0
 10
0.0
 20
0.0
 30
0.0
  3
#draft view
  0
LINE
  8
0
  6
CONTINUOUS
 62
     7
  5
2E
 10
286.0
 20
216.75
 30
0.0
 11
206.0
 21
216.75
 31
0.0
  0
LINE
  8
0
  6
CONTINUOUS
 62
     7
  5
2F
 10
206.0
 20
219.75
 30
0.0
 11
286.0
 21
219.75
 31
0.0
  0
LINE
  8
0
  6
CONTINUOUS
 62
     7
  5
30
 10
286.0
 20
219.75
 30
0.0
 11
286.0
 21
216.75
 31
0.0
  0
LINE
  8
0
  6
CONTINUOUS
 62
     7
  5
31
 10
206.0
 20
216.75
 30
0.0
 11
206.0
 21
219.75
 31
0.0
  0
LINE
  8
0
  6
CONTINUOUS
 62
     7
  5
32
 10
286.0
 20
222.75
 30
0.0
 11
206.0
 21
222.75
 31
0.0
  0
LINE
  8
0
  6
CONTINUOUS
 62
     7
  5
33
 10
286.0
 20
222.75
 30
0.0
 11
286.0
 21
219.75
 31
0.0
  0
LINE
  8
0
  6
CONTINUOUS
 62
     7
  5
34
 10
206.0
 20
222.75
 30
0.0
 11
206.0
 21
219.75
 31
0.0
  0
LINE
  8
0
  6
CONTINUOUS
 62
     7
  5
35
 10
286.0
 20
227.75
 30
0.0
 11
206.0
 21
227.75
 31
0.0
  0
LINE
  8
0
  6
CONTINUOUS
 62
     7
  5
36
 10
286.0
 20
227.75
 30
0.0
 11
286.0
 21
225.25
 31
0.0
  0
LINE
  8
0
  6
CONTINUOUS
 62
     7
  5
37
 10
286.0
 20
225.25
 30
0.0
 11
206.0
 21
225.25
 31
0.0
  0
LINE
  8
0
  6
CONTINUOUS
 62
     7
  5
38
 10
206.0
 20
227.75
 30
0.0
 11
206.0
 21
225.25
 31
0.0
  0
LINE
  8
0
  6
CONTINUOUS
 62
     7
  5
39
 10
286.0
 20
232.75
 30
0.0
 11
286.0
 21
230.25
 31
0.0
  0
LINE
  8
0
  6
CONTINUOUS
 62
     7
  5
3A
 10
286.0
 20
230.25
 30
0.0
 11
206.0
 21
230.25
 31
0.0
  0
LINE
  8
0
  6
CONTINUOUS
 62
     7
  5
3B
 10
286.0
 20
232.75
 30
0.0
 11
206.0
 21
232.75
 31
0.0
  0
LINE
  8
0
  6
CONTINUOUS
 62
     7
  5
3C
 10
206.0
 20
232.75
 30
0.0
 11
206.0
 21
230.25
 31
0.0
  0
LINE
  8
0
  6
CONTINUOUS
 62
     7
  5
3D
 10
286.0
 20
248.25
 30
0.0
 11
206.0
 21
248.25
 31
0.0
  0
LINE
  8
0
  6
CONTINUOUS
 62
     7
  5
3E
 10
286.0
 20
248.25
 30
0.0
 11
286.0
 21
235.25
 31
0.0
  0
LINE
  8
0
  6
CONTINUOUS
 62
     7
  5
3F
 10
286.0
 20
235.25
 30
0.0
 11
206.0
 21
235.25
 31
0.0
  0
LINE
  8
0
  6
CONTINUOUS
 62
     7
  5
40
 10
206.0
 20
248.25
 30
0.0
 11
206.0
 21
235.25
 31
0.0
  0
LINE
  8
0
  6
CONTINUOUS
 62
     7
  5
41
 10
286.0
 20
235.25
 30
0.0
 11
286.0
 21
232.75
 31
0.0
  0
LINE
  8
0
  6
CONTINUOUS
 62
     7
  5
42
 10
206.0
 20
232.75
 30
0.0
 11
206.0
 21
235.25
 31
0.0
  0
LINE
  8
0
  6
CONTINUOUS
 62
     7
  5
43
 10
286.0
 20
225.25
 30
0.0
 11
286.0
 21
222.75
 31
0.0
  0
LINE
  8
0
  6
CONTINUOUS
 62
     7
  5
44
 10
206.0
 20
222.75
 30
0.0
 11
206.0
 21
225.25
 31
0.0
  0
LINE
  8
0
  6
CONTINUOUS
 62
     7
  5
45
 10
286.0
 20
230.25
 30
0.0
 11
286.0
 21
227.75
 31
0.0
  0
LINE
  8
0
  6
CONTINUOUS
 62
     7
  5
46
 10
206.0
 20
227.75
 30
0.0
 11
206.0
 21
230.25
 31
0.0
  0
LINE
  8
0
  6
CONTINUOUS
 62
     7
  5
47
 10
286.0
 20
218.25
 30
0.0
 11
323.0
 21
218.25
 31
0.0
  0
LINE
  8
0
  6
CONTINUOUS
 62
     7
  5
48
 10
323.0
 20
218.25
 30
0.0
 11
323.0
 21
217.05
 31
0.0
  0
LINE
  8
0
  6
CONTINUOUS
 62
     7
  5
49
 10
323.0
 20
211.25
 30
0.0
 11
323.0
 21
217.05
 31
0.0
  0
LINE
  8
0
  6
CONTINUOUS
 62
     7
  5
4A
 10
206.0
 20
211.25
 30
0.0
 11
323.0
 21
211.25
 31
0.0
  0
LINE
  8
0
  6
CONTINUOUS
 62
     7
  5
4B
 10
206.0
 20
216.75
 30
0.0
 11
206.0
 21
211.25
 31
0.0
  0
LINE
  8
0
  6
CONTINUOUS
 62
     7
  5
4C
 10
202.5
 20
211.25
 30
0.0
 11
202.5
 21
217.05
 31
0.0
  0
LINE
  8
0
  6
CONTINUOUS
 62
     7
  5
4D
 10
202.5
 20
217.05
 30
0.0
 11
206.0
 21
217.05
 31
0.0
  0
LINE
  8
0
  6
CONTINUOUS
 62
     7
  5
4E
 10
206.0
 20
211.25
 30
0.0
 11
202.5
 21
211.25
 31
0.0
  0
LINE
  8
0
  6
CONTINUOUS
 62
     7
  5
4F
 10
326.5
 20
217.05
 30
0.0
 11
326.5
 21
211.25
 31
0.0
  0
LINE
  8
0
  6
CONTINUOUS
 62
     7
  5
50
 10
323.0
 20
217.05
 30
0.0
 11
326.5
 21
217.05
 31
0.0
  0
LINE
  8
0
  6
CONTINUOUS
 62
     7
  5
51
 10
326.5
 20
211.25
 30
0.0
 11
323.0
 21
211.25
 31
0.0
  0
LINE
  8
0
  6
CONTINUOUS
 62
     7
  5
52
 10
202.75
 20
210.75
 30
0.0
 11
202.75
 21
211.25
 31
0.0
  0
LINE
  8
0
  6
CONTINUOUS
 62
     7
  5
53
 10
326.25
 20
210.75
 30
0.0
 11
326.25
 21
211.25
 31
0.0
  0
LINE
  8
0
  6
CONTINUOUS
 62
     7
  5
54
 10
187.0
 20
191.75
 30
0.0
 11
447.0
 21
191.75
 31
0.0
  0
LINE
  8
0
  6
CONTINUOUS
 62
     7
  5
55
 10
187.0
 20
191.75
 30
0.0
 11
187.0
 21
200.376261
 31
0.0
  0
LINE
  8
0
  6
CONTINUOUS
 62
     7
  5
56
 10
187.0
 20
200.376261
 30
0.0
 11
447.0
 21
200.376261
 31
0.0
  0
LINE
  8
0
  6
CONTINUOUS
 62
     7
  5
57
 10
447.0
 20
191.75
 30
0.0
 11
447.0
 21
200.376261
 31
0.0
  0
LINE
  8
0
  6
CONTINUOUS
 62
     7
  5
58
 10
187.0
 20
201.75
 30
0.0
 11
447.0
 21
201.75
 31
0.0
  0
LINE
  8
0
  6
CONTINUOUS
 62
     7
  5
59
 10
447.0
 20
200.376261
 30
0.0
 11
447.0
 21
201.75
 31
0.0
  0
LINE
  8
0
  6
CONTINUOUS
 62
     7
  5
5A
 10
187.0
 20
200.376261
 30
0.0
 11
187.0
 21
201.75
 31
0.0
  0
LINE
  8
0
  6
CONTINUOUS
 62
     7
  5
5B
 10
197.0
 20
217.75
 30
0.0
 11
187.0
 21
217.75
 31
0.0
  0
LINE
  8
0
  6
CONTINUOUS
 62
     7
  5
5C
 10
197.0
 20
217.75
 30
0.0
 11
197.0
 21
210.75
 31
0.0
  0
LINE
  8
0
  6
CONTINUOUS
 62
     7
  5
5D
 10
197.0
 20
210.75
 30
0.0
 11
437.0
 21
210.75
 31
0.0
  0
LINE
  8
0
  6
CONTINUOUS
 62
     7
  5
5E
 10
437.0
 20
217.75
 30
0.0
 11
437.0
 21
210.75
 31
0.0
  0
LINE
  8
0
  6
CONTINUOUS
 62
     7
  5
5F
 10
447.0
 20
217.75
 30
0.0
 11
437.0
 21
217.75
 31
0.0
  0
LINE
  8
0
  6
CONTINUOUS
 62
     7
  5
60
 10
447.0
 20
201.75
 30
0.0
 11
447.0
 21
217.75
 31
0.0
  0
LINE
  8
0
  6
CONTINUOUS
 62
     7
  5
61
 10
187.0
 20
201.75
 30
0.0
 11
187.0
 21
217.75
 31
0.0
  0
LINE
  8
0
  6
CONTINUOUS
 62
     7
  5
62
 10
197.0
 20
217.75
 30
0.0
 11
197.0
 21
223.013839
 31
0.0
  0
LINE
  8
0
  6
CONTINUOUS
 62
     7
  5
63
 10
187.0
 20
217.75
 30
0.0
 11
187.0
 21
223.013839
 31
0.0
  0
LINE
  8
0
  6
CONTINUOUS
 62
     7
  5
64
 10
197.0
 20
234.886161
 30
0.0
 11
197.0
 21
223.013839
 31
0.0
  0
LINE
  8
0
  6
CONTINUOUS
 62
     7
  5
65
 10
187.0
 20
234.886161
 30
0.0
 11
187.0
 21
223.013839
 31
0.0
  0
LINE
  8
0
  6
CONTINUOUS
 62
     7
  5
66
 10
197.0
 20
240.15
 30
0.0
 11
187.0
 21
240.15
 31
0.0
  0
LINE
  8
0
  6
CONTINUOUS
 62
     7
  5
67
 10
197.0
 20
240.15
 30
0.0
 11
197.0
 21
234.886161
 31
0.0
  0
LINE
  8
0
  6
CONTINUOUS
 62
     7
  5
68
 10
187.0
 20
240.15
 30
0.0
 11
187.0
 21
234.886161
 31
0.0
  0
LINE
  8
0
  6
CONTINUOUS
 62
     7
  5
69
 10
202.0
 20
210.75
 30
0.0
 11
202.0
 21
216.75
 31
0.0
  0
LINE
  8
0
  6
CONTINUOUS
 62
     7
  5
6A
 10
432.0
 20
210.75
 30
0.0
 11
432.0
 21
212.75
 31
0.0
  0
LINE
  8
0
  6
CONTINUOUS
 62
     7
  5
6B
 10
432.0
 20
212.75
 30
0.0
 11
432.0
 21
216.75
 31
0.0
  0
LINE
  8
0
  6
CONTINUOUS
 62
     7
  5
6C
 10
206.0
 20
237.5
 30
0.0
 11
197.0
 21
237.5
 31
0.0
  0
LINE
  8
0
  6
CONTINUOUS
 62
     7
  5
6D
 10
197.0
 20
227.0
 30
0.0
 11
206.0
 21
227.0
 31
0.0
  0
LINE
  8
0
  6
CONTINUOUS
 62
     7
  5
6E
 10
202.0
 20
216.75
 30
0.0
 11
197.0
 21
216.75
 31
0.0
  0
LINE
  8
0
  6
CONTINUOUS
 62
     7
  5
6F
 10
437.0
 20
216.75
 30
0.0
 11
432.0
 21
216.75
 31
0.0
  0
ENDBLK
  8
0
  5
70
  0
BLOCK
  8
0
  5
73
  2
AID281
 70
     0
 10
0.0
 20
0.0
 30
0.0
  3
#auxiliary draft view
  0
LINE
  8
0
  6
CONTINUOUS
 62
     7
  5
74
 10
75.0
 20
218.25
 30
0.0
 11
75.0
 21
217.75
 31
0.0
  0
LINE
  8
0
  6
CONTINUOUS
 62
     7
  5
75
 10
109.0
 20
218.25
 30
0.0
 11
109.0
 21
217.75
 31
0.0
  0
LINE
  8
0
  6
CONTINUOUS
 62
     7
  5
76
 10
75.0
 20
218.25
 30
0.0
 11
109.0
 21
218.25
 31
0.0
  0
LINE
  8
0
  6
CONTINUOUS
 62
     7
  5
77
 10
99.5
 20
242.25
 30
0.0
 11
99.5
 21
241.03365
 31
0.0
  0
ARC
  8
0
  6
CONTINUOUS
 62
     7
  5
78
 10
94.5
 20
242.25
 30
0.0
 40
5.0
 50
360.0
 51
90.0
210
0.0
220
0.0
230
1.0
  0
LINE
  8
0
  6
CONTINUOUS
 62
     7
  5
79
 10
89.5
 20
247.25
 30
0.0
 11
94.5
 21
247.25
 31
0.0
  0
ARC
  8
0
  6
CONTINUOUS
 62
     7
  5
7A
 10
89.5
 20
242.25
 30
0.0
 40
5.0
 50
90.0
 51
180.0
210
0.0
220
0.0
230
1.0
  0
LINE
  8
0
  6
CONTINUOUS
 62
     7
  5
7B
 10
84.5
 20
241.03365
 30
0.0
 11
84.5
 21
242.25
 31
0.0
  0
ARC
  8
0
  6
CONTINUOUS
 62
     7
  5
7C
 10
92.0
 20
232.25
 30
0.0
 40
11.55
 50
130.492661
 51
49.507339
210
0.0
220
0.0
230
1.0
  0
LINE
  8
0
  6
CONTINUOUS
 62
     7
  5
7D
 10
70.5
 20
219.75
 30
0.0
 11
72.5
 21
217.75
 31
0.0
  0
LINE
  8
0
  6
CONTINUOUS
 62
     7
  5
7E
 10
70.5
 20
222.75
 30
0.0
 11
70.5
 21
219.75
 31
0.0
  0
LINE
  8
0
  6
CONTINUOUS
 62
     7
  5
7F
 10
74.6
 20
222.75
 30
0.0
 11
70.5
 21
222.75
 31
0.0
  0
LINE
  8
0
  6
CONTINUOUS
 62
     7
  5
80
 10
74.6
 20
225.25
 30
0.0
 11
74.6
 21
222.75
 31
0.0
  0
LINE
  8
0
  6
CONTINUOUS
 62
     7
  5
81
 10
70.5
 20
225.25
 30
0.0
 11
74.6
 21
225.25
 31
0.0
  0
LINE
  8
0
  6
CONTINUOUS
 62
     7
  5
82
 10
74.6
 20
230.25
 30
0.0
 11
74.6
 21
227.75
 31
0.0
  0
LINE
  8
0
  6
CONTINUOUS
 62
     7
  5
83
 10
70.5
 20
230.25
 30
0.0
 11
74.6
 21
230.25
 31
0.0
  0
LINE
  8
0
  6
CONTINUOUS
 62
     7
  5
84
 10
70.5
 20
232.75
 30
0.0
 11
70.5
 21
230.25
 31
0.0
  0
LINE
  8
0
  6
CONTINUOUS
 62
     7
  5
85
 10
74.6
 20
235.25
 30
0.0
 11
74.6
 21
232.75
 31
0.0
  0
LINE
  8
0
  6
CONTINUOUS
 62
     7
  5
86
 10
70.5
 20
235.25
 30
0.0
 11
74.6
 21
235.25
 31
0.0
  0
LINE
  8
0
  6
CONTINUOUS
 62
     7
  5
87
 10
70.5
 20
248.25
 30
0.0
 11
70.5
 21
235.25
 31
0.0
  0
LINE
  8
0
  6
CONTINUOUS
 62
     7
  5
88
 10
113.5
 20
248.25
 30
0.0
 11
70.5
 21
248.25
 31
0.0
  0
LINE
  8
0
  6
CONTINUOUS
 62
     7
  5
89
 10
113.5
 20
248.25
 30
0.0
 11
113.5
 21
240.25
 31
0.0
  0
LINE
  8
0
  6
CONTINUOUS
 62
     7
  5
8A
 10
109.9
 20
240.25
 30
0.0
 11
113.5
 21
240.25
 31
0.0
  0
LINE
  8
0
  6
CONTINUOUS
 62
     7
  5
8B
 10
109.9
 20
237.75
 30
0.0
 11
109.9
 21
240.25
 31
0.0
  0
LINE
  8
0
  6
CONTINUOUS
 62
     7
  5
8C
 10
113.5
 20
237.75
 30
0.0
 11
109.9
 21
237.75
 31
0.0
  0
LINE
  8
0
  6
CONTINUOUS
 62
     7
  5
8D
 10
113.5
 20
237.75
 30
0.0
 11
113.5
 21
235.25
 31
0.0
  0
LINE
  8
0
  6
CONTINUOUS
 62
     7
  5
8E
 10
113.5
 20
235.25
 30
0.0
 11
109.4
 21
235.25
 31
0.0
  0
LINE
  8
0
  6
CONTINUOUS
 62
     7
  5
8F
 10
109.4
 20
235.25
 30
0.0
 11
109.4
 21
232.75
 31
0.0
  0
LINE
  8
0
  6
CONTINUOUS
 62
     7
  5
90
 10
109.4
 20
232.75
 30
0.0
 11
113.5
 21
232.75
 31
0.0
  0
LINE
  8
0
  6
CONTINUOUS
 62
     7
  5
91
 10
113.5
 20
232.75
 30
0.0
 11
113.5
 21
230.25
 31
0.0
  0
LINE
  8
0
  6
CONTINUOUS
 62
     7
  5
92
 10
113.5
 20
230.25
 30
0.0
 11
109.4
 21
230.25
 31
0.0
  0
LINE
  8
0
  6
CONTINUOUS
 62
     7
  5
93
 10
109.4
 20
230.25
 30
0.0
 11
109.4
 21
227.75
 31
0.0
  0
LINE
  8
0
  6
CONTINUOUS
 62
     7
  5
94
 10
109.4
 20
227.75
 30
0.0
 11
113.5
 21
227.75
 31
0.0
  0
LINE
  8
0
  6
CONTINUOUS
 62
     7
  5
95
 10
113.5
 20
227.75
 30
0.0
 11
113.5
 21
225.25
 31
0.0
  0
LINE
  8
0
  6
CONTINUOUS
 62
     7
  5
96
 10
113.5
 20
225.25
 30
0.0
 11
109.4
 21
225.25
 31
0.0
  0
LINE
  8
0
  6
CONTINUOUS
 62
     7
  5
97
 10
109.4
 20
225.25
 30
0.0
 11
109.4
 21
222.75
 31
0.0
  0
LINE
  8
0
  6
CONTINUOUS
 62
     7
  5
98
 10
109.4
 20
222.75
 30
0.0
 11
113.5
 21
222.75
 31
0.0
  0
LINE
  8
0
  6
CONTINUOUS
 62
     7
  5
99
 10
113.5
 20
222.75
 30
0.0
 11
113.5
 21
219.75
 31
0.0
  0
LINE
  8
0
  6
CONTINUOUS
 62
     7
  5
9A
 10
111.5
 20
217.75
 30
0.0
 11
113.5
 21
219.75
 31
0.0
  0
LINE
  8
0
  6
CONTINUOUS
 62
     7
  5
9B
 10
70.5
 20
227.75
 30
0.0
 11
70.5
 21
225.25
 31
0.0
  0
LINE
  8
0
  6
CONTINUOUS
 62
     7
  5
9C
 10
74.6
 20
232.75
 30
0.0
 11
70.5
 21
232.75
 31
0.0
  0
LINE
  8
0
  6
CONTINUOUS
 62
     7
  5
9D
 10
74.6
 20
227.75
 30
0.0
 11
70.5
 21
227.75
 31
0.0
  0
LINE
  8
0
  6
CONTINUOUS
 62
     7
  5
9E
 10
85.5
 20
245.25
 30
0.0
 11
85.5
 21
241.797382
 31
0.0
  0
ARC
  8
0
  6
CONTINUOUS
 62
     7
  5
9F
 10
92.0
 20
232.25
 30
0.0
 40
11.55
 50
124.247618
 51
130.492661
210
0.0
220
0.0
230
1.0
  0
LINE
  8
0
  6
CONTINUOUS
 62
     7
  5
A0
 10
98.5
 20
245.25
 30
0.0
 11
98.5
 21
241.797382
 31
0.0
  0
ARC
  8
0
  6
CONTINUOUS
 62
     7
  5
A1
 10
92.0
 20
232.25
 30
0.0
 40
11.55
 50
49.507339
 51
55.752382
210
0.0
220
0.0
230
1.0
  0
LINE
  8
0
  6
CONTINUOUS
 62
     7
  5
A2
 10
118.5
 20
201.75
 30
0.0
 11
119.0
 21
200.376261
 31
0.0
  0
LINE
  8
0
  6
CONTINUOUS
 62
     7
  5
A3
 10
119.0
 20
200.376261
 30
0.0
 11
119.0
 21
191.75
 31
0.0
  0
LINE
  8
0
  6
CONTINUOUS
 62
     7
  5
A4
 10
65.0
 20
200.376261
 30
0.0
 11
65.5
 21
201.75
 31
0.0
  0
LINE
  8
0
  6
CONTINUOUS
 62
     7
  5
A5
 10
65.5
 20
201.75
 30
0.0
 11
65.5
 21
217.75
 31
0.0
  0
LINE
  8
0
  6
CONTINUOUS
 62
     7
  5
A6
 10
118.5
 20
217.75
 30
0.0
 11
65.5
 21
217.75
 31
0.0
  0
LINE
  8
0
  6
CONTINUOUS
 62
     7
  5
A7
 10
118.5
 20
217.75
 30
0.0
 11
118.5
 21
201.75
 31
0.0
  0
LINE
  8
0
  6
CONTINUOUS
 62
     7
  5
A8
 10
65.0
 20
191.75
 30
0.0
 11
65.0
 21
200.376261
 31
0.0
  0
LINE
  8
0
  6
CONTINUOUS
 62
     7
  5
A9
 10
119.0
 20
191.75
 30
0.0
 11
65.0
 21
191.75
 31
0.0
  0
CIRCLE
  8
0
  6
CONTINUOUS
 62
     7
  5
AA
 10
92.0
 20
232.25
 30
0.0
 40
2.3
210
0.0
220
0.0
230
1.0
  0
CIRCLE
  8
0
  6
CONTINUOUS
 62
     7
  5
AB
 10
92.0
 20
232.25
 30
0.0
 40
2.5
210
0.0
220
0.0
230
1.0
  0
CIRCLE
  8
0
  6
CONTINUOUS
 62
     7
  5
AC
 10
92.0
 20
232.25
 30
0.0
 40
2.75
210
0.0
220
0.0
230
1.0
  0
CIRCLE
  8
0
  6
CONTINUOUS
 62
     7
  5
AD
 10
92.0
 20
232.25
 30
0.0
 40
5.25
210
0.0
220
0.0
230
1.0
  0
ARC
  8
0
  6
CONTINUOUS
 62
     7
  5
AE
 10
91.963594
 20
232.15
 30
0.0
 40
8.0
 50
90.0
 51
160.0
210
0.0
220
0.0
230
1.0
  0
LINE
  8
0
  6
CONTINUOUS
 62
     7
  5
AF
 10
102.366853
 20
227.157766
 30
0.0
 11
99.553947
 21
234.886161
 31
0.0
  0
ARC
  8
0
  6
CONTINUOUS
 62
     7
  5
B0
 10
92.036406
 20
232.15
 30
0.0
 40
8.0
 50
20.0
 51
90.0
210
0.0
220
0.0
230
1.0
  0
LINE
  8
0
  6
CONTINUOUS
 62
     7
  5
B1
 10
84.446053
 20
234.886161
 30
0.0
 11
81.633147
 21
227.157766
 31
0.0
  0
CIRCLE
  8
0
  6
CONTINUOUS
 62
     7
  5
B2
 10
92.0
 20
232.25
 30
0.0
 40
6.0
210
0.0
220
0.0
230
1.0
  0
LINE
  8
0
  6
CONTINUOUS
 62
     7
  5
B3
 10
92.036406
 20
240.15
 30
0.0
 11
91.963594
 21
240.15
 31
0.0
  0
ENDBLK
  8
0
  5
B4
  0
BLOCK
  8
0
  5
B7
  2
AID441
 70
     0
 10
0.0
 20
0.0
 30
0.0
  3
#auxiliary draft view
  0
LINE
  8
0
  6
CONTINUOUS
 62
     7
  5
B8
 10
549.5
 20
247.25
 30
0.0
 11
544.5
 21
247.25
 31
0.0
  0
ARC
  8
0
  6
CONTINUOUS
 62
     7
  5
B9
 10
544.5
 20
242.25
 30
0.0
 40
5.0
 50
90.0
 51
180.0
210
0.0
220
0.0
230
1.0
  0
LINE
  8
0
  6
CONTINUOUS
 62
     7
  5
BA
 10
539.5
 20
242.25
 30
0.0
 11
539.5
 21
241.03365
 31
0.0
  0
ARC
  8
0
  6
CONTINUOUS
 62
     7
  5
BB
 10
547.0
 20
232.25
 30
0.0
 40
11.55
 50
130.492661
 51
206.160431
210
0.0
220
0.0
230
1.0
  0
ARC
  8
0
  6
CONTINUOUS
 62
     7
  5
BC
 10
547.0
 20
232.25
 30
0.0
 40
11.55
 50
333.839569
 51
49.507339
210
0.0
220
0.0
230
1.0
  0
LINE
  8
0
  6
CONTINUOUS
 62
     7
  5
BD
 10
525.5
 20
219.75
 30
0.0
 11
527.5
 21
217.75
 31
0.0
  0
LINE
  8
0
  6
CONTINUOUS
 62
     7
  5
BE
 10
529.6
 20
222.75
 30
0.0
 11
525.5
 21
222.75
 31
0.0
  0
LINE
  8
0
  6
CONTINUOUS
 62
     7
  5
BF
 10
529.6
 20
225.25
 30
0.0
 11
529.6
 21
222.75
 31
0.0
  0
LINE
  8
0
  6
CONTINUOUS
 62
     7
  5
C0
 10
525.5
 20
225.25
 30
0.0
 11
529.6
 21
225.25
 31
0.0
  0
LINE
  8
0
  6
CONTINUOUS
 62
     7
  5
C1
 10
529.6
 20
227.75
 30
0.0
 11
525.5
 21
227.75
 31
0.0
  0
LINE
  8
0
  6
CONTINUOUS
 62
     7
  5
C2
 10
529.6
 20
230.25
 30
0.0
 11
529.6
 21
227.75
 31
0.0
  0
LINE
  8
0
  6
CONTINUOUS
 62
     7
  5
C3
 10
525.5
 20
230.25
 30
0.0
 11
529.6
 21
230.25
 31
0.0
  0
LINE
  8
0
  6
CONTINUOUS
 62
     7
  5
C4
 10
525.5
 20
232.75
 30
0.0
 11
525.5
 21
230.25
 31
0.0
  0
LINE
  8
0
  6
CONTINUOUS
 62
     7
  5
C5
 10
529.6
 20
235.25
 30
0.0
 11
529.6
 21
232.75
 31
0.0
  0
LINE
  8
0
  6
CONTINUOUS
 62
     7
  5
C6
 10
525.5
 20
235.25
 30
0.0
 11
529.6
 21
235.25
 31
0.0
  0
LINE
  8
0
  6
CONTINUOUS
 62
     7
  5
C7
 10
529.1
 20
237.75
 30
0.0
 11
529.1
 21
240.25
 31
0.0
  0
LINE
  8
0
  6
CONTINUOUS
 62
     7
  5
C8
 10
529.1
 20
240.25
 30
0.0
 11
525.5
 21
240.25
 31
0.0
  0
LINE
  8
0
  6
CONTINUOUS
 62
     7
  5
C9
 10
525.5
 20
248.25
 30
0.0
 11
525.5
 21
240.25
 31
0.0
  0
LINE
  8
0
  6
CONTINUOUS
 62
     7
  5
CA
 10
568.5
 20
232.75
 30
0.0
 11
564.4
 21
232.75
 31
0.0
  0
LINE
  8
0
  6
CONTINUOUS
 62
     7
  5
CB
 10
568.5
 20
232.75
 30
0.0
 11
568.5
 21
230.25
 31
0.0
  0
LINE
  8
0
  6
CONTINUOUS
 62
     7
  5
CC
 10
564.4
 20
230.25
 30
0.0
 11
568.5
 21
230.25
 31
0.0
  0
LINE
  8
0
  6
CONTINUOUS
 62
     7
  5
CD
 10
564.4
 20
227.75
 30
0.0
 11
564.4
 21
230.25
 31
0.0
  0
LINE
  8
0
  6
CONTINUOUS
 62
     7
  5
CE
 10
568.5
 20
227.75
 30
0.0
 11
564.4
 21
227.75
 31
0.0
  0
LINE
  8
0
  6
CONTINUOUS
 62
     7
  5
CF
 10
564.4
 20
225.25
 30
0.0
 11
568.5
 21
225.25
 31
0.0
  0
LINE
  8
0
  6
CONTINUOUS
 62
     7
  5
D0
 10
564.4
 20
222.75
 30
0.0
 11
564.4
 21
225.25
 31
0.0
  0
LINE
  8
0
  6
CONTINUOUS
 62
     7
  5
D1
 10
568.5
 20
222.75
 30
0.0
 11
568.5
 21
219.75
 31
0.0
  0
LINE
  8
0
  6
CONTINUOUS
 62
     7
  5
D2
 10
566.5
 20
217.75
 30
0.0
 11
568.5
 21
219.75
 31
0.0
  0
LINE
  8
0
  6
CONTINUOUS
 62
     7
  5
D3
 10
568.5
 20
248.25
 30
0.0
 11
525.5
 21
248.25
 31
0.0
  0
LINE
  8
0
  6
CONTINUOUS
 62
     7
  5
D4
 10
525.5
 20
222.75
 30
0.0
 11
525.5
 21
219.75
 31
0.0
  0
LINE
  8
0
  6
CONTINUOUS
 62
     7
  5
D5
 10
564.4
 20
232.75
 30
0.0
 11
564.4
 21
235.25
 31
0.0
  0
LINE
  8
0
  6
CONTINUOUS
 62
     7
  5
D6
 10
568.5
 20
248.25
 30
0.0
 11
568.5
 21
235.25
 31
0.0
  0
ARC
  8
0
  6
CONTINUOUS
 62
     7
  5
D7
 10
549.5
 20
242.25
 30
0.0
 40
5.0
 50
0.0
 51
90.0
210
0.0
220
0.0
230
1.0
  0
LINE
  8
0
  6
CONTINUOUS
 62
     7
  5
D8
 10
525.5
 20
237.75
 30
0.0
 11
525.5
 21
235.25
 31
0.0
  0
LINE
  8
0
  6
CONTINUOUS
 62
     7
  5
D9
 10
568.5
 20
222.75
 30
0.0
 11
564.4
 21
222.75
 31
0.0
  0
LINE
  8
0
  6
CONTINUOUS
 62
     7
  5
DA
 10
525.5
 20
237.75
 30
0.0
 11
529.1
 21
237.75
 31
0.0
  0
LINE
  8
0
  6
CONTINUOUS
 62
     7
  5
DB
 10
529.6
 20
232.75
 30
0.0
 11
525.5
 21
232.75
 31
0.0
  0
LINE
  8
0
  6
CONTINUOUS
 62
     7
  5
DC
 10
554.5
 20
241.03365
 30
0.0
 11
554.5
 21
242.25
 31
0.0
  0
LINE
  8
0
  6
CONTINUOUS
 62
     7
  5
DD
 10
525.5
 20
227.75
 30
0.0
 11
525.5
 21
225.25
 31
0.0
  0
LINE
  8
0
  6
CONTINUOUS
 62
     7
  5
DE
 10
568.5
 20
227.75
 30
0.0
 11
568.5
 21
225.25
 31
0.0
  0
LINE
  8
0
  6
CONTINUOUS
 62
     7
  5
DF
 10
564.4
 20
235.25
 30
0.0
 11
568.5
 21
235.25
 31
0.0
  0
LINE
  8
0
  6
CONTINUOUS
 62
     7
  5
E0
 10
540.5
 20
241.797382
 30
0.0
 11
540.5
 21
245.25
 31
0.0
  0
ARC
  8
0
  6
CONTINUOUS
 62
     7
  5
E1
 10
547.0
 20
232.25
 30
0.0
 40
11.55
 50
124.247618
 51
130.492661
210
0.0
220
0.0
230
1.0
  0
LINE
  8
0
  6
CONTINUOUS
 62
     7
  5
E2
 10
553.5
 20
245.25
 30
0.0
 11
553.5
 21
241.797382
 31
0.0
  0
ARC
  8
0
  6
CONTINUOUS
 62
     7
  5
E3
 10
547.0
 20
232.25
 30
0.0
 40
11.55
 50
49.507339
 51
55.752382
210
0.0
220
0.0
230
1.0
  0
CIRCLE
  8
0
  6
CONTINUOUS
 62
     7
  5
E4
 10
547.0
 20
232.25
 30
0.0
 40
6.0
210
0.0
220
0.0
230
1.0
  0
ARC
  8
0
  6
CONTINUOUS
 62
     7
  5
E5
 10
527.60734
 20
225.75
 30
0.0
 40
8.0
 50
270.0
 51
340.0
210
0.0
220
0.0
230
1.0
  0
LINE
  8
0
  6
CONTINUOUS
 62
     7
  5
E6
 10
535.124881
 20
223.013839
 30
0.0
 11
539.446053
 21
234.886161
 31
0.0
  0
ARC
  8
0
  6
CONTINUOUS
 62
     7
  5
E7
 10
566.39266
 20
225.75
 30
0.0
 40
8.0
 50
200.0
 51
270.0
210
0.0
220
0.0
230
1.0
  0
LINE
  8
0
  6
CONTINUOUS
 62
     7
  5
E8
 10
520.5
 20
201.75
 30
0.0
 11
520.0
 21
200.376261
 31
0.0
  0
LINE
  8
0
  6
CONTINUOUS
 62
     7
  5
E9
 10
520.5
 20
217.75
 30
0.0
 11
520.5
 21
201.75
 31
0.0
  0
LINE
  8
0
  6
CONTINUOUS
 62
     7
  5
EA
 10
574.0
 20
191.75
 30
0.0
 11
574.0
 21
200.376261
 31
0.0
  0
LINE
  8
0
  6
CONTINUOUS
 62
     7
  5
EB
 10
574.0
 20
200.376261
 30
0.0
 11
573.5
 21
201.75
 31
0.0
  0
LINE
  8
0
  6
CONTINUOUS
 62
     7
  5
EC
 10
554.553947
 20
234.886161
 30
0.0
 11
558.875119
 21
223.013839
 31
0.0
  0
ARC
  8
0
  6
CONTINUOUS
 62
     7
  5
ED
 10
547.036406
 20
232.15
 30
0.0
 40
8.0
 50
20.0
 51
90.0
210
0.0
220
0.0
230
1.0
  0
LINE
  8
0
  6
CONTINUOUS
 62
     7
  5
EE
 10
546.963594
 20
240.15
 30
0.0
 11
547.036406
 21
240.15
 31
0.0
  0
ARC
  8
0
  6
CONTINUOUS
 62
     7
  5
EF
 10
546.963594
 20
232.15
 30
0.0
 40
8.0
 50
90.0
 51
160.0
210
0.0
220
0.0
230
1.0
  0
LINE
  8
0
  6
CONTINUOUS
 62
     7
  5
F0
 10
520.0
 20
200.376261
 30
0.0
 11
520.0
 21
191.75
 31
0.0
  0
LINE
  8
0
  6
CONTINUOUS
 62
     7
  5
F1
 10
573.5
 20
201.75
 30
0.0
 11
573.5
 21
217.75
 31
0.0
  0
LINE
  8
0
  6
CONTINUOUS
 62
     7
  5
F2
 10
527.60734
 20
217.75
 30
0.0
 11
520.5
 21
217.75
 31
0.0
  0
LINE
  8
0
  6
CONTINUOUS
 62
     7
  5
F3
 10
573.5
 20
217.75
 30
0.0
 11
566.39266
 21
217.75
 31
0.0
  0
LINE
  8
0
  6
CONTINUOUS
 62
     7
  5
F4
 10
520.0
 20
191.75
 30
0.0
 11
574.0
 21
191.75
 31
0.0
  0
LINE
  8
0
  6
CONTINUOUS
 62
     7
  5
F5
 10
548.5
 20
233.116025
 30
0.0
 11
547.0
 21
233.982051
 31
0.0
  0
LINE
  8
0
  6
CONTINUOUS
 62
     7
  5
F6
 10
545.5
 20
233.116025
 30
0.0
 11
545.5
 21
231.383975
 31
0.0
  0
CIRCLE
  8
0
  6
CONTINUOUS
 62
     7
  5
F7
 10
547.0
 20
232.25
 30
0.0
 40
2.25
210
0.0
220
0.0
230
1.0
  0
LINE
  8
0
  6
CONTINUOUS
 62
     7
  5
F8
 10
548.5
 20
231.383975
 30
0.0
 11
548.5
 21
233.116025
 31
0.0
  0
LINE
  8
0
  6
CONTINUOUS
 62
     7
  5
F9
 10
547.0
 20
233.982051
 30
0.0
 11
545.5
 21
233.116025
 31
0.0
  0
LINE
  8
0
  6
CONTINUOUS
 62
     7
  5
FA
 10
545.5
 20
231.383975
 30
0.0
 11
547.0
 21
230.517949
 31
0.0
  0
LINE
  8
0
  6
CONTINUOUS
 62
     7
  5
FB
 10
547.0
 20
230.517949
 30
0.0
 11
548.5
 21
231.383975
 31
0.0
  0
CIRCLE
  8
0
  6
CONTINUOUS
 62
     7
  5
FC
 10
547.0
 20
232.25
 30
0.0
 40
4.75
210
0.0
220
0.0
230
1.0
  0
CIRCLE
  8
0
  6
CONTINUOUS
 62
     7
  5
FD
 10
547.0
 20
232.25
 30
0.0
 40
5.25
210
0.0
220
0.0
230
1.0
  0
ENDBLK
  8
0
  5
FE
  0
BLOCK
  8
0
  5
101
  2
AID613
 70
     0
 10
0.0
 20
0.0
 30
0.0
  3
#auxiliary draft view
  0
CIRCLE
  8
0
  6
CONTINUOUS
 62
     7
  5
102
 10
266.0
 20
104.0
 30
0.0
 40
2.5
210
0.0
220
0.0
230
1.0
  0
CIRCLE
  8
0
  6
CONTINUOUS
 62
     7
  5
103
 10
226.0
 20
104.0
 30
0.0
 40
2.5
210
0.0
220
0.0
230
1.0
  0
CIRCLE
  8
0
  6
CONTINUOUS
 62
     7
  5
104
 10
266.0
 20
74.0
 30
0.0
 40
2.5
210
0.0
220
0.0
230
1.0
  0
CIRCLE
  8
0
  6
CONTINUOUS
 62
     7
  5
105
 10
226.0
 20
74.0
 30
0.0
 40
2.5
210
0.0
220
0.0
230
1.0
  0
LINE
  8
0
  6
CONTINUOUS
 62
     7
  5
106
 10
273.0
 20
95.5
 30
0.0
 11
219.0
 21
95.5
 31
0.0
  0
LINE
  8
0
  6
CONTINUOUS
 62
     7
  5
107
 10
219.0
 20
82.5
 30
0.0
 11
273.0
 21
82.5
 31
0.0
  0
ARC
  8
0
  6
CONTINUOUS
 62
     7
  5
108
 10
273.0
 20
89.5
 30
0.0
 40
6.0
 50
0.0
 51
90.0
210
0.0
220
0.0
230
1.0
  0
LINE
  8
0
  6
CONTINUOUS
 62
     7
  5
109
 10
286.0
 20
67.5
 30
0.0
 11
206.0
 21
67.5
 31
0.0
  0
LINE
  8
0
  6
CONTINUOUS
 62
     7
  5
10A
 10
279.0
 20
88.5
 30
0.0
 11
279.0
 21
89.5
 31
0.0
  0
ARC
  8
0
  6
CONTINUOUS
 62
     7
  5
10B
 10
219.0
 20
88.5
 30
0.0
 40
6.0
 50
180.0
 51
270.0
210
0.0
220
0.0
230
1.0
  0
LINE
  8
0
  6
CONTINUOUS
 62
     7
  5
10C
 10
206.0
 20
110.5
 30
0.0
 11
286.0
 21
110.5
 31
0.0
  0
LINE
  8
0
  6
CONTINUOUS
 62
     7
  5
10D
 10
286.0
 20
110.5
 30
0.0
 11
286.0
 21
67.5
 31
0.0
  0
LINE
  8
0
  6
CONTINUOUS
 62
     7
  5
10E
 10
206.0
 20
67.5
 30
0.0
 11
206.0
 21
110.5
 31
0.0
  0
ARC
  8
0
  6
CONTINUOUS
 62
     7
  5
10F
 10
273.0
 20
88.5
 30
0.0
 40
6.0
 50
270.0
 51
360.0
210
0.0
220
0.0
230
1.0
  0
LINE
  8
0
  6
CONTINUOUS
 62
     7
  5
110
 10
213.0
 20
89.5
 30
0.0
 11
213.0
 21
88.5
 31
0.0
  0
ARC
  8
0
  6
CONTINUOUS
 62
     7
  5
111
 10
219.0
 20
89.5
 30
0.0
 40
6.0
 50
90.0
 51
180.0
210
0.0
220
0.0
230
1.0
  0
CIRCLE
  8
0
  6
CONTINUOUS
 62
     7
  5
112
 10
266.0
 20
104.0
 30
0.0
 40
2.067
210
0.0
220
0.0
230
1.0
  0
CIRCLE
  8
0
  6
CONTINUOUS
 62
     7
  5
113
 10
226.0
 20
74.0
 30
0.0
 40
2.067
210
0.0
220
0.0
230
1.0
  0
CIRCLE
  8
0
  6
CONTINUOUS
 62
     7
  5
114
 10
266.0
 20
74.0
 30
0.0
 40
2.067
210
0.0
220
0.0
230
1.0
  0
CIRCLE
  8
0
  6
CONTINUOUS
 62
     7
  5
115
 10
226.0
 20
104.0
 30
0.0
 40
2.067
210
0.0
220
0.0
230
1.0
  0
LINE
  8
0
  6
CONTINUOUS
 62
     7
  5
116
 10
323.0
 20
106.0
 30
0.0
 11
286.0
 21
106.0
 31
0.0
  0
LINE
  8
0
  6
CONTINUOUS
 62
     7
  5
117
 10
323.0
 20
72.0
 30
0.0
 11
323.0
 21
106.0
 31
0.0
  0
LINE
  8
0
  6
CONTINUOUS
 62
     7
  5
118
 10
286.0
 20
72.0
 30
0.0
 11
323.0
 21
72.0
 31
0.0
  0
LINE
  8
0
  6
CONTINUOUS
 62
     7
  5
119
 10
202.5
 20
102.5
 30
0.0
 11
202.5
 21
94.25
 31
0.0
  0
LINE
  8
0
  6
CONTINUOUS
 62
     7
  5
11A
 10
202.5
 20
83.75
 30
0.0
 11
202.5
 21
75.5
 31
0.0
  0
LINE
  8
0
  6
CONTINUOUS
 62
     7
  5
11B
 10
202.5
 20
75.5
 30
0.0
 11
206.0
 21
72.0
 31
0.0
  0
LINE
  8
0
  6
CONTINUOUS
 62
     7
  5
11C
 10
206.0
 20
106.0
 30
0.0
 11
202.5
 21
102.5
 31
0.0
  0
LINE
  8
0
  6
CONTINUOUS
 62
     7
  5
11D
 10
323.0
 20
72.0
 30
0.0
 11
326.5
 21
75.5
 31
0.0
  0
LINE
  8
0
  6
CONTINUOUS
 62
     7
  5
11E
 10
326.5
 20
102.5
 30
0.0
 11
326.5
 21
75.5
 31
0.0
  0
LINE
  8
0
  6
CONTINUOUS
 62
     7
  5
11F
 10
326.5
 20
102.5
 30
0.0
 11
323.0
 21
106.0
 31
0.0
  0
LINE
  8
0
  6
CONTINUOUS
 62
     7
  5
120
 10
328.75
 20
86.719466
 30
0.0
 11
328.75
 21
84.438933
 31
0.0
  0
LINE
  8
0
  6
CONTINUOUS
 62
     7
  5
121
 10
326.5
 20
84.438933
 30
0.0
 11
328.75
 21
84.438933
 31
0.0
  0
LINE
  8
0
  6
CONTINUOUS
 62
     7
  5
122
 10
326.5
 20
86.719466
 30
0.0
 11
328.75
 21
86.719466
 31
0.0
  0
LINE
  8
0
  6
CONTINUOUS
 62
     7
  5
123
 10
328.75
 20
91.280534
 30
0.0
 11
328.75
 21
86.719466
 31
0.0
  0
LINE
  8
0
  6
CONTINUOUS
 62
     7
  5
124
 10
326.5
 20
91.280534
 30
0.0
 11
328.75
 21
91.280534
 31
0.0
  0
LINE
  8
0
  6
CONTINUOUS
 62
     7
  5
125
 10
326.5
 20
93.561067
 30
0.0
 11
328.75
 21
93.561067
 31
0.0
  0
LINE
  8
0
  6
CONTINUOUS
 62
     7
  5
126
 10
328.75
 20
93.561067
 30
0.0
 11
328.75
 21
91.280534
 31
0.0
  0
LINE
  8
0
  6
CONTINUOUS
 62
     7
  5
127
 10
197.0
 20
88.963594
 30
0.0
 11
197.0
 21
81.446053
 31
0.0
  0
LINE
  8
0
  6
CONTINUOUS
 62
     7
  5
128
 10
187.0
 20
88.963594
 30
0.0
 11
187.0
 21
81.446053
 31
0.0
  0
LINE
  8
0
  6
CONTINUOUS
 62
     7
  5
129
 10
197.0
 20
89.036406
 30
0.0
 11
197.0
 21
88.963594
 31
0.0
  0
LINE
  8
0
  6
CONTINUOUS
 62
     7
  5
12A
 10
187.0
 20
89.036406
 30
0.0
 11
187.0
 21
88.963594
 31
0.0
  0
LINE
  8
0
  6
CONTINUOUS
 62
     7
  5
12B
 10
187.0
 20
96.553947
 30
0.0
 11
187.0
 21
89.036406
 31
0.0
  0
LINE
  8
0
  6
CONTINUOUS
 62
     7
  5
12C
 10
197.0
 20
96.553947
 30
0.0
 11
197.0
 21
89.036406
 31
0.0
  0
LINE
  8
0
  6
CONTINUOUS
 62
     7
  5
12D
 10
187.0
 20
100.875119
 30
0.0
 11
187.0
 21
96.553947
 31
0.0
  0
LINE
  8
0
  6
CONTINUOUS
 62
     7
  5
12E
 10
197.0
 20
100.875119
 30
0.0
 11
197.0
 21
96.553947
 31
0.0
  0
LINE
  8
0
  6
CONTINUOUS
 62
     7
  5
12F
 10
187.0
 20
81.446053
 30
0.0
 11
187.0
 21
77.124881
 31
0.0
  0
LINE
  8
0
  6
CONTINUOUS
 62
     7
  5
130
 10
197.0
 20
81.446053
 30
0.0
 11
197.0
 21
77.124881
 31
0.0
  0
LINE
  8
0
  6
CONTINUOUS
 62
     7
  5
131
 10
215.3
 20
86.7
 30
0.0
 11
215.3
 21
91.3
 31
0.0
  0
LINE
  8
0
  6
CONTINUOUS
 62
     7
  5
132
 10
215.1
 20
86.5
 30
0.0
 11
215.1
 21
91.5
 31
0.0
  0
LINE
  8
0
  6
CONTINUOUS
 62
     7
  5
133
 10
187.0
 20
100.875119
 30
0.0
 11
187.0
 21
108.39266
 31
0.0
  0
LINE
  8
0
  6
CONTINUOUS
 62
     7
  5
134
 10
197.0
 20
100.875119
 30
0.0
 11
197.0
 21
108.39266
 31
0.0
  0
LINE
  8
0
  6
CONTINUOUS
 62
     7
  5
135
 10
187.0
 20
69.60734
 30
0.0
 11
187.0
 21
77.124881
 31
0.0
  0
LINE
  8
0
  6
CONTINUOUS
 62
     7
  5
136
 10
197.0
 20
69.60734
 30
0.0
 11
197.0
 21
77.124881
 31
0.0
  0
LINE
  8
0
  6
CONTINUOUS
 62
     7
  5
137
 10
197.0
 20
62.5
 30
0.0
 11
187.0
 21
62.5
 31
0.0
  0
LINE
  8
0
  6
CONTINUOUS
 62
     7
  5
138
 10
187.0
 20
62.5
 30
0.0
 11
187.0
 21
69.60734
 31
0.0
  0
LINE
  8
0
  6
CONTINUOUS
 62
     7
  5
139
 10
197.0
 20
69.60734
 30
0.0
 11
197.0
 21
62.5
 31
0.0
  0
LINE
  8
0
  6
CONTINUOUS
 62
     7
  5
13A
 10
437.0
 20
115.5
 30
0.0
 11
447.0
 21
115.5
 31
0.0
  0
LINE
  8
0
  6
CONTINUOUS
 62
     7
  5
13B
 10
447.0
 20
62.5
 30
0.0
 11
437.0
 21
62.5
 31
0.0
  0
LINE
  8
0
  6
CONTINUOUS
 62
     7
  5
13C
 10
447.0
 20
115.5
 30
0.0
 11
447.0
 21
62.5
 31
0.0
  0
LINE
  8
0
  6
CONTINUOUS
 62
     7
  5
13D
 10
437.0
 20
62.5
 30
0.0
 11
437.0
 21
115.5
 31
0.0
  0
LINE
  8
0
  6
CONTINUOUS
 62
     7
  5
13E
 10
187.0
 20
115.5
 30
0.0
 11
197.0
 21
115.5
 31
0.0
  0
LINE
  8
0
  6
CONTINUOUS
 62
     7
  5
13F
 10
187.0
 20
108.39266
 30
0.0
 11
187.0
 21
115.5
 31
0.0
  0
LINE
  8
0
  6
CONTINUOUS
 62
     7
  5
140
 10
197.0
 20
115.5
 30
0.0
 11
197.0
 21
108.39266
 31
0.0
  0
LINE
  8
0
  6
CONTINUOUS
 62
     7
  5
141
 10
432.0
 20
85.0
 30
0.0
 11
432.0
 21
93.0
 31
0.0
  0
CIRCLE
  8
0
  6
CONTINUOUS
 62
     7
  5
142
 10
352.0
 20
67.0
 30
0.0
 40
2.6
210
0.0
220
0.0
230
1.0
  0
CIRCLE
  8
0
  6
CONTINUOUS
 62
     7
  5
143
 10
422.0
 20
67.0
 30
0.0
 40
2.6
210
0.0
220
0.0
230
1.0
  0
ARC
  8
0
  6
CONTINUOUS
 62
     7
  5
144
 10
282.0
 20
67.0
 30
0.0
 40
2.6
 50
168.912511
 51
360.0
210
0.0
220
0.0
230
1.0
  0
ARC
  8
0
  6
CONTINUOUS
 62
     7
  5
145
 10
282.0
 20
67.0
 30
0.0
 40
2.6
 50
360.0
 51
11.087489
210
0.0
220
0.0
230
1.0
  0
ARC
  8
0
  6
CONTINUOUS
 62
     7
  5
146
 10
212.0
 20
67.0
 30
0.0
 40
2.6
 50
168.912511
 51
360.0
210
0.0
220
0.0
230
1.0
  0
ARC
  8
0
  6
CONTINUOUS
 62
     7
  5
147
 10
212.0
 20
67.0
 30
0.0
 40
2.6
 50
360.0
 51
11.087489
210
0.0
220
0.0
230
1.0
  0
LINE
  8
0
  6
CONTINUOUS
 62
     7
  5
148
 10
197.0
 20
73.7
 30
0.0
 11
204.3
 21
73.7
 31
0.0
  0
LINE
  8
0
  6
CONTINUOUS
 62
     7
  5
149
 10
324.7
 20
73.7
 30
0.0
 11
437.0
 21
73.7
 31
0.0
  0
LINE
  8
0
  6
CONTINUOUS
 62
     7
  5
14A
 10
197.0
 20
62.5
 30
0.0
 11
437.0
 21
62.5
 31
0.0
  0
ARC
  8
0
  6
CONTINUOUS
 62
     7
  5
14B
 10
282.0
 20
111.0
 30
0.0
 40
2.6
 50
348.912511
 51
360.0
210
0.0
220
0.0
230
1.0
  0
ARC
  8
0
  6
CONTINUOUS
 62
     7
  5
14C
 10
282.0
 20
111.0
 30
0.0
 40
2.6
 50
360.0
 51
191.087489
210
0.0
220
0.0
230
1.0
  0
ARC
  8
0
  6
CONTINUOUS
 62
     7
  5
14D
 10
212.0
 20
111.0
 30
0.0
 40
2.6
 50
348.912511
 51
360.0
210
0.0
220
0.0
230
1.0
  0
ARC
  8
0
  6
CONTINUOUS
 62
     7
  5
14E
 10
212.0
 20
111.0
 30
0.0
 40
2.6
 50
360.0
 51
191.087489
210
0.0
220
0.0
230
1.0
  0
LINE
  8
0
  6
CONTINUOUS
 62
     7
  5
14F
 10
197.0
 20
104.3
 30
0.0
 11
204.3
 21
104.3
 31
0.0
  0
LINE
  8
0
  6
CONTINUOUS
 62
     7
  5
150
 10
324.7
 20
104.3
 30
0.0
 11
437.0
 21
104.3
 31
0.0
  0
CIRCLE
  8
0
  6
CONTINUOUS
 62
     7
  5
151
 10
352.0
 20
111.0
 30
0.0
 40
2.6
210
0.0
220
0.0
230
1.0
  0
CIRCLE
  8
0
  6
CONTINUOUS
 62
     7
  5
152
 10
422.0
 20
111.0
 30
0.0
 40
2.6
210
0.0
220
0.0
230
1.0
  0
LINE
  8
0
  6
CONTINUOUS
 62
     7
  5
153
 10
197.0
 20
115.5
 30
0.0
 11
437.0
 21
115.5
 31
0.0
  0
LINE
  8
0
  6
CONTINUOUS
 62
     7
  5
154
 10
187.0
 20
62.0
 30
0.0
 11
447.0
 21
62.0
 31
0.0
  0
LINE
  8
0
  6
CONTINUOUS
 62
     7
  5
155
 10
447.0
 20
62.0
 30
0.0
 11
447.0
 21
62.5
 31
0.0
  0
LINE
  8
0
  6
CONTINUOUS
 62
     7
  5
156
 10
187.0
 20
62.0
 30
0.0
 11
187.0
 21
62.5
 31
0.0
  0
LINE
  8
0
  6
CONTINUOUS
 62
     7
  5
157
 10
187.0
 20
116.0
 30
0.0
 11
447.0
 21
116.0
 31
0.0
  0
LINE
  8
0
  6
CONTINUOUS
 62
     7
  5
158
 10
447.0
 20
115.5
 30
0.0
 11
447.0
 21
116.0
 31
0.0
  0
LINE
  8
0
  6
CONTINUOUS
 62
     7
  5
159
 10
187.0
 20
115.5
 30
0.0
 11
187.0
 21
116.0
 31
0.0
  0
LINE
  8
0
  6
CONTINUOUS
 62
     7
  5
15A
 10
206.0
 20
94.25
 30
0.0
 11
197.0
 21
94.25
 31
0.0
  0
LINE
  8
0
  6
CONTINUOUS
 62
     7
  5
15B
 10
197.0
 20
83.75
 30
0.0
 11
206.0
 21
83.75
 31
0.0
  0
LINE
  8
0
  6
CONTINUOUS
 62
     7
  5
15C
 10
215.1
 20
86.5
 30
0.0
 11
215.3
 21
86.7
 31
0.0
  0
LINE
  8
0
  6
CONTINUOUS
 62
     7
  5
15D
 10
215.3
 20
91.3
 30
0.0
 11
215.1
 21
91.5
 31
0.0
  0
LINE
  8
0
  6
CONTINUOUS
 62
     7
  5
15E
 10
215.1
 20
91.5
 30
0.0
 11
213.343146
 21
91.5
 31
0.0
  0
LINE
  8
0
  6
CONTINUOUS
 62
     7
  5
15F
 10
213.343146
 20
86.5
 30
0.0
 11
215.1
 21
86.5
 31
0.0
  0
LINE
  8
0
  6
CONTINUOUS
 62
     7
  5
160
 10
432.0
 20
85.0
 30
0.0
 11
437.0
 21
85.0
 31
0.0
  0
LINE
  8
0
  6
CONTINUOUS
 62
     7
  5
161
 10
437.0
 20
93.0
 30
0.0
 11
432.0
 21
93.0
 31
0.0
  0
LINE
  8
0
  6
CONTINUOUS
 62
     7
  5
162
 10
437.0
 20
76.6
 30
0.0
 11
326.5
 21
76.6
 31
0.0
  0
LINE
  8
0
  6
CONTINUOUS
 62
     7
  5
163
 10
202.5
 20
76.6
 30
0.0
 11
197.0
 21
76.6
 31
0.0
  0
LINE
  8
0
  6
CONTINUOUS
 62
     7
  5
164
 10
197.0
 20
101.4
 30
0.0
 11
202.5
 21
101.4
 31
0.0
  0
LINE
  8
0
  6
CONTINUOUS
 62
     7
  5
165
 10
326.5
 20
101.4
 30
0.0
 11
437.0
 21
101.4
 31
0.0
  0
ENDBLK
  8
0
  5
166
  0
BLOCK
  8
0
  5
169
  2
AID823
 70
     0
 10
0.0
 20
0.0
 30
0.0
  3
#auxiliary draft view
  0
CIRCLE
  8
0
  6
CONTINUOUS
 62
     7
  5
16A
 10
352.0
 20
381.0
 30
0.0
 40
2.6
210
0.0
220
0.0
230
1.0
  0
CIRCLE
  8
0
  6
CONTINUOUS
 62
     7
  5
16B
 10
422.0
 20
381.0
 30
0.0
 40
2.6
210
0.0
220
0.0
230
1.0
  0
CIRCLE
  8
0
  6
CONTINUOUS
 62
     7
  5
16C
 10
282.0
 20
381.0
 30
0.0
 40
2.6
210
0.0
220
0.0
230
1.0
  0
CIRCLE
  8
0
  6
CONTINUOUS
 62
     7
  5
16D
 10
212.0
 20
381.0
 30
0.0
 40
2.6
210
0.0
220
0.0
230
1.0
  0
CIRCLE
  8
0
  6
CONTINUOUS
 62
     7
  5
16E
 10
352.0
 20
337.0
 30
0.0
 40
2.6
210
0.0
220
0.0
230
1.0
  0
CIRCLE
  8
0
  6
CONTINUOUS
 62
     7
  5
16F
 10
422.0
 20
337.0
 30
0.0
 40
2.6
210
0.0
220
0.0
230
1.0
  0
CIRCLE
  8
0
  6
CONTINUOUS
 62
     7
  5
170
 10
282.0
 20
337.0
 30
0.0
 40
2.6
210
0.0
220
0.0
230
1.0
  0
CIRCLE
  8
0
  6
CONTINUOUS
 62
     7
  5
171
 10
212.0
 20
337.0
 30
0.0
 40
2.6
210
0.0
220
0.0
230
1.0
  0
LINE
  8
0
  6
CONTINUOUS
 62
     7
  5
172
 10
187.0
 20
332.0
 30
0.0
 11
447.0
 21
332.0
 31
0.0
  0
LINE
  8
0
  6
CONTINUOUS
 62
     7
  5
173
 10
187.0
 20
332.0
 30
0.0
 11
187.0
 21
386.0
 31
0.0
  0
LINE
  8
0
  6
CONTINUOUS
 62
     7
  5
174
 10
187.0
 20
386.0
 30
0.0
 11
447.0
 21
386.0
 31
0.0
  0
LINE
  8
0
  6
CONTINUOUS
 62
     7
  5
175
 10
447.0
 20
332.0
 30
0.0
 11
447.0
 21
386.0
 31
0.0
  0
ENDBLK
  8
0
  5
176
  0
ENDSEC
  0
SECTION
  2
ENTITIES
  0
INSERT
  8
0
  5
71
  2
AID145
 10
0.0
 20
0.0
 30
0.0
  0
INSERT
  8
0
  5
B5
  2
AID281
 10
0.0
 20
0.0
 30
0.0
  0
INSERT
  8
0
  5
FF
  2
AID441
 10
0.0
 20
0.0
 30
0.0
  0
INSERT
  8
0
  5
167
  2
AID613
 10
0.0
 20
0.0
 30
0.0
  0
INSERT
  8
0
  5
177
  2
AID823
 10
0.0
 20
0.0
 30
0.0
  0
LINE
  8
0
  6
CENTER
 62
     1
  5
179
 10
206.4
 20
337.0
 30
0.0
 11
217.6
 21
337.0
 31
0.0
  0
LINE
  8
0
  6
CENTER
 62
     1
  5
17A
 10
212.0
 20
331.4
 30
0.0
 11
212.0
 21
342.6
 31
0.0
  0
LINE
  8
0
  6
CENTER
 62
     1
  5
17B
 10
206.4
 20
381.0
 30
0.0
 11
217.6
 21
381.0
 31
0.0
  0
LINE
  8
0
  6
CENTER
 62
     1
  5
17C
 10
212.0
 20
375.4
 30
0.0
 11
212.0
 21
386.6
 31
0.0
  0
LINE
  8
0
  6
CENTER
 62
     1
  5
17D
 10
276.4
 20
337.0
 30
0.0
 11
287.6
 21
337.0
 31
0.0
  0
LINE
  8
0
  6
CENTER
 62
     1
  5
17E
 10
282.0
 20
331.4
 30
0.0
 11
282.0
 21
342.6
 31
0.0
  0
LINE
  8
0
  6
CENTER
 62
     1
  5
17F
 10
276.4
 20
381.0
 30
0.0
 11
287.6
 21
381.0
 31
0.0
  0
LINE
  8
0
  6
CENTER
 62
     1
  5
180
 10
282.0
 20
375.4
 30
0.0
 11
282.0
 21
386.6
 31
0.0
  0
LINE
  8
0
  6
CENTER
 62
     1
  5
181
 10
346.4
 20
337.0
 30
0.0
 11
357.6
 21
337.0
 31
0.0
  0
LINE
  8
0
  6
CENTER
 62
     1
  5
182
 10
352.0
 20
331.4
 30
0.0
 11
352.0
 21
342.6
 31
0.0
  0
LINE
  8
0
  6
CENTER
 62
     1
  5
183
 10
346.4
 20
381.0
 30
0.0
 11
357.6
 21
381.0
 31
0.0
  0
LINE
  8
0
  6
CENTER
 62
     1
  5
184
 10
352.0
 20
375.4
 30
0.0
 11
352.0
 21
386.6
 31
0.0
  0
LINE
  8
0
  6
CENTER
 62
     1
  5
185
 10
416.4
 20
337.0
 30
0.0
 11
427.6
 21
337.0
 31
0.0
  0
LINE
  8
0
  6
CENTER
 62
     1
  5
186
 10
422.0
 20
331.4
 30
0.0
 11
422.0
 21
342.6
 31
0.0
  0
LINE
  8
0
  6
CENTER
 62
     1
  5
187
 10
416.4
 20
381.0
 30
0.0
 11
427.6
 21
381.0
 31
0.0
  0
LINE
  8
0
  6
CENTER
 62
     1
  5
188
 10
422.0
 20
375.4
 30
0.0
 11
422.0
 21
386.6
 31
0.0
  0
LINE
  8
0
  6
CENTER
 62
     1
  5
189
 10
77.45
 20
232.25
 30
0.0
 11
106.55
 21
232.25
 31
0.0
  0
LINE
  8
0
  6
CENTER
 62
     1
  5
18A
 10
92.0
 20
217.7
 30
0.0
 11
92.0
 21
246.8
 31
0.0
  0
LINE
  8
0
  6
CENTER
 62
     1
  5
18B
 10
192.8
 20
232.25
 30
0.0
 11
212.0
 21
232.25
 31
0.0
  0
LINE
  8
0
  6
CENTER
 62
     1
  5
18C
 10
538.0
 20
232.25
 30
0.0
 11
556.0
 21
232.25
 31
0.0
  0
LINE
  8
0
  6
CENTER
 62
     1
  5
18D
 10
547.0
 20
223.25
 30
0.0
 11
547.0
 21
241.25
 31
0.0
  0
LINE
  8
0
  6
CENTER
 62
     1
  5
18E
 10
440.0
 20
89.0
 30
0.0
 11
429.0
 21
89.0
 31
0.0
  0
LINE
  8
0
  6
CENTER
 62
     1
  5
18F
 10
220.5
 20
74.0
 30
0.0
 11
231.5
 21
74.0
 31
0.0
  0
LINE
  8
0
  6
CENTER
 62
     1
  5
190
 10
226.0
 20
68.5
 30
0.0
 11
226.0
 21
79.5
 31
0.0
  0
LINE
  8
0
  6
CENTER
 62
     1
  5
191
 10
220.5
 20
104.0
 30
0.0
 11
231.5
 21
104.0
 31
0.0
  0
LINE
  8
0
  6
CENTER
 62
     1
  5
192
 10
226.0
 20
98.5
 30
0.0
 11
226.0
 21
109.5
 31
0.0
  0
LINE
  8
0
  6
CENTER
 62
     1
  5
193
 10
260.5
 20
74.0
 30
0.0
 11
271.5
 21
74.0
 31
0.0
  0
LINE
  8
0
  6
CENTER
 62
     1
  5
194
 10
266.0
 20
68.5
 30
0.0
 11
266.0
 21
79.5
 31
0.0
  0
LINE
  8
0
  6
CENTER
 62
     1
  5
195
 10
260.5
 20
104.0
 30
0.0
 11
271.5
 21
104.0
 31
0.0
  0
LINE
  8
0
  6
CENTER
 62
     1
  5
196
 10
266.0
 20
98.5
 30
0.0
 11
266.0
 21
109.5
 31
0.0
  0
LINE
  8
0
  6
CENTER
 62
     1
  5
197
 10
346.4
 20
67.0
 30
0.0
 11
357.6
 21
67.0
 31
0.0
  0
LINE
  8
0
  6
CENTER
 62
     1
  5
198
 10
352.0
 20
61.4
 30
0.0
 11
352.0
 21
72.6
 31
0.0
  0
LINE
  8
0
  6
CENTER
 62
     1
  5
199
 10
346.4
 20
111.0
 30
0.0
 11
357.6
 21
111.0
 31
0.0
  0
LINE
  8
0
  6
CENTER
 62
     1
  5
19A
 10
352.0
 20
105.4
 30
0.0
 11
352.0
 21
116.6
 31
0.0
  0
LINE
  8
0
  6
CENTER
 62
     1
  5
19B
 10
416.4
 20
67.0
 30
0.0
 11
427.6
 21
67.0
 31
0.0
  0
LINE
  8
0
  6
CENTER
 62
     1
  5
19C
 10
422.0
 20
61.4
 30
0.0
 11
422.0
 21
72.6
 31
0.0
  0
LINE
  8
0
  6
CENTER
 62
     1
  5
19D
 10
416.4
 20
111.0
 30
0.0
 11
427.6
 21
111.0
 31
0.0
  0
LINE
  8
0
  6
CENTER
 62
     1
  5
19E
 10
422.0
 20
105.4
 30
0.0
 11
422.0
 21
116.6
 31
0.0
  0
LINE
  8
0
  6
CENTER
 62
     1
  5
19F
 10
187.3
 20
89.0
 30
0.0
 11
218.3
 21
89.0
 31
0.0
  0
LINE
  8
0
  6
CENTER
 62
     1
  5
1A0
 10
206.4
 20
111.0
 30
0.0
 11
217.6
 21
111.0
 31
0.0
  0
LINE
  8
0
  6
CENTER
 62
     1
  5
1A1
 10
212.0
 20
105.4
 30
0.0
 11
212.0
 21
116.6
 31
0.0
  0
LINE
  8
0
  6
CENTER
 62
     1
  5
1A2
 10
276.4
 20
111.0
 30
0.0
 11
287.6
 21
111.0
 31
0.0
  0
LINE
  8
0
  6
CENTER
 62
     1
  5
1A3
 10
282.0
 20
105.4
 30
0.0
 11
282.0
 21
116.6
 31
0.0
  0
LINE
  8
0
  6
CENTER
 62
     1
  5
1A4
 10
276.4
 20
67.0
 30
0.0
 11
287.6
 21
67.0
 31
0.0
  0
LINE
  8
0
  6
CENTER
 62
     1
  5
1A5
 10
282.0
 20
61.4
 30
0.0
 11
282.0
 21
72.6
 31
0.0
  0
LINE
  8
0
  6
CENTER
 62
     1
  5
1A6
 10
206.4
 20
67.0
 30
0.0
 11
217.6
 21
67.0
 31
0.0
  0
LINE
  8
0
  6
CENTER
 62
     1
  5
1A7
 10
212.0
 20
61.4
 30
0.0
 11
212.0
 21
72.6
 31
0.0
  0
ENDSEC
  0
EOF
