  0
SECTION
  2
HEADER
  9
$ACADVER
  1
AC1009
  9
$DWGCODEPAGE
  3
ansi_1252
  9
$INSBASE
 10
0.0
 20
0.0
 30
0.0
  9
$EXTMIN
 10
0.0
 20
-0.007326
 30
0.0
  9
$EXTMAX
 10
311.148813
 20
317.681468
 30
5.0
  9
$LIMMIN
 10
0.0
 20
-0.007326
  9
$LIMMAX
 10
311.148813
 20
317.681468
  9
$ORTHOMODE
 70
     0
  9
$REGENMODE
 70
     1
  9
$FILLMODE
 70
     1
  9
$QTEXTMODE
 70
     0
  9
$MIRRTEXT
 70
     1
  9
$DRAGMODE
 70
     2
  9
$LTSCALE
 40
10.0
  9
$OSMODE
 70
     0
  9
$ATTMODE
 70
     1
  9
$TEXTSIZE
 40
0.2
  9
$TRACEWID
 40
0.05
  9
$TEXTSTYLE
  7
STANDARD
  9
$CLAYER
  8
0
  9
$CELTYPE
  6
CONTINUOUS
  9
$CECOLOR
 62
   256
  9
$DIMSCALE
 40
1.0
  9
$DIMASZ
 40
1.25
  9
$DIMEXO
 40
1.0
  9
$DIMDLI
 40
0.38
  9
$DIMRND
 40
0.0
  9
$DIMDLE
 40
0.0
  9
$DIMEXE
 40
0.75
  9
$DIMTP
 40
0.0
  9
$DIMTM
 40
0.0
  9
$DIMTXT
 40
2.5
  9
$DIMCEN
 40
0.09
  9
$DIMTSZ
 40
0.0
  9
$DIMTOL
 70
     0
  9
$DIMLIM
 70
     0
  9
$DIMTIH
 70
     0
  9
$DIMTOH
 70
     0
  9
$DIMSE1
 70
     0
  9
$DIMSE2
 70
     0
  9
$DIMTAD
 70
     1
  9
$DIMZIN
 70
     0
  9
$DIMBLK
  1

  9
$DIMASO
 70
     1
  9
$DIMSHO
 70
     1
  9
$DIMPOST
  1

  9
$DIMAPOST
  1

  9
$DIMALT
 70
     0
  9
$DIMALTD
 70
     2
  9
$DIMALTF
 40
25.4
  9
$DIMLFAC
 40
1.0
  9
$DIMTOFL
 70
     0
  9
$DIMTVP
 40
0.0
  9
$DIMTIX
 70
     0
  9
$DIMSOXD
 70
     0
  9
$DIMSAH
 70
     0
  9
$DIMBLK1
  1

  9
$DIMBLK2
  1

  9
$DIMSTYLE
  2
STANDARD
  9
$DIMCLRD
 70
     7
  9
$DIMCLRE
 70
     7
  9
$DIMCLRT
 70
     7
  9
$DIMTFAC
 40
0.8
  9
$DIMGAP
 40
1.25
  9
$LUNITS
 70
     2
  9
$LUPREC
 70
     4
  9
$AXISMODE
 70
     0
  9
$AXISUNIT
 10
0.0
 20
0.0
  9
$SKETCHINC
 40
0.1
  9
$FILLETRAD
 40
0.0
  9
$AUNITS
 70
     0
  9
$AUPREC
 70
     0
  9
$MENU
  1
acad
  9
$ELEVATION
 40
0.0
  9
$PELEVATION
 40
0.0
  9
$THICKNESS
 40
0.0
  9
$LIMCHECK
 70
     0
  9
$BLIPMODE
 70
     1
  9
$CHAMFERA
 40
0.0
  9
$CHAMFERB
 40
0.0
  9
$SKPOLY
 70
     0
  9
$TDCREATE
 40
2454335.448298611
  9
$TDUPDATE
 40
2454335.364699074
  9
$TDINDWG
 40
0.0000000000
  9
$TDUSRTIMER
 40
0.0000000000
  9
$USRTIMER
 70
     1
  9
$ANGBASE
 50
0.0
  9
$ANGDIR
 70
     0
  9
$PDMODE
 70
     0
  9
$PDSIZE
 40
0.0
  9
$PLINEWID
 40
0.0
  9
$COORDS
 70
     0
  9
$SPLFRAME
 70
     0
  9
$SPLINETYPE
 70
     6
  9
$SPLINESEGS
 70
     8
  9
$ATTDIA
 70
     0
  9
$ATTREQ
 70
     1
  9
$HANDLING
 70
     1
  9
$HANDSEED
  5
E1
  9
$SURFTAB1
 70
     6
  9
$SURFTAB2
 70
     6
  9
$SURFTYPE
 70
     6
  9
$SURFU
 70
     6
  9
$SURFV
 70
     6
  9
$UCSNAME
  2

  9
$UCSORG
 10
0.0
 20
0.0
 30
0.0
  9
$UCSXDIR
 10
1.0
 20
0.0
 30
0.0
  9
$UCSYDIR
 10
0.0
 20
1.0
 30
0.0
  9
$PUCSNAME
  2

  9
$PUCSORG
 10
0.0
 20
0.0
 30
0.0
  9
$PUCSXDIR
 10
1.0
 20
0.0
 30
0.0
  9
$PUCSYDIR
 10
0.0
 20
1.0
 30
0.0
  9
$USERI1
 70
     0
  9
$USERI2
 70
     0
  9
$USERI3
 70
     0
  9
$USERI4
 70
     0
  9
$USERI5
 70
     0
  9
$USERR1
 40
0.0
  9
$USERR2
 40
0.0
  9
$USERR3
 40
0.0
  9
$USERR4
 40
0.0
  9
$USERR5
 40
0.0
  9
$WORLDVIEW
 70
     1
  9
$SHADEDGE
 70
     3
  9
$SHADEDIF
 70
    70
  9
$TILEMODE
 70
     1
  9
$MAXACTVP
 70
    16
  9
$PINSBASE
 10
0.0
 20
0.0
 30
0.0
  9
$PLIMCHECK
 70
     0
  9
$PEXTMIN
 10
1.000000E+20
 20
1.000000E+20
 30
1.000000E+20
  9
$PEXTMAX
 10
-1.000000E+20
 20
-1.000000E+20
 30
-1.000000E+20
  9
$PLIMMIN
 10
0.0
 20
0.0
  9
$PLIMMAX
 10
12.0
 20
9.0
  9
$UNITMODE
 70
     0
  9
$VISRETAIN
 70
     0
  9
$PLINEGEN
 70
     1
  9
$PSLTSCALE
 70
     0
  9
$TREEDEPTH
 70
  3020
  0
ENDSEC
  0
SECTION
  2
TABLES
  0
TABLE
  2
VPORT
 70
     1
  0
VPORT
  2
*ACTIVE
 70
     0
 10
0.0
 20
0.0
 11
1.0
 21
1.0
 12
6.591288
 22
4.579184
 13
0.0
 23
0.0
 14
1.0
 24
1.0
 15
0.0
 25
0.0
 16
0.0
 26
0.0
 36
1.0
 17
0.0
 27
0.0
 37
0.0
 40
9.158369
 41
0.688564
 42
50.0
 43
0.0
 44
0.0
 50
0.0
 51
0.0
 71
     0
 72
   100
 73
     1
 74
     1
 75
     0
 76
     0
 77
     0
 78
     0
  0
ENDTAB
  0
TABLE
  2
LTYPE
 70
     2
  0
LTYPE
  2
CONTINUOUS
 70
    64
  3
Solid line
 72
    65
 73
     0
 40
0.0
  0
LTYPE
  2
CENTER
 70
    64
  3
____ _ ____ _ ____ _ ____ _ ____ _ ____ _ ____
 72
    65
 73
     4
 40
2.0
 49
1.25
 49
-0.25
 49
0.25
 49
-0.25
  0
ENDTAB
  0
TABLE
  2
LAYER
 70
     1
  0
LAYER
  2
0
 70
     0
 62
     7
  6
CONTINUOUS
  0
ENDTAB
  0
TABLE
  2
STYLE
 70
     1
  0
STYLE
  2
STANDARD
 70
     0
 40
0.0
 41
1.0
 50
0.0
 71
     0
 42
0.0
  3
IsonormD
  4

  0
ENDTAB
  0
TABLE
  2
VIEW
 70
     0
  0
ENDTAB
  0
TABLE
  2
UCS
 70
     0
  0
ENDTAB
  0
TABLE
  2
APPID
 70
     2
  0
APPID
  2
ACAD
 70
     0
  0
APPID
  2
TopSolid_Draft
 70
     0
  0
ENDTAB
  0
TABLE
  2
DIMSTYLE
 70
     1
  0
DIMSTYLE
  2
STANDARD
 70
     0
  3

  4

  5

  6

  7

 40
1.0
 41
1.25
 42
1.0
 43
0.38
 44
0.75
 45
0.0
 46
0.0
 47
0.0
 48
0.0
 71
     0
 72
     0
 73
     0
 74
     0
 75
     0
 76
     0
 77
     1
 78
     0
140
2.5
141
0.09
142
0.0
143
25.4
144
1.0
145
0.0
146
0.8
147
1.25
170
     0
171
     2
172
     0
173
     0
174
     0
175
     0
176
     7
177
     7
178
     7
  0
ENDTAB
  0
ENDSEC
  0
SECTION
  2
BLOCKS
  0
BLOCK
  8
0
  5
25
  2
AID3
 70
     0
 10
0.0
 20
0.0
 30
0.0
  3
#draft view
  0
LINE
  8
0
  6
CONTINUOUS
 62
     7
  5
26
 10
164.447534
 20
140.576869
 30
0.0
 11
164.447534
 21
148.576869
 31
0.0
  0
LINE
  8
0
  6
CONTINUOUS
 62
     7
  5
27
 10
80.447534
 20
148.576869
 30
0.0
 11
80.447534
 21
140.576869
 31
0.0
  0
LINE
  8
0
  6
CONTINUOUS
 62
     7
  5
28
 10
164.447534
 20
148.576869
 30
0.0
 11
80.447534
 21
148.576869
 31
0.0
  0
LINE
  8
0
  6
CONTINUOUS
 62
     7
  5
29
 10
164.447534
 20
140.576869
 30
0.0
 11
80.447534
 21
140.576869
 31
0.0
  0
LINE
  8
0
  6
CONTINUOUS
 62
     7
  5
2A
 10
77.447534
 20
140.576869
 30
0.0
 11
77.447534
 21
148.576869
 31
0.0
  0
LINE
  8
0
  6
CONTINUOUS
 62
     7
  5
2B
 10
77.447534
 20
148.576869
 30
0.0
 11
80.447534
 21
148.576869
 31
0.0
  0
LINE
  8
0
  6
CONTINUOUS
 62
     7
  5
2C
 10
80.447534
 20
140.576869
 30
0.0
 11
77.447534
 21
140.576869
 31
0.0
  0
LINE
  8
0
  6
CONTINUOUS
 62
     7
  5
2D
 10
167.447534
 20
148.576869
 30
0.0
 11
167.447534
 21
140.576869
 31
0.0
  0
LINE
  8
0
  6
CONTINUOUS
 62
     7
  5
2E
 10
164.447534
 20
148.576869
 30
0.0
 11
167.447534
 21
148.576869
 31
0.0
  0
LINE
  8
0
  6
CONTINUOUS
 62
     7
  5
2F
 10
167.447534
 20
140.576869
 30
0.0
 11
164.447534
 21
140.576869
 31
0.0
  0
LINE
  8
0
  6
CONTINUOUS
 62
     7
  5
30
 10
166.447534
 20
126.176869
 30
0.0
 11
156.447534
 21
126.176869
 31
0.0
  0
LINE
  8
0
  6
CONTINUOUS
 62
     7
  5
31
 10
156.447534
 20
132.176869
 30
0.0
 11
166.447534
 21
132.176869
 31
0.0
  0
LINE
  8
0
  6
CONTINUOUS
 62
     7
  5
32
 10
78.447534
 20
126.176869
 30
0.0
 11
88.447534
 21
126.176869
 31
0.0
  0
LINE
  8
0
  6
CONTINUOUS
 62
     7
  5
33
 10
88.447534
 20
132.176869
 30
0.0
 11
78.447534
 21
132.176869
 31
0.0
  0
LINE
  8
0
  6
CONTINUOUS
 62
     7
  5
34
 10
146.447534
 20
193.576869
 30
0.0
 11
136.447534
 21
193.576869
 31
0.0
  0
LINE
  8
0
  6
CONTINUOUS
 62
     7
  5
35
 10
136.447534
 20
187.576869
 30
0.0
 11
146.447534
 21
187.576869
 31
0.0
  0
LINE
  8
0
  6
CONTINUOUS
 62
     7
  5
36
 10
98.447534
 20
193.576869
 30
0.0
 11
108.447534
 21
193.576869
 31
0.0
  0
LINE
  8
0
  6
CONTINUOUS
 62
     7
  5
37
 10
108.447534
 20
187.576869
 30
0.0
 11
98.447534
 21
187.576869
 31
0.0
  0
LINE
  8
0
  6
CONTINUOUS
 62
     7
  5
38
 10
156.447534
 20
132.176869
 30
0.0
 11
156.447534
 21
126.176869
 31
0.0
  0
LINE
  8
0
  6
CONTINUOUS
 62
     7
  5
39
 10
166.447534
 20
126.176869
 30
0.0
 11
166.447534
 21
132.176869
 31
0.0
  0
LINE
  8
0
  6
CONTINUOUS
 62
     7
  5
3A
 10
78.447534
 20
132.176869
 30
0.0
 11
78.447534
 21
126.176869
 31
0.0
  0
LINE
  8
0
  6
CONTINUOUS
 62
     7
  5
3B
 10
88.447534
 20
126.176869
 30
0.0
 11
88.447534
 21
132.176869
 31
0.0
  0
LINE
  8
0
  6
CONTINUOUS
 62
     7
  5
3C
 10
164.447534
 20
132.176869
 30
0.0
 11
164.447534
 21
140.576869
 31
0.0
  0
LINE
  8
0
  6
CONTINUOUS
 62
     7
  5
3D
 10
158.447534
 20
140.576869
 30
0.0
 11
158.447534
 21
132.176869
 31
0.0
  0
LINE
  8
0
  6
CONTINUOUS
 62
     7
  5
3E
 10
86.447534
 20
132.176869
 30
0.0
 11
86.447534
 21
140.576869
 31
0.0
  0
LINE
  8
0
  6
CONTINUOUS
 62
     7
  5
3F
 10
80.447534
 20
140.576869
 30
0.0
 11
80.447534
 21
132.176869
 31
0.0
  0
LINE
  8
0
  6
CONTINUOUS
 62
     7
  5
40
 10
146.447534
 20
187.576869
 30
0.0
 11
146.447534
 21
193.576869
 31
0.0
  0
LINE
  8
0
  6
CONTINUOUS
 62
     7
  5
41
 10
136.447534
 20
193.576869
 30
0.0
 11
136.447534
 21
187.576869
 31
0.0
  0
LINE
  8
0
  6
CONTINUOUS
 62
     7
  5
42
 10
108.447534
 20
187.576869
 30
0.0
 11
108.447534
 21
193.576869
 31
0.0
  0
LINE
  8
0
  6
CONTINUOUS
 62
     7
  5
43
 10
98.447534
 20
193.576869
 30
0.0
 11
98.447534
 21
187.576869
 31
0.0
  0
LINE
  8
0
  6
CONTINUOUS
 62
     7
  5
44
 10
138.447534
 20
187.576869
 30
0.0
 11
138.447534
 21
148.576869
 31
0.0
  0
LINE
  8
0
  6
CONTINUOUS
 62
     7
  5
45
 10
144.447534
 20
148.576869
 30
0.0
 11
144.447534
 21
187.576869
 31
0.0
  0
LINE
  8
0
  6
CONTINUOUS
 62
     7
  5
46
 10
100.447534
 20
187.576869
 30
0.0
 11
100.447534
 21
148.576869
 31
0.0
  0
LINE
  8
0
  6
CONTINUOUS
 62
     7
  5
47
 10
106.447534
 20
148.576869
 30
0.0
 11
106.447534
 21
187.576869
 31
0.0
  0
ENDBLK
  8
0
  5
48
  0
BLOCK
  8
0
  5
4B
  2
AID75
 70
     0
 10
0.0
 20
0.0
 30
0.0
  3
#auxiliary draft view
  0
LINE
  8
0
  6
CONTINUOUS
 62
     7
  5
4C
 10
85.947534
 20
308.238093
 30
0.0
 11
83.447534
 21
306.794717
 31
0.0
  0
LINE
  8
0
  6
CONTINUOUS
 62
     7
  5
4D
 10
85.947534
 20
311.124844
 30
0.0
 11
85.947534
 21
308.238093
 31
0.0
  0
LINE
  8
0
  6
CONTINUOUS
 62
     7
  5
4E
 10
83.447534
 20
312.56822
 30
0.0
 11
85.947534
 21
311.124844
 31
0.0
  0
LINE
  8
0
  6
CONTINUOUS
 62
     7
  5
4F
 10
80.947534
 20
311.124844
 30
0.0
 11
83.447534
 21
312.56822
 31
0.0
  0
LINE
  8
0
  6
CONTINUOUS
 62
     7
  5
50
 10
80.947534
 20
308.238093
 30
0.0
 11
80.947534
 21
311.124844
 31
0.0
  0
LINE
  8
0
  6
CONTINUOUS
 62
     7
  5
51
 10
83.447534
 20
306.794717
 30
0.0
 11
80.947534
 21
308.238093
 31
0.0
  0
CIRCLE
  8
0
  6
CONTINUOUS
 62
     7
  5
52
 10
83.447534
 20
309.681468
 30
0.0
 40
5.0
210
0.0
220
0.0
230
1.0
  0
LINE
  8
0
  6
CONTINUOUS
 62
     7
  5
53
 10
163.947534
 20
308.238093
 30
0.0
 11
163.947534
 21
311.124844
 31
0.0
  0
LINE
  8
0
  6
CONTINUOUS
 62
     7
  5
54
 10
163.947534
 20
311.124844
 30
0.0
 11
161.447534
 21
312.56822
 31
0.0
  0
LINE
  8
0
  6
CONTINUOUS
 62
     7
  5
55
 10
161.447534
 20
312.56822
 30
0.0
 11
158.947534
 21
311.124844
 31
0.0
  0
LINE
  8
0
  6
CONTINUOUS
 62
     7
  5
56
 10
158.947534
 20
311.124844
 30
0.0
 11
158.947534
 21
308.238093
 31
0.0
  0
LINE
  8
0
  6
CONTINUOUS
 62
     7
  5
57
 10
158.947534
 20
308.238093
 30
0.0
 11
161.447534
 21
306.794717
 31
0.0
  0
LINE
  8
0
  6
CONTINUOUS
 62
     7
  5
58
 10
161.447534
 20
306.794717
 30
0.0
 11
163.947534
 21
308.238093
 31
0.0
  0
CIRCLE
  8
0
  6
CONTINUOUS
 62
     7
  5
59
 10
161.447534
 20
309.681468
 30
0.0
 40
5.0
210
0.0
220
0.0
230
1.0
  0
LINE
  8
0
  6
CONTINUOUS
 62
     7
  5
5A
 10
80.947534
 20
278.624844
 30
0.0
 11
80.947534
 21
275.738093
 31
0.0
  0
LINE
  8
0
  6
CONTINUOUS
 62
     7
  5
5B
 10
80.947534
 20
275.738093
 30
0.0
 11
83.447534
 21
274.294717
 31
0.0
  0
LINE
  8
0
  6
CONTINUOUS
 62
     7
  5
5C
 10
83.447534
 20
274.294717
 30
0.0
 11
85.947534
 21
275.738093
 31
0.0
  0
LINE
  8
0
  6
CONTINUOUS
 62
     7
  5
5D
 10
85.947534
 20
275.738093
 30
0.0
 11
85.947534
 21
278.624844
 31
0.0
  0
LINE
  8
0
  6
CONTINUOUS
 62
     7
  5
5E
 10
85.947534
 20
278.624844
 30
0.0
 11
83.447534
 21
280.06822
 31
0.0
  0
LINE
  8
0
  6
CONTINUOUS
 62
     7
  5
5F
 10
83.447534
 20
280.06822
 30
0.0
 11
80.947534
 21
278.624844
 31
0.0
  0
CIRCLE
  8
0
  6
CONTINUOUS
 62
     7
  5
60
 10
83.447534
 20
277.181468
 30
0.0
 40
5.0
210
0.0
220
0.0
230
1.0
  0
LINE
  8
0
  6
CONTINUOUS
 62
     7
  5
61
 10
158.947534
 20
275.738093
 30
0.0
 11
158.947534
 21
278.624844
 31
0.0
  0
LINE
  8
0
  6
CONTINUOUS
 62
     7
  5
62
 10
161.447534
 20
274.294717
 30
0.0
 11
158.947534
 21
275.738093
 31
0.0
  0
LINE
  8
0
  6
CONTINUOUS
 62
     7
  5
63
 10
163.947534
 20
275.738093
 30
0.0
 11
161.447534
 21
274.294717
 31
0.0
  0
LINE
  8
0
  6
CONTINUOUS
 62
     7
  5
64
 10
163.947534
 20
278.624844
 30
0.0
 11
163.947534
 21
275.738093
 31
0.0
  0
CIRCLE
  8
0
  6
CONTINUOUS
 62
     7
  5
65
 10
161.447534
 20
277.181468
 30
0.0
 40
5.0
210
0.0
220
0.0
230
1.0
  0
LINE
  8
0
  6
CONTINUOUS
 62
     7
  5
66
 10
161.447534
 20
280.06822
 30
0.0
 11
163.947534
 21
278.624844
 31
0.0
  0
LINE
  8
0
  6
CONTINUOUS
 62
     7
  5
67
 10
158.947534
 20
278.624844
 30
0.0
 11
161.447534
 21
280.06822
 31
0.0
  0
CIRCLE
  8
0
  6
CONTINUOUS
 62
     7
  5
68
 10
141.447534
 20
293.431468
 30
0.0
 40
3.0
210
0.0
220
0.0
230
1.0
  0
CIRCLE
  8
0
  6
CONTINUOUS
 62
     7
  5
69
 10
103.447534
 20
293.431468
 30
0.0
 40
3.0
210
0.0
220
0.0
230
1.0
  0
LINE
  8
0
  6
CONTINUOUS
 62
     7
  5
6A
 10
80.447534
 20
315.931468
 30
0.0
 11
77.447534
 21
312.931468
 31
0.0
  0
LINE
  8
0
  6
CONTINUOUS
 62
     7
  5
6B
 10
164.447534
 20
315.931468
 30
0.0
 11
80.447534
 21
315.931468
 31
0.0
  0
LINE
  8
0
  6
CONTINUOUS
 62
     7
  5
6C
 10
167.447534
 20
312.931468
 30
0.0
 11
164.447534
 21
315.931468
 31
0.0
  0
LINE
  8
0
  6
CONTINUOUS
 62
     7
  5
6D
 10
167.447534
 20
273.931468
 30
0.0
 11
167.447534
 21
312.931468
 31
0.0
  0
LINE
  8
0
  6
CONTINUOUS
 62
     7
  5
6E
 10
164.447534
 20
270.931468
 30
0.0
 11
167.447534
 21
273.931468
 31
0.0
  0
LINE
  8
0
  6
CONTINUOUS
 62
     7
  5
6F
 10
80.447534
 20
270.931468
 30
0.0
 11
164.447534
 21
270.931468
 31
0.0
  0
LINE
  8
0
  6
CONTINUOUS
 62
     7
  5
70
 10
77.447534
 20
273.931468
 30
0.0
 11
80.447534
 21
270.931468
 31
0.0
  0
LINE
  8
0
  6
CONTINUOUS
 62
     7
  5
71
 10
77.447534
 20
312.931468
 30
0.0
 11
77.447534
 21
273.931468
 31
0.0
  0
CIRCLE
  8
0
  6
CONTINUOUS
 62
     7
  5
72
 10
141.447534
 20
293.431468
 30
0.0
 40
2.459
210
0.0
220
0.0
230
1.0
  0
CIRCLE
  8
0
  6
CONTINUOUS
 62
     7
  5
73
 10
103.447534
 20
293.431468
 30
0.0
 40
2.459
210
0.0
220
0.0
230
1.0
  0
ENDBLK
  8
0
  5
74
  0
BLOCK
  8
0
  5
77
  2
AID159
 70
     0
 10
0.0
 20
0.0
 30
0.0
  3
#auxiliary draft view
  0
LINE
  8
0
  6
CONTINUOUS
 62
     7
  5
78
 10
100.947534
 20
27.765645
 30
0.0
 11
100.947534
 21
24.878893
 31
0.0
  0
LINE
  8
0
  6
CONTINUOUS
 62
     7
  5
79
 10
100.947534
 20
24.878893
 30
0.0
 11
103.447534
 21
23.435518
 31
0.0
  0
LINE
  8
0
  6
CONTINUOUS
 62
     7
  5
7A
 10
103.447534
 20
23.435518
 30
0.0
 11
105.947534
 21
24.878893
 31
0.0
  0
LINE
  8
0
  6
CONTINUOUS
 62
     7
  5
7B
 10
105.947534
 20
24.878893
 30
0.0
 11
105.947534
 21
27.765645
 31
0.0
  0
LINE
  8
0
  6
CONTINUOUS
 62
     7
  5
7C
 10
105.947534
 20
27.765645
 30
0.0
 11
103.447534
 21
29.20902
 31
0.0
  0
CIRCLE
  8
0
  6
CONTINUOUS
 62
     7
  5
7D
 10
103.447534
 20
26.322269
 30
0.0
 40
5.0
210
0.0
220
0.0
230
1.0
  0
LINE
  8
0
  6
CONTINUOUS
 62
     7
  5
7E
 10
103.447534
 20
29.20902
 30
0.0
 11
100.947534
 21
27.765645
 31
0.0
  0
LINE
  8
0
  6
CONTINUOUS
 62
     7
  5
7F
 10
138.947534
 20
24.878893
 30
0.0
 11
138.947534
 21
27.765645
 31
0.0
  0
CIRCLE
  8
0
  6
CONTINUOUS
 62
     7
  5
80
 10
141.447534
 20
26.322269
 30
0.0
 40
5.0
210
0.0
220
0.0
230
1.0
  0
LINE
  8
0
  6
CONTINUOUS
 62
     7
  5
81
 10
143.947534
 20
24.878893
 30
0.0
 11
141.447534
 21
23.435518
 31
0.0
  0
LINE
  8
0
  6
CONTINUOUS
 62
     7
  5
82
 10
141.447534
 20
29.20902
 30
0.0
 11
143.947534
 21
27.765645
 31
0.0
  0
LINE
  8
0
  6
CONTINUOUS
 62
     7
  5
83
 10
138.947534
 20
27.765645
 30
0.0
 11
141.447534
 21
29.20902
 31
0.0
  0
LINE
  8
0
  6
CONTINUOUS
 62
     7
  5
84
 10
143.947534
 20
27.765645
 30
0.0
 11
143.947534
 21
24.878893
 31
0.0
  0
LINE
  8
0
  6
CONTINUOUS
 62
     7
  5
85
 10
141.447534
 20
23.435518
 30
0.0
 11
138.947534
 21
24.878893
 31
0.0
  0
CIRCLE
  8
0
  6
CONTINUOUS
 62
     7
  5
86
 10
161.447534
 20
10.072269
 30
0.0
 40
2.55
210
0.0
220
0.0
230
1.0
  0
CIRCLE
  8
0
  6
CONTINUOUS
 62
     7
  5
87
 10
161.447534
 20
10.072269
 30
0.0
 40
3.0
210
0.0
220
0.0
230
1.0
  0
CIRCLE
  8
0
  6
CONTINUOUS
 62
     7
  5
88
 10
83.447534
 20
42.572269
 30
0.0
 40
2.55
210
0.0
220
0.0
230
1.0
  0
CIRCLE
  8
0
  6
CONTINUOUS
 62
     7
  5
89
 10
83.447534
 20
42.572269
 30
0.0
 40
3.0
210
0.0
220
0.0
230
1.0
  0
CIRCLE
  8
0
  6
CONTINUOUS
 62
     7
  5
8A
 10
161.447534
 20
42.572269
 30
0.0
 40
3.0
210
0.0
220
0.0
230
1.0
  0
CIRCLE
  8
0
  6
CONTINUOUS
 62
     7
  5
8B
 10
83.447534
 20
10.072269
 30
0.0
 40
3.0
210
0.0
220
0.0
230
1.0
  0
LINE
  8
0
  6
CONTINUOUS
 62
     7
  5
8C
 10
167.447534
 20
45.822269
 30
0.0
 11
164.447534
 21
48.822269
 31
0.0
  0
LINE
  8
0
  6
CONTINUOUS
 62
     7
  5
8D
 10
167.447534
 20
45.822269
 30
0.0
 11
167.447534
 21
6.822269
 31
0.0
  0
LINE
  8
0
  6
CONTINUOUS
 62
     7
  5
8E
 10
164.447534
 20
3.822269
 30
0.0
 11
167.447534
 21
6.822269
 31
0.0
  0
LINE
  8
0
  6
CONTINUOUS
 62
     7
  5
8F
 10
164.447534
 20
3.822269
 30
0.0
 11
80.447534
 21
3.822269
 31
0.0
  0
LINE
  8
0
  6
CONTINUOUS
 62
     7
  5
90
 10
77.447534
 20
6.822269
 30
0.0
 11
80.447534
 21
3.822269
 31
0.0
  0
LINE
  8
0
  6
CONTINUOUS
 62
     7
  5
91
 10
77.447534
 20
6.822269
 30
0.0
 11
77.447534
 21
45.822269
 31
0.0
  0
LINE
  8
0
  6
CONTINUOUS
 62
     7
  5
92
 10
80.447534
 20
48.822269
 30
0.0
 11
77.447534
 21
45.822269
 31
0.0
  0
LINE
  8
0
  6
CONTINUOUS
 62
     7
  5
93
 10
80.447534
 20
48.822269
 30
0.0
 11
164.447534
 21
48.822269
 31
0.0
  0
CIRCLE
  8
0
  6
CONTINUOUS
 62
     7
  5
94
 10
161.447534
 20
42.572269
 30
0.0
 40
2.55
210
0.0
220
0.0
230
1.0
  0
CIRCLE
  8
0
  6
CONTINUOUS
 62
     7
  5
95
 10
83.447534
 20
10.072269
 30
0.0
 40
2.55
210
0.0
220
0.0
230
1.0
  0
CIRCLE
  8
0
  6
CONTINUOUS
 62
     7
  5
96
 10
83.447534
 20
10.072269
 30
0.0
 40
2.5
210
0.0
220
0.0
230
1.0
  0
CIRCLE
  8
0
  6
CONTINUOUS
 62
     7
  5
97
 10
83.447534
 20
42.572269
 30
0.0
 40
2.5
210
0.0
220
0.0
230
1.0
  0
CIRCLE
  8
0
  6
CONTINUOUS
 62
     7
  5
98
 10
161.447534
 20
10.072269
 30
0.0
 40
2.5
210
0.0
220
0.0
230
1.0
  0
CIRCLE
  8
0
  6
CONTINUOUS
 62
     7
  5
99
 10
161.447534
 20
42.572269
 30
0.0
 40
2.5
210
0.0
220
0.0
230
1.0
  0
ENDBLK
  8
0
  5
9A
  0
BLOCK
  8
0
  5
9D
  2
AID231
 70
     0
 10
0.0
 20
0.0
 30
0.0
  3
#auxiliary draft view
  0
LINE
  8
0
  6
CONTINUOUS
 62
     7
  5
9E
 10
308.148813
 20
140.576869
 30
0.0
 11
308.148813
 21
148.576869
 31
0.0
  0
LINE
  8
0
  6
CONTINUOUS
 62
     7
  5
9F
 10
269.148813
 20
148.576869
 30
0.0
 11
269.148813
 21
140.576869
 31
0.0
  0
LINE
  8
0
  6
CONTINUOUS
 62
     7
  5
A0
 10
308.148813
 20
148.576869
 30
0.0
 11
269.148813
 21
148.576869
 31
0.0
  0
LINE
  8
0
  6
CONTINUOUS
 62
     7
  5
A1
 10
308.148813
 20
140.576869
 30
0.0
 11
269.148813
 21
140.576869
 31
0.0
  0
LINE
  8
0
  6
CONTINUOUS
 62
     7
  5
A2
 10
311.148813
 20
148.576869
 30
0.0
 11
311.148813
 21
140.576869
 31
0.0
  0
LINE
  8
0
  6
CONTINUOUS
 62
     7
  5
A3
 10
308.148813
 20
148.576869
 30
0.0
 11
311.148813
 21
148.576869
 31
0.0
  0
LINE
  8
0
  6
CONTINUOUS
 62
     7
  5
A4
 10
311.148813
 20
140.576869
 30
0.0
 11
308.148813
 21
140.576869
 31
0.0
  0
LINE
  8
0
  6
CONTINUOUS
 62
     7
  5
A5
 10
266.148813
 20
140.576869
 30
0.0
 11
266.148813
 21
148.576869
 31
0.0
  0
LINE
  8
0
  6
CONTINUOUS
 62
     7
  5
A6
 10
266.148813
 20
148.576869
 30
0.0
 11
269.148813
 21
148.576869
 31
0.0
  0
LINE
  8
0
  6
CONTINUOUS
 62
     7
  5
A7
 10
269.148813
 20
140.576869
 30
0.0
 11
266.148813
 21
140.576869
 31
0.0
  0
LINE
  8
0
  6
CONTINUOUS
 62
     7
  5
A8
 10
299.898813
 20
126.176869
 30
0.0
 11
304.898813
 21
126.176869
 31
0.0
  0
LINE
  8
0
  6
CONTINUOUS
 62
     7
  5
A9
 10
309.898813
 20
132.176869
 30
0.0
 11
299.898813
 21
132.176869
 31
0.0
  0
LINE
  8
0
  6
CONTINUOUS
 62
     7
  5
AA
 10
304.898813
 20
126.176869
 30
0.0
 11
309.898813
 21
126.176869
 31
0.0
  0
LINE
  8
0
  6
CONTINUOUS
 62
     7
  5
AB
 10
277.398813
 20
126.176869
 30
0.0
 11
272.398813
 21
126.176869
 31
0.0
  0
LINE
  8
0
  6
CONTINUOUS
 62
     7
  5
AC
 10
267.398813
 20
132.176869
 30
0.0
 11
277.398813
 21
132.176869
 31
0.0
  0
LINE
  8
0
  6
CONTINUOUS
 62
     7
  5
AD
 10
272.398813
 20
126.176869
 30
0.0
 11
267.398813
 21
126.176869
 31
0.0
  0
LINE
  8
0
  6
CONTINUOUS
 62
     7
  5
AE
 10
283.648813
 20
193.576869
 30
0.0
 11
293.648813
 21
193.576869
 31
0.0
  0
LINE
  8
0
  6
CONTINUOUS
 62
     7
  5
AF
 10
293.648813
 20
187.576869
 30
0.0
 11
288.648813
 21
187.576869
 31
0.0
  0
LINE
  8
0
  6
CONTINUOUS
 62
     7
  5
B0
 10
288.648813
 20
187.576869
 30
0.0
 11
283.648813
 21
187.576869
 31
0.0
  0
LINE
  8
0
  6
CONTINUOUS
 62
     7
  5
B1
 10
299.898813
 20
132.176869
 30
0.0
 11
299.898813
 21
126.176869
 31
0.0
  0
LINE
  8
0
  6
CONTINUOUS
 62
     7
  5
B2
 10
309.898813
 20
126.176869
 30
0.0
 11
309.898813
 21
132.176869
 31
0.0
  0
LINE
  8
0
  6
CONTINUOUS
 62
     7
  5
B3
 10
267.398813
 20
132.176869
 30
0.0
 11
267.398813
 21
126.176869
 31
0.0
  0
LINE
  8
0
  6
CONTINUOUS
 62
     7
  5
B4
 10
277.398813
 20
126.176869
 30
0.0
 11
277.398813
 21
132.176869
 31
0.0
  0
LINE
  8
0
  6
CONTINUOUS
 62
     7
  5
B5
 10
307.898813
 20
132.176869
 30
0.0
 11
307.898813
 21
140.576869
 31
0.0
  0
LINE
  8
0
  6
CONTINUOUS
 62
     7
  5
B6
 10
301.898813
 20
140.576869
 30
0.0
 11
301.898813
 21
132.176869
 31
0.0
  0
LINE
  8
0
  6
CONTINUOUS
 62
     7
  5
B7
 10
275.398813
 20
132.176869
 30
0.0
 11
275.398813
 21
140.576869
 31
0.0
  0
LINE
  8
0
  6
CONTINUOUS
 62
     7
  5
B8
 10
269.398813
 20
140.576869
 30
0.0
 11
269.398813
 21
132.176869
 31
0.0
  0
LINE
  8
0
  6
CONTINUOUS
 62
     7
  5
B9
 10
293.648813
 20
187.576869
 30
0.0
 11
293.648813
 21
193.576869
 31
0.0
  0
LINE
  8
0
  6
CONTINUOUS
 62
     7
  5
BA
 10
283.648813
 20
193.576869
 30
0.0
 11
283.648813
 21
187.576869
 31
0.0
  0
LINE
  8
0
  6
CONTINUOUS
 62
     7
  5
BB
 10
285.648813
 20
187.576869
 30
0.0
 11
285.648813
 21
148.576869
 31
0.0
  0
LINE
  8
0
  6
CONTINUOUS
 62
     7
  5
BC
 10
291.648813
 20
148.576869
 30
0.0
 11
291.648813
 21
187.576869
 31
0.0
  0
ENDBLK
  8
0
  5
BD
  0
ENDSEC
  0
SECTION
  2
ENTITIES
  0
INSERT
  8
0
  5
49
  2
AID3
 10
0.0
 20
0.0
 30
0.0
  0
INSERT
  8
0
  5
75
  2
AID75
 10
0.0
 20
0.0
 30
0.0
  0
INSERT
  8
0
  5
9B
  2
AID159
 10
0.0
 20
0.0
 30
0.0
  0
INSERT
  8
0
  5
BE
  2
AID231
 10
0.0
 20
0.0
 30
0.0
  0
LINE
  8
0
  6
CENTER
 62
     1
  5
C0
 10
75.447534
 20
277.181468
 30
0.0
 11
91.447534
 21
277.181468
 31
0.0
  0
LINE
  8
0
  6
CENTER
 62
     1
  5
C1
 10
83.447534
 20
269.181468
 30
0.0
 11
83.447534
 21
285.181468
 31
0.0
  0
LINE
  8
0
  6
CENTER
 62
     1
  5
C2
 10
75.447534
 20
309.681468
 30
0.0
 11
91.447534
 21
309.681468
 31
0.0
  0
LINE
  8
0
  6
CENTER
 62
     1
  5
C3
 10
83.447534
 20
301.681468
 30
0.0
 11
83.447534
 21
317.681468
 31
0.0
  0
LINE
  8
0
  6
CENTER
 62
     1
  5
C4
 10
97.447534
 20
293.431468
 30
0.0
 11
109.447534
 21
293.431468
 31
0.0
  0
LINE
  8
0
  6
CENTER
 62
     1
  5
C5
 10
103.447534
 20
287.431468
 30
0.0
 11
103.447534
 21
299.431468
 31
0.0
  0
LINE
  8
0
  6
CENTER
 62
     1
  5
C6
 10
135.447534
 20
293.431468
 30
0.0
 11
147.447534
 21
293.431468
 31
0.0
  0
LINE
  8
0
  6
CENTER
 62
     1
  5
C7
 10
141.447534
 20
287.431468
 30
0.0
 11
141.447534
 21
299.431468
 31
0.0
  0
LINE
  8
0
  6
CENTER
 62
     1
  5
C8
 10
153.447534
 20
277.181468
 30
0.0
 11
169.447534
 21
277.181468
 31
0.0
  0
LINE
  8
0
  6
CENTER
 62
     1
  5
C9
 10
161.447534
 20
269.181468
 30
0.0
 11
161.447534
 21
285.181468
 31
0.0
  0
LINE
  8
0
  6
CENTER
 62
     1
  5
CA
 10
153.447534
 20
309.681468
 30
0.0
 11
169.447534
 21
309.681468
 31
0.0
  0
LINE
  8
0
  6
CENTER
 62
     1
  5
CB
 10
161.447534
 20
301.681468
 30
0.0
 11
161.447534
 21
317.681468
 31
0.0
  0
LINE
  8
0
  6
CENTER
 62
     1
  5
CC
 10
83.447534
 20
143.576869
 30
0.0
 11
83.447534
 21
123.176869
 31
0.0
  0
LINE
  8
0
  6
CENTER
 62
     1
  5
CD
 10
103.447534
 20
196.576869
 30
0.0
 11
103.447534
 21
145.576869
 31
0.0
  0
LINE
  8
0
  6
CENTER
 62
     1
  5
CE
 10
141.447534
 20
196.576869
 30
0.0
 11
141.447534
 21
145.576869
 31
0.0
  0
LINE
  8
0
  6
CENTER
 62
     1
  5
CF
 10
161.447534
 20
143.576869
 30
0.0
 11
161.447534
 21
123.176869
 31
0.0
  0
LINE
  8
0
  6
CENTER
 62
     1
  5
D0
 10
272.398813
 20
143.576869
 30
0.0
 11
272.398813
 21
123.176869
 31
0.0
  0
LINE
  8
0
  6
CENTER
 62
     1
  5
D1
 10
288.648813
 20
196.576869
 30
0.0
 11
288.648813
 21
145.576869
 31
0.0
  0
LINE
  8
0
  6
CENTER
 62
     1
  5
D2
 10
304.898813
 20
143.576869
 30
0.0
 11
304.898813
 21
123.176869
 31
0.0
  0
LINE
  8
0
  6
CENTER
 62
     1
  5
D3
 10
77.447534
 20
10.072269
 30
0.0
 11
89.447534
 21
10.072269
 31
0.0
  0
LINE
  8
0
  6
CENTER
 62
     1
  5
D4
 10
83.447534
 20
4.072269
 30
0.0
 11
83.447534
 21
16.072269
 31
0.0
  0
LINE
  8
0
  6
CENTER
 62
     1
  5
D5
 10
77.447534
 20
42.572269
 30
0.0
 11
89.447534
 21
42.572269
 31
0.0
  0
LINE
  8
0
  6
CENTER
 62
     1
  5
D6
 10
83.447534
 20
36.572269
 30
0.0
 11
83.447534
 21
48.572269
 31
0.0
  0
LINE
  8
0
  6
CENTER
 62
     1
  5
D7
 10
95.447534
 20
26.322269
 30
0.0
 11
111.447534
 21
26.322269
 31
0.0
  0
LINE
  8
0
  6
CENTER
 62
     1
  5
D8
 10
103.447534
 20
18.322269
 30
0.0
 11
103.447534
 21
34.322269
 31
0.0
  0
LINE
  8
0
  6
CENTER
 62
     1
  5
D9
 10
133.447534
 20
26.322269
 30
0.0
 11
149.447534
 21
26.322269
 31
0.0
  0
LINE
  8
0
  6
CENTER
 62
     1
  5
DA
 10
141.447534
 20
18.322269
 30
0.0
 11
141.447534
 21
34.322269
 31
0.0
  0
LINE
  8
0
  6
CENTER
 62
     1
  5
DB
 10
155.447534
 20
10.072269
 30
0.0
 11
167.447534
 21
10.072269
 31
0.0
  0
LINE
  8
0
  6
CENTER
 62
     1
  5
DC
 10
161.447534
 20
4.072269
 30
0.0
 11
161.447534
 21
16.072269
 31
0.0
  0
LINE
  8
0
  6
CENTER
 62
     1
  5
DD
 10
155.447534
 20
42.572269
 30
0.0
 11
167.447534
 21
42.572269
 31
0.0
  0
LINE
  8
0
  6
CENTER
 62
     1
  5
DE
 10
161.447534
 20
36.572269
 30
0.0
 11
161.447534
 21
48.572269
 31
0.0
  0
ENDSEC
  0
EOF
