  0
SECTION
  2
HEADER
  9
$ACADVER
  1
AC1009
  9
$DWGCODEPAGE
  3
ansi_1252
  9
$INSBASE
 10
0.0
 20
0.0
 30
0.0
  9
$EXTMIN
 10
0.0
 20
-0.677731
 30
0.0
  9
$EXTMAX
 10
314.148813
 20
318.931468
 30
5.0
  9
$LIMMIN
 10
0.0
 20
-0.677731
  9
$LIMMAX
 10
314.148813
 20
318.931468
  9
$ORTHOMODE
 70
     0
  9
$REGENMODE
 70
     1
  9
$FILLMODE
 70
     1
  9
$QTEXTMODE
 70
     0
  9
$MIRRTEXT
 70
     1
  9
$DRAGMODE
 70
     2
  9
$LTSCALE
 40
10.0
  9
$OSMODE
 70
     0
  9
$ATTMODE
 70
     1
  9
$TEXTSIZE
 40
0.2
  9
$TRACEWID
 40
0.05
  9
$TEXTSTYLE
  7
STANDARD
  9
$CLAYER
  8
0
  9
$CELTYPE
  6
CONTINUOUS
  9
$CECOLOR
 62
   256
  9
$DIMSCALE
 40
1.0
  9
$DIMASZ
 40
1.25
  9
$DIMEXO
 40
1.0
  9
$DIMDLI
 40
0.38
  9
$DIMRND
 40
0.0
  9
$DIMDLE
 40
0.0
  9
$DIMEXE
 40
0.75
  9
$DIMTP
 40
0.0
  9
$DIMTM
 40
0.0
  9
$DIMTXT
 40
2.5
  9
$DIMCEN
 40
0.09
  9
$DIMTSZ
 40
0.0
  9
$DIMTOL
 70
     0
  9
$DIMLIM
 70
     0
  9
$DIMTIH
 70
     0
  9
$DIMTOH
 70
     0
  9
$DIMSE1
 70
     0
  9
$DIMSE2
 70
     0
  9
$DIMTAD
 70
     1
  9
$DIMZIN
 70
     0
  9
$DIMBLK
  1

  9
$DIMASO
 70
     1
  9
$DIMSHO
 70
     1
  9
$DIMPOST
  1

  9
$DIMAPOST
  1

  9
$DIMALT
 70
     0
  9
$DIMALTD
 70
     2
  9
$DIMALTF
 40
25.4
  9
$DIMLFAC
 40
1.0
  9
$DIMTOFL
 70
     0
  9
$DIMTVP
 40
0.0
  9
$DIMTIX
 70
     0
  9
$DIMSOXD
 70
     0
  9
$DIMSAH
 70
     0
  9
$DIMBLK1
  1

  9
$DIMBLK2
  1

  9
$DIMSTYLE
  2
STANDARD
  9
$DIMCLRD
 70
     7
  9
$DIMCLRE
 70
     7
  9
$DIMCLRT
 70
     7
  9
$DIMTFAC
 40
0.8
  9
$DIMGAP
 40
1.25
  9
$LUNITS
 70
     2
  9
$LUPREC
 70
     4
  9
$AXISMODE
 70
     0
  9
$AXISUNIT
 10
0.0
 20
0.0
  9
$SKETCHINC
 40
0.1
  9
$FILLETRAD
 40
0.0
  9
$AUNITS
 70
     0
  9
$AUPREC
 70
     0
  9
$MENU
  1
acad
  9
$ELEVATION
 40
0.0
  9
$PELEVATION
 40
0.0
  9
$THICKNESS
 40
0.0
  9
$LIMCHECK
 70
     0
  9
$BLIPMODE
 70
     1
  9
$CHAMFERA
 40
0.0
  9
$CHAMFERB
 40
0.0
  9
$SKPOLY
 70
     0
  9
$TDCREATE
 40
2454335.451655093
  9
$TDUPDATE
 40
2454335.368298611
  9
$TDINDWG
 40
0.0000000000
  9
$TDUSRTIMER
 40
0.0000000000
  9
$USRTIMER
 70
     1
  9
$ANGBASE
 50
0.0
  9
$ANGDIR
 70
     0
  9
$PDMODE
 70
     0
  9
$PDSIZE
 40
0.0
  9
$PLINEWID
 40
0.0
  9
$COORDS
 70
     0
  9
$SPLFRAME
 70
     0
  9
$SPLINETYPE
 70
     6
  9
$SPLINESEGS
 70
     8
  9
$ATTDIA
 70
     0
  9
$ATTREQ
 70
     1
  9
$HANDLING
 70
     1
  9
$HANDSEED
  5
14D
  9
$SURFTAB1
 70
     6
  9
$SURFTAB2
 70
     6
  9
$SURFTYPE
 70
     6
  9
$SURFU
 70
     6
  9
$SURFV
 70
     6
  9
$UCSNAME
  2

  9
$UCSORG
 10
0.0
 20
0.0
 30
0.0
  9
$UCSXDIR
 10
1.0
 20
0.0
 30
0.0
  9
$UCSYDIR
 10
0.0
 20
1.0
 30
0.0
  9
$PUCSNAME
  2

  9
$PUCSORG
 10
0.0
 20
0.0
 30
0.0
  9
$PUCSXDIR
 10
1.0
 20
0.0
 30
0.0
  9
$PUCSYDIR
 10
0.0
 20
1.0
 30
0.0
  9
$USERI1
 70
     0
  9
$USERI2
 70
     0
  9
$USERI3
 70
     0
  9
$USERI4
 70
     0
  9
$USERI5
 70
     0
  9
$USERR1
 40
0.0
  9
$USERR2
 40
0.0
  9
$USERR3
 40
0.0
  9
$USERR4
 40
0.0
  9
$USERR5
 40
0.0
  9
$WORLDVIEW
 70
     1
  9
$SHADEDGE
 70
     3
  9
$SHADEDIF
 70
    70
  9
$TILEMODE
 70
     1
  9
$MAXACTVP
 70
    16
  9
$PINSBASE
 10
0.0
 20
0.0
 30
0.0
  9
$PLIMCHECK
 70
     0
  9
$PEXTMIN
 10
1.000000E+20
 20
1.000000E+20
 30
1.000000E+20
  9
$PEXTMAX
 10
-1.000000E+20
 20
-1.000000E+20
 30
-1.000000E+20
  9
$PLIMMIN
 10
0.0
 20
0.0
  9
$PLIMMAX
 10
12.0
 20
9.0
  9
$UNITMODE
 70
     0
  9
$VISRETAIN
 70
     0
  9
$PLINEGEN
 70
     1
  9
$PSLTSCALE
 70
     0
  9
$TREEDEPTH
 70
  3020
  0
ENDSEC
  0
SECTION
  2
TABLES
  0
TABLE
  2
VPORT
 70
     1
  0
VPORT
  2
*ACTIVE
 70
     0
 10
0.0
 20
0.0
 11
1.0
 21
1.0
 12
6.591288
 22
4.579184
 13
0.0
 23
0.0
 14
1.0
 24
1.0
 15
0.0
 25
0.0
 16
0.0
 26
0.0
 36
1.0
 17
0.0
 27
0.0
 37
0.0
 40
9.158369
 41
0.688564
 42
50.0
 43
0.0
 44
0.0
 50
0.0
 51
0.0
 71
     0
 72
   100
 73
     1
 74
     1
 75
     0
 76
     0
 77
     0
 78
     0
  0
ENDTAB
  0
TABLE
  2
LTYPE
 70
     2
  0
LTYPE
  2
CONTINUOUS
 70
    64
  3
Solid line
 72
    65
 73
     0
 40
0.0
  0
LTYPE
  2
CENTER
 70
    64
  3
____ _ ____ _ ____ _ ____ _ ____ _ ____ _ ____
 72
    65
 73
     4
 40
2.0
 49
1.25
 49
-0.25
 49
0.25
 49
-0.25
  0
ENDTAB
  0
TABLE
  2
LAYER
 70
     1
  0
LAYER
  2
0
 70
     0
 62
     7
  6
CONTINUOUS
  0
ENDTAB
  0
TABLE
  2
STYLE
 70
     1
  0
STYLE
  2
STANDARD
 70
     0
 40
0.0
 41
1.0
 50
0.0
 71
     0
 42
0.0
  3
IsonormD
  4

  0
ENDTAB
  0
TABLE
  2
VIEW
 70
     0
  0
ENDTAB
  0
TABLE
  2
UCS
 70
     0
  0
ENDTAB
  0
TABLE
  2
APPID
 70
     2
  0
APPID
  2
ACAD
 70
     0
  0
APPID
  2
TopSolid_Draft
 70
     0
  0
ENDTAB
  0
TABLE
  2
DIMSTYLE
 70
     1
  0
DIMSTYLE
  2
STANDARD
 70
     0
  3

  4

  5

  6

  7

 40
1.0
 41
1.25
 42
1.0
 43
0.38
 44
0.75
 45
0.0
 46
0.0
 47
0.0
 48
0.0
 71
     0
 72
     0
 73
     0
 74
     0
 75
     0
 76
     0
 77
     1
 78
     0
140
2.5
141
0.09
142
0.0
143
25.4
144
1.0
145
0.0
146
0.8
147
1.25
170
     0
171
     2
172
     0
173
     0
174
     0
175
     0
176
     7
177
     7
178
     7
  0
ENDTAB
  0
ENDSEC
  0
SECTION
  2
BLOCKS
  0
BLOCK
  8
0
  5
25
  2
AID3
 70
     0
 10
0.0
 20
0.0
 30
0.0
  3
#draft view
  0
LINE
  8
0
  6
CONTINUOUS
 62
     7
  5
26
 10
170.947534
 20
161.926869
 30
0.0
 11
170.947534
 21
151.926869
 31
0.0
  0
LINE
  8
0
  6
CONTINUOUS
 62
     7
  5
27
 10
170.947534
 20
151.926869
 30
0.0
 11
167.947534
 21
151.926869
 31
0.0
  0
LINE
  8
0
  6
CONTINUOUS
 62
     7
  5
28
 10
167.947534
 20
151.926869
 30
0.0
 11
167.947534
 21
161.926869
 31
0.0
  0
LINE
  8
0
  6
CONTINUOUS
 62
     7
  5
29
 10
167.947534
 20
161.926869
 30
0.0
 11
170.947534
 21
161.926869
 31
0.0
  0
LINE
  8
0
  6
CONTINUOUS
 62
     7
  5
2A
 10
76.947534
 20
161.926869
 30
0.0
 11
76.947534
 21
151.926869
 31
0.0
  0
LINE
  8
0
  6
CONTINUOUS
 62
     7
  5
2B
 10
76.947534
 20
151.926869
 30
0.0
 11
73.947534
 21
151.926869
 31
0.0
  0
LINE
  8
0
  6
CONTINUOUS
 62
     7
  5
2C
 10
73.947534
 20
151.926869
 30
0.0
 11
73.947534
 21
161.926869
 31
0.0
  0
LINE
  8
0
  6
CONTINUOUS
 62
     7
  5
2D
 10
73.947534
 20
161.926869
 30
0.0
 11
76.947534
 21
161.926869
 31
0.0
  0
LINE
  8
0
  6
CONTINUOUS
 62
     7
  5
2E
 10
167.947534
 20
151.926869
 30
0.0
 11
76.947534
 21
151.926869
 31
0.0
  0
LINE
  8
0
  6
CONTINUOUS
 62
     7
  5
2F
 10
167.947534
 20
161.926869
 30
0.0
 11
76.947534
 21
161.926869
 31
0.0
  0
LINE
  8
0
  6
CONTINUOUS
 62
     7
  5
30
 10
159.447534
 20
176.326869
 30
0.0
 11
169.447534
 21
176.326869
 31
0.0
  0
LINE
  8
0
  6
CONTINUOUS
 62
     7
  5
31
 10
169.447534
 20
170.326869
 30
0.0
 11
159.447534
 21
170.326869
 31
0.0
  0
LINE
  8
0
  6
CONTINUOUS
 62
     7
  5
32
 10
75.447534
 20
170.326869
 30
0.0
 11
85.447534
 21
170.326869
 31
0.0
  0
LINE
  8
0
  6
CONTINUOUS
 62
     7
  5
33
 10
85.447534
 20
176.326869
 30
0.0
 11
75.447534
 21
176.326869
 31
0.0
  0
LINE
  8
0
  6
CONTINUOUS
 62
     7
  5
34
 10
88.947534
 20
143.926869
 30
0.0
 11
94.947534
 21
143.926869
 31
0.0
  0
LINE
  8
0
  6
CONTINUOUS
 62
     7
  5
35
 10
150.447534
 20
143.426869
 30
0.0
 11
155.447534
 21
143.426869
 31
0.0
  0
LINE
  8
0
  6
CONTINUOUS
 62
     7
  5
36
 10
155.947534
 20
143.926869
 30
0.0
 11
149.947534
 21
143.926869
 31
0.0
  0
LINE
  8
0
  6
CONTINUOUS
 62
     7
  5
37
 10
94.447534
 20
143.426869
 30
0.0
 11
89.447534
 21
143.426869
 31
0.0
  0
LINE
  8
0
  6
CONTINUOUS
 62
     7
  5
38
 10
92.447534
 20
167.126869
 30
0.0
 11
98.447534
 21
167.126869
 31
0.0
  0
LINE
  8
0
  6
CONTINUOUS
 62
     7
  5
39
 10
152.447534
 20
167.126869
 30
0.0
 11
146.447534
 21
167.126869
 31
0.0
  0
LINE
  8
0
  6
CONTINUOUS
 62
     7
  5
3A
 10
159.947534
 20
147.126869
 30
0.0
 11
165.947534
 21
147.126869
 31
0.0
  0
LINE
  8
0
  6
CONTINUOUS
 62
     7
  5
3B
 10
84.947534
 20
147.126869
 30
0.0
 11
78.947534
 21
147.126869
 31
0.0
  0
LINE
  8
0
  6
CONTINUOUS
 62
     7
  5
3C
 10
84.625995
 20
145.926869
 30
0.0
 11
79.269073
 21
145.926869
 31
0.0
  0
LINE
  8
0
  6
CONTINUOUS
 62
     7
  5
3D
 10
160.269073
 20
145.926869
 30
0.0
 11
165.625995
 21
145.926869
 31
0.0
  0
LINE
  8
0
  6
CONTINUOUS
 62
     7
  5
3E
 10
169.447534
 20
170.326869
 30
0.0
 11
169.447534
 21
176.326869
 31
0.0
  0
LINE
  8
0
  6
CONTINUOUS
 62
     7
  5
3F
 10
159.447534
 20
176.326869
 30
0.0
 11
159.447534
 21
170.326869
 31
0.0
  0
LINE
  8
0
  6
CONTINUOUS
 62
     7
  5
40
 10
85.447534
 20
170.326869
 30
0.0
 11
85.447534
 21
176.326869
 31
0.0
  0
LINE
  8
0
  6
CONTINUOUS
 62
     7
  5
41
 10
75.447534
 20
176.326869
 30
0.0
 11
75.447534
 21
170.326869
 31
0.0
  0
LINE
  8
0
  6
CONTINUOUS
 62
     7
  5
42
 10
77.447534
 20
170.326869
 30
0.0
 11
77.447534
 21
161.926869
 31
0.0
  0
LINE
  8
0
  6
CONTINUOUS
 62
     7
  5
43
 10
83.447534
 20
161.926869
 30
0.0
 11
83.447534
 21
170.326869
 31
0.0
  0
LINE
  8
0
  6
CONTINUOUS
 62
     7
  5
44
 10
161.447534
 20
170.326869
 30
0.0
 11
161.447534
 21
161.926869
 31
0.0
  0
LINE
  8
0
  6
CONTINUOUS
 62
     7
  5
45
 10
167.447534
 20
161.926869
 30
0.0
 11
167.447534
 21
170.326869
 31
0.0
  0
LINE
  8
0
  6
CONTINUOUS
 62
     7
  5
46
 10
88.947534
 20
151.926869
 30
0.0
 11
88.947534
 21
143.926869
 31
0.0
  0
LINE
  8
0
  6
CONTINUOUS
 62
     7
  5
47
 10
94.947534
 20
143.926869
 30
0.0
 11
94.947534
 21
151.926869
 31
0.0
  0
LINE
  8
0
  6
CONTINUOUS
 62
     7
  5
48
 10
149.947534
 20
143.926869
 30
0.0
 11
150.447534
 21
143.426869
 31
0.0
  0
LINE
  8
0
  6
CONTINUOUS
 62
     7
  5
49
 10
155.447534
 20
143.426869
 30
0.0
 11
155.947534
 21
143.926869
 31
0.0
  0
LINE
  8
0
  6
CONTINUOUS
 62
     7
  5
4A
 10
149.947534
 20
151.926869
 30
0.0
 11
149.947534
 21
143.926869
 31
0.0
  0
LINE
  8
0
  6
CONTINUOUS
 62
     7
  5
4B
 10
155.947534
 20
143.926869
 30
0.0
 11
155.947534
 21
151.926869
 31
0.0
  0
LINE
  8
0
  6
CONTINUOUS
 62
     7
  5
4C
 10
88.947534
 20
143.926869
 30
0.0
 11
89.447534
 21
143.426869
 31
0.0
  0
LINE
  8
0
  6
CONTINUOUS
 62
     7
  5
4D
 10
94.447534
 20
143.426869
 30
0.0
 11
94.947534
 21
143.926869
 31
0.0
  0
LINE
  8
0
  6
CONTINUOUS
 62
     7
  5
4E
 10
92.447534
 20
167.126869
 30
0.0
 11
92.447534
 21
161.926869
 31
0.0
  0
LINE
  8
0
  6
CONTINUOUS
 62
     7
  5
4F
 10
98.447534
 20
161.926869
 30
0.0
 11
98.447534
 21
167.126869
 31
0.0
  0
LINE
  8
0
  6
CONTINUOUS
 62
     7
  5
50
 10
146.447534
 20
167.126869
 30
0.0
 11
146.447534
 21
161.926869
 31
0.0
  0
LINE
  8
0
  6
CONTINUOUS
 62
     7
  5
51
 10
152.447534
 20
161.926869
 30
0.0
 11
152.447534
 21
167.126869
 31
0.0
  0
LINE
  8
0
  6
CONTINUOUS
 62
     7
  5
52
 10
159.947534
 20
151.926869
 30
0.0
 11
159.947534
 21
147.126869
 31
0.0
  0
LINE
  8
0
  6
CONTINUOUS
 62
     7
  5
53
 10
165.947534
 20
147.126869
 30
0.0
 11
165.947534
 21
151.926869
 31
0.0
  0
LINE
  8
0
  6
CONTINUOUS
 62
     7
  5
54
 10
78.947534
 20
151.926869
 30
0.0
 11
78.947534
 21
147.126869
 31
0.0
  0
LINE
  8
0
  6
CONTINUOUS
 62
     7
  5
55
 10
84.947534
 20
147.126869
 30
0.0
 11
84.947534
 21
151.926869
 31
0.0
  0
LINE
  8
0
  6
CONTINUOUS
 62
     7
  5
56
 10
78.947534
 20
147.126869
 30
0.0
 11
79.269073
 21
145.926869
 31
0.0
  0
LINE
  8
0
  6
CONTINUOUS
 62
     7
  5
57
 10
84.625995
 20
145.926869
 30
0.0
 11
84.947534
 21
147.126869
 31
0.0
  0
LINE
  8
0
  6
CONTINUOUS
 62
     7
  5
58
 10
159.947534
 20
147.126869
 30
0.0
 11
160.269073
 21
145.926869
 31
0.0
  0
LINE
  8
0
  6
CONTINUOUS
 62
     7
  5
59
 10
165.625995
 20
145.926869
 30
0.0
 11
165.947534
 21
147.126869
 31
0.0
  0
ARC
  8
0
  6
CONTINUOUS
 62
     7
  5
5A
 10
95.454201
 20
161.926872
 30
0.0
 40
6.0
 50
60.073494
 51
90.0
210
0.0
220
0.0
230
1.0
  0
ARC
  8
0
  6
CONTINUOUS
 62
     7
  5
5B
 10
95.440866
 20
161.926872
 30
0.0
 40
6.0
 50
90.0
 51
119.926506
210
0.0
220
0.0
230
1.0
  0
LINE
  8
0
  6
CONTINUOUS
 62
     7
  5
5C
 10
95.454201
 20
167.926872
 30
0.0
 11
95.440866
 21
167.926872
 31
0.0
  0
ARC
  8
0
  6
CONTINUOUS
 62
     7
  5
5D
 10
149.454201
 20
161.926872
 30
0.0
 40
6.0
 50
60.073494
 51
90.0
210
0.0
220
0.0
230
1.0
  0
ARC
  8
0
  6
CONTINUOUS
 62
     7
  5
5E
 10
149.440866
 20
161.926872
 30
0.0
 40
6.0
 50
90.0
 51
119.926506
210
0.0
220
0.0
230
1.0
  0
LINE
  8
0
  6
CONTINUOUS
 62
     7
  5
5F
 10
149.454201
 20
167.926872
 30
0.0
 11
149.440866
 21
167.926872
 31
0.0
  0
ENDBLK
  8
0
  5
60
  0
BLOCK
  8
0
  5
63
  2
AID123
 70
     0
 10
0.0
 20
0.0
 30
0.0
  3
#auxiliary draft view
  0
CIRCLE
  8
0
  6
CONTINUOUS
 62
     7
  5
64
 10
152.947534
 20
309.681468
 30
0.0
 40
2.5
210
0.0
220
0.0
230
1.0
  0
CIRCLE
  8
0
  6
CONTINUOUS
 62
     7
  5
65
 10
152.947534
 20
309.681468
 30
0.0
 40
3.0
210
0.0
220
0.0
230
1.0
  0
CIRCLE
  8
0
  6
CONTINUOUS
 62
     7
  5
66
 10
91.947534
 20
309.681468
 30
0.0
 40
2.5
210
0.0
220
0.0
230
1.0
  0
CIRCLE
  8
0
  6
CONTINUOUS
 62
     7
  5
67
 10
91.947534
 20
309.681468
 30
0.0
 40
3.0
210
0.0
220
0.0
230
1.0
  0
CIRCLE
  8
0
  6
CONTINUOUS
 62
     7
  5
68
 10
91.947534
 20
277.181468
 30
0.0
 40
2.5
210
0.0
220
0.0
230
1.0
  0
CIRCLE
  8
0
  6
CONTINUOUS
 62
     7
  5
69
 10
91.947534
 20
277.181468
 30
0.0
 40
3.0
210
0.0
220
0.0
230
1.0
  0
CIRCLE
  8
0
  6
CONTINUOUS
 62
     7
  5
6A
 10
152.947534
 20
277.181468
 30
0.0
 40
2.5
210
0.0
220
0.0
230
1.0
  0
CIRCLE
  8
0
  6
CONTINUOUS
 62
     7
  5
6B
 10
152.947534
 20
277.181468
 30
0.0
 40
3.0
210
0.0
220
0.0
230
1.0
  0
CIRCLE
  8
0
  6
CONTINUOUS
 62
     7
  5
6C
 10
162.947534
 20
293.431468
 30
0.0
 40
2.678461
210
0.0
220
0.0
230
1.0
  0
CIRCLE
  8
0
  6
CONTINUOUS
 62
     7
  5
6D
 10
162.947534
 20
293.431468
 30
0.0
 40
3.0
210
0.0
220
0.0
230
1.0
  0
CIRCLE
  8
0
  6
CONTINUOUS
 62
     7
  5
6E
 10
81.947534
 20
293.431468
 30
0.0
 40
2.678461
210
0.0
220
0.0
230
1.0
  0
CIRCLE
  8
0
  6
CONTINUOUS
 62
     7
  5
6F
 10
81.947534
 20
293.431468
 30
0.0
 40
3.0
210
0.0
220
0.0
230
1.0
  0
CIRCLE
  8
0
  6
CONTINUOUS
 62
     7
  5
70
 10
164.447534
 20
274.431468
 30
0.0
 40
3.0
210
0.0
220
0.0
230
1.0
  0
CIRCLE
  8
0
  6
CONTINUOUS
 62
     7
  5
71
 10
80.447534
 20
274.431468
 30
0.0
 40
3.0
210
0.0
220
0.0
230
1.0
  0
CIRCLE
  8
0
  6
CONTINUOUS
 62
     7
  5
72
 10
164.447534
 20
312.431468
 30
0.0
 40
3.0
210
0.0
220
0.0
230
1.0
  0
CIRCLE
  8
0
  6
CONTINUOUS
 62
     7
  5
73
 10
80.447534
 20
312.431468
 30
0.0
 40
3.0
210
0.0
220
0.0
230
1.0
  0
CIRCLE
  8
0
  6
CONTINUOUS
 62
     7
  5
74
 10
149.447534
 20
293.431468
 30
0.0
 40
3.0
210
0.0
220
0.0
230
1.0
  0
CIRCLE
  8
0
  6
CONTINUOUS
 62
     7
  5
75
 10
95.447534
 20
293.431468
 30
0.0
 40
3.0
210
0.0
220
0.0
230
1.0
  0
CIRCLE
  8
0
  6
CONTINUOUS
 62
     7
  5
76
 10
152.947534
 20
277.181468
 30
0.0
 40
3.25
210
0.0
220
0.0
230
1.0
  0
CIRCLE
  8
0
  6
CONTINUOUS
 62
     7
  5
77
 10
91.947534
 20
277.181468
 30
0.0
 40
3.25
210
0.0
220
0.0
230
1.0
  0
CIRCLE
  8
0
  6
CONTINUOUS
 62
     7
  5
78
 10
152.947534
 20
309.681468
 30
0.0
 40
3.25
210
0.0
220
0.0
230
1.0
  0
CIRCLE
  8
0
  6
CONTINUOUS
 62
     7
  5
79
 10
91.947534
 20
309.681468
 30
0.0
 40
3.25
210
0.0
220
0.0
230
1.0
  0
LINE
  8
0
  6
CONTINUOUS
 62
     7
  5
7A
 10
170.947534
 20
315.931468
 30
0.0
 11
167.947534
 21
318.931468
 31
0.0
  0
LINE
  8
0
  6
CONTINUOUS
 62
     7
  5
7B
 10
170.947534
 20
270.931468
 30
0.0
 11
170.947534
 21
315.931468
 31
0.0
  0
LINE
  8
0
  6
CONTINUOUS
 62
     7
  5
7C
 10
167.947534
 20
267.931468
 30
0.0
 11
170.947534
 21
270.931468
 31
0.0
  0
LINE
  8
0
  6
CONTINUOUS
 62
     7
  5
7D
 10
76.947534
 20
267.931468
 30
0.0
 11
167.947534
 21
267.931468
 31
0.0
  0
LINE
  8
0
  6
CONTINUOUS
 62
     7
  5
7E
 10
73.947534
 20
270.931468
 30
0.0
 11
76.947534
 21
267.931468
 31
0.0
  0
LINE
  8
0
  6
CONTINUOUS
 62
     7
  5
7F
 10
73.947534
 20
315.931468
 30
0.0
 11
73.947534
 21
270.931468
 31
0.0
  0
LINE
  8
0
  6
CONTINUOUS
 62
     7
  5
80
 10
167.947534
 20
318.931468
 30
0.0
 11
76.947534
 21
318.931468
 31
0.0
  0
LINE
  8
0
  6
CONTINUOUS
 62
     7
  5
81
 10
76.947534
 20
318.931468
 30
0.0
 11
73.947534
 21
315.931468
 31
0.0
  0
CIRCLE
  8
0
  6
CONTINUOUS
 62
     7
  5
82
 10
80.447534
 20
312.431468
 30
0.0
 40
2.459
210
0.0
220
0.0
230
1.0
  0
CIRCLE
  8
0
  6
CONTINUOUS
 62
     7
  5
83
 10
164.447534
 20
312.431468
 30
0.0
 40
2.459
210
0.0
220
0.0
230
1.0
  0
CIRCLE
  8
0
  6
CONTINUOUS
 62
     7
  5
84
 10
95.447534
 20
293.431468
 30
0.0
 40
2.678461
210
0.0
220
0.0
230
1.0
  0
CIRCLE
  8
0
  6
CONTINUOUS
 62
     7
  5
85
 10
149.447534
 20
293.431468
 30
0.0
 40
2.678461
210
0.0
220
0.0
230
1.0
  0
CIRCLE
  8
0
  6
CONTINUOUS
 62
     7
  5
86
 10
164.447534
 20
274.431468
 30
0.0
 40
2.459
210
0.0
220
0.0
230
1.0
  0
CIRCLE
  8
0
  6
CONTINUOUS
 62
     7
  5
87
 10
80.447534
 20
274.431468
 30
0.0
 40
2.459
210
0.0
220
0.0
230
1.0
  0
ENDBLK
  8
0
  5
88
  0
BLOCK
  8
0
  5
8B
  2
AID199
 70
     0
 10
0.0
 20
0.0
 30
0.0
  3
#auxiliary draft view
  0
LINE
  8
0
  6
CONTINUOUS
 62
     7
  5
8C
 10
161.947534
 20
46.765645
 30
0.0
 11
164.447534
 21
48.20902
 31
0.0
  0
LINE
  8
0
  6
CONTINUOUS
 62
     7
  5
8D
 10
161.947534
 20
43.878893
 30
0.0
 11
161.947534
 21
46.765645
 31
0.0
  0
LINE
  8
0
  6
CONTINUOUS
 62
     7
  5
8E
 10
164.447534
 20
42.435518
 30
0.0
 11
161.947534
 21
43.878893
 31
0.0
  0
LINE
  8
0
  6
CONTINUOUS
 62
     7
  5
8F
 10
166.947534
 20
43.878893
 30
0.0
 11
164.447534
 21
42.435518
 31
0.0
  0
LINE
  8
0
  6
CONTINUOUS
 62
     7
  5
90
 10
166.947534
 20
46.765645
 30
0.0
 11
166.947534
 21
43.878893
 31
0.0
  0
LINE
  8
0
  6
CONTINUOUS
 62
     7
  5
91
 10
164.447534
 20
48.20902
 30
0.0
 11
166.947534
 21
46.765645
 31
0.0
  0
CIRCLE
  8
0
  6
CONTINUOUS
 62
     7
  5
92
 10
164.447534
 20
45.322269
 30
0.0
 40
5.0
210
0.0
220
0.0
230
1.0
  0
LINE
  8
0
  6
CONTINUOUS
 62
     7
  5
93
 10
166.947534
 20
5.878893
 30
0.0
 11
166.947534
 21
8.765645
 31
0.0
  0
CIRCLE
  8
0
  6
CONTINUOUS
 62
     7
  5
94
 10
164.447534
 20
7.322269
 30
0.0
 40
5.0
210
0.0
220
0.0
230
1.0
  0
LINE
  8
0
  6
CONTINUOUS
 62
     7
  5
95
 10
164.447534
 20
4.435518
 30
0.0
 11
166.947534
 21
5.878893
 31
0.0
  0
LINE
  8
0
  6
CONTINUOUS
 62
     7
  5
96
 10
161.947534
 20
5.878893
 30
0.0
 11
164.447534
 21
4.435518
 31
0.0
  0
LINE
  8
0
  6
CONTINUOUS
 62
     7
  5
97
 10
161.947534
 20
8.765645
 30
0.0
 11
161.947534
 21
5.878893
 31
0.0
  0
LINE
  8
0
  6
CONTINUOUS
 62
     7
  5
98
 10
164.447534
 20
10.20902
 30
0.0
 11
161.947534
 21
8.765645
 31
0.0
  0
LINE
  8
0
  6
CONTINUOUS
 62
     7
  5
99
 10
166.947534
 20
8.765645
 30
0.0
 11
164.447534
 21
10.20902
 31
0.0
  0
CIRCLE
  8
0
  6
CONTINUOUS
 62
     7
  5
9A
 10
80.447534
 20
45.322269
 30
0.0
 40
5.0
210
0.0
220
0.0
230
1.0
  0
LINE
  8
0
  6
CONTINUOUS
 62
     7
  5
9B
 10
80.447534
 20
48.20902
 30
0.0
 11
77.947534
 21
46.765645
 31
0.0
  0
LINE
  8
0
  6
CONTINUOUS
 62
     7
  5
9C
 10
82.947534
 20
46.765645
 30
0.0
 11
80.447534
 21
48.20902
 31
0.0
  0
LINE
  8
0
  6
CONTINUOUS
 62
     7
  5
9D
 10
82.947534
 20
43.878893
 30
0.0
 11
82.947534
 21
46.765645
 31
0.0
  0
LINE
  8
0
  6
CONTINUOUS
 62
     7
  5
9E
 10
80.447534
 20
42.435518
 30
0.0
 11
82.947534
 21
43.878893
 31
0.0
  0
LINE
  8
0
  6
CONTINUOUS
 62
     7
  5
9F
 10
77.947534
 20
43.878893
 30
0.0
 11
80.447534
 21
42.435518
 31
0.0
  0
LINE
  8
0
  6
CONTINUOUS
 62
     7
  5
A0
 10
77.947534
 20
46.765645
 30
0.0
 11
77.947534
 21
43.878893
 31
0.0
  0
CIRCLE
  8
0
  6
CONTINUOUS
 62
     7
  5
A1
 10
80.447534
 20
7.322269
 30
0.0
 40
5.0
210
0.0
220
0.0
230
1.0
  0
LINE
  8
0
  6
CONTINUOUS
 62
     7
  5
A2
 10
82.947534
 20
8.765645
 30
0.0
 11
82.947534
 21
5.878893
 31
0.0
  0
LINE
  8
0
  6
CONTINUOUS
 62
     7
  5
A3
 10
80.447534
 20
10.20902
 30
0.0
 11
82.947534
 21
8.765645
 31
0.0
  0
LINE
  8
0
  6
CONTINUOUS
 62
     7
  5
A4
 10
80.447534
 20
4.435518
 30
0.0
 11
77.947534
 21
5.878893
 31
0.0
  0
LINE
  8
0
  6
CONTINUOUS
 62
     7
  5
A5
 10
82.947534
 20
5.878893
 30
0.0
 11
80.447534
 21
4.435518
 31
0.0
  0
LINE
  8
0
  6
CONTINUOUS
 62
     7
  5
A6
 10
77.947534
 20
8.765645
 30
0.0
 11
80.447534
 21
10.20902
 31
0.0
  0
LINE
  8
0
  6
CONTINUOUS
 62
     7
  5
A7
 10
77.947534
 20
5.878893
 30
0.0
 11
77.947534
 21
8.765645
 31
0.0
  0
CIRCLE
  8
0
  6
CONTINUOUS
 62
     7
  5
A8
 10
149.447534
 20
26.322269
 30
0.0
 40
3.0
210
0.0
220
0.0
230
1.0
  0
CIRCLE
  8
0
  6
CONTINUOUS
 62
     7
  5
A9
 10
95.447534
 20
26.322269
 30
0.0
 40
3.0
210
0.0
220
0.0
230
1.0
  0
CIRCLE
  8
0
  6
CONTINUOUS
 62
     7
  5
AA
 10
152.947534
 20
42.572269
 30
0.0
 40
5.5
210
0.0
220
0.0
230
1.0
  0
CIRCLE
  8
0
  6
CONTINUOUS
 62
     7
  5
AB
 10
91.947534
 20
42.572269
 30
0.0
 40
5.5
210
0.0
220
0.0
230
1.0
  0
CIRCLE
  8
0
  6
CONTINUOUS
 62
     7
  5
AC
 10
152.947534
 20
10.072269
 30
0.0
 40
5.5
210
0.0
220
0.0
230
1.0
  0
CIRCLE
  8
0
  6
CONTINUOUS
 62
     7
  5
AD
 10
91.947534
 20
10.072269
 30
0.0
 40
5.5
210
0.0
220
0.0
230
1.0
  0
CIRCLE
  8
0
  6
CONTINUOUS
 62
     7
  5
AE
 10
162.947534
 20
26.322269
 30
0.0
 40
3.0
210
0.0
220
0.0
230
1.0
  0
CIRCLE
  8
0
  6
CONTINUOUS
 62
     7
  5
AF
 10
81.947534
 20
26.322269
 30
0.0
 40
3.0
210
0.0
220
0.0
230
1.0
  0
LINE
  8
0
  6
CONTINUOUS
 62
     7
  5
B0
 10
170.947534
 20
48.822269
 30
0.0
 11
167.947534
 21
51.822269
 31
0.0
  0
LINE
  8
0
  6
CONTINUOUS
 62
     7
  5
B1
 10
170.947534
 20
48.822269
 30
0.0
 11
170.947534
 21
3.822269
 31
0.0
  0
LINE
  8
0
  6
CONTINUOUS
 62
     7
  5
B2
 10
167.947534
 20
0.822269
 30
0.0
 11
170.947534
 21
3.822269
 31
0.0
  0
LINE
  8
0
  6
CONTINUOUS
 62
     7
  5
B3
 10
167.947534
 20
0.822269
 30
0.0
 11
76.947534
 21
0.822269
 31
0.0
  0
LINE
  8
0
  6
CONTINUOUS
 62
     7
  5
B4
 10
73.947534
 20
3.822269
 30
0.0
 11
76.947534
 21
0.822269
 31
0.0
  0
LINE
  8
0
  6
CONTINUOUS
 62
     7
  5
B5
 10
73.947534
 20
3.822269
 30
0.0
 11
73.947534
 21
48.822269
 31
0.0
  0
LINE
  8
0
  6
CONTINUOUS
 62
     7
  5
B6
 10
76.947534
 20
51.822269
 30
0.0
 11
73.947534
 21
48.822269
 31
0.0
  0
LINE
  8
0
  6
CONTINUOUS
 62
     7
  5
B7
 10
76.947534
 20
51.822269
 30
0.0
 11
167.947534
 21
51.822269
 31
0.0
  0
LINE
  8
0
  6
CONTINUOUS
 62
     7
  5
B8
 10
94.447534
 20
8.628893
 30
0.0
 11
91.947534
 21
7.185518
 31
0.0
  0
LINE
  8
0
  6
CONTINUOUS
 62
     7
  5
B9
 10
94.447534
 20
11.515645
 30
0.0
 11
94.447534
 21
8.628893
 31
0.0
  0
LINE
  8
0
  6
CONTINUOUS
 62
     7
  5
BA
 10
91.947534
 20
12.95902
 30
0.0
 11
94.447534
 21
11.515645
 31
0.0
  0
LINE
  8
0
  6
CONTINUOUS
 62
     7
  5
BB
 10
89.447534
 20
11.515645
 30
0.0
 11
91.947534
 21
12.95902
 31
0.0
  0
LINE
  8
0
  6
CONTINUOUS
 62
     7
  5
BC
 10
89.447534
 20
8.628893
 30
0.0
 11
89.447534
 21
11.515645
 31
0.0
  0
LINE
  8
0
  6
CONTINUOUS
 62
     7
  5
BD
 10
91.947534
 20
7.185518
 30
0.0
 11
89.447534
 21
8.628893
 31
0.0
  0
CIRCLE
  8
0
  6
CONTINUOUS
 62
     7
  5
BE
 10
91.947534
 20
10.072269
 30
0.0
 40
5.0
210
0.0
220
0.0
230
1.0
  0
LINE
  8
0
  6
CONTINUOUS
 62
     7
  5
BF
 10
152.947534
 20
39.685518
 30
0.0
 11
150.447534
 21
41.128893
 31
0.0
  0
LINE
  8
0
  6
CONTINUOUS
 62
     7
  5
C0
 10
152.947534
 20
45.45902
 30
0.0
 11
155.447534
 21
44.015645
 31
0.0
  0
LINE
  8
0
  6
CONTINUOUS
 62
     7
  5
C1
 10
155.447534
 20
41.128893
 30
0.0
 11
152.947534
 21
39.685518
 31
0.0
  0
LINE
  8
0
  6
CONTINUOUS
 62
     7
  5
C2
 10
150.447534
 20
41.128893
 30
0.0
 11
150.447534
 21
44.015645
 31
0.0
  0
LINE
  8
0
  6
CONTINUOUS
 62
     7
  5
C3
 10
150.447534
 20
44.015645
 30
0.0
 11
152.947534
 21
45.45902
 31
0.0
  0
LINE
  8
0
  6
CONTINUOUS
 62
     7
  5
C4
 10
155.447534
 20
44.015645
 30
0.0
 11
155.447534
 21
41.128893
 31
0.0
  0
CIRCLE
  8
0
  6
CONTINUOUS
 62
     7
  5
C5
 10
152.947534
 20
42.572269
 30
0.0
 40
5.0
210
0.0
220
0.0
230
1.0
  0
LINE
  8
0
  6
CONTINUOUS
 62
     7
  5
C6
 10
89.447534
 20
44.015645
 30
0.0
 11
89.447534
 21
41.128893
 31
0.0
  0
LINE
  8
0
  6
CONTINUOUS
 62
     7
  5
C7
 10
89.447534
 20
41.128893
 30
0.0
 11
91.947534
 21
39.685518
 31
0.0
  0
LINE
  8
0
  6
CONTINUOUS
 62
     7
  5
C8
 10
91.947534
 20
39.685518
 30
0.0
 11
94.447534
 21
41.128893
 31
0.0
  0
LINE
  8
0
  6
CONTINUOUS
 62
     7
  5
C9
 10
94.447534
 20
41.128893
 30
0.0
 11
94.447534
 21
44.015645
 31
0.0
  0
LINE
  8
0
  6
CONTINUOUS
 62
     7
  5
CA
 10
94.447534
 20
44.015645
 30
0.0
 11
91.947534
 21
45.45902
 31
0.0
  0
LINE
  8
0
  6
CONTINUOUS
 62
     7
  5
CB
 10
91.947534
 20
45.45902
 30
0.0
 11
89.447534
 21
44.015645
 31
0.0
  0
CIRCLE
  8
0
  6
CONTINUOUS
 62
     7
  5
CC
 10
91.947534
 20
42.572269
 30
0.0
 40
5.0
210
0.0
220
0.0
230
1.0
  0
LINE
  8
0
  6
CONTINUOUS
 62
     7
  5
CD
 10
155.447534
 20
8.628893
 30
0.0
 11
155.447534
 21
11.515645
 31
0.0
  0
LINE
  8
0
  6
CONTINUOUS
 62
     7
  5
CE
 10
155.447534
 20
11.515645
 30
0.0
 11
152.947534
 21
12.95902
 31
0.0
  0
LINE
  8
0
  6
CONTINUOUS
 62
     7
  5
CF
 10
152.947534
 20
12.95902
 30
0.0
 11
150.447534
 21
11.515645
 31
0.0
  0
LINE
  8
0
  6
CONTINUOUS
 62
     7
  5
D0
 10
150.447534
 20
11.515645
 30
0.0
 11
150.447534
 21
8.628893
 31
0.0
  0
LINE
  8
0
  6
CONTINUOUS
 62
     7
  5
D1
 10
150.447534
 20
8.628893
 30
0.0
 11
152.947534
 21
7.185518
 31
0.0
  0
LINE
  8
0
  6
CONTINUOUS
 62
     7
  5
D2
 10
152.947534
 20
7.185518
 30
0.0
 11
155.447534
 21
8.628893
 31
0.0
  0
CIRCLE
  8
0
  6
CONTINUOUS
 62
     7
  5
D3
 10
152.947534
 20
10.072269
 30
0.0
 40
5.0
210
0.0
220
0.0
230
1.0
  0
ENDBLK
  8
0
  5
D4
  0
BLOCK
  8
0
  5
D7
  2
AID347
 70
     0
 10
0.0
 20
0.0
 30
0.0
  3
#auxiliary draft view
  0
LINE
  8
0
  6
CONTINUOUS
 62
     7
  5
D8
 10
311.148813
 20
151.926869
 30
0.0
 11
311.148813
 21
161.926869
 31
0.0
  0
LINE
  8
0
  6
CONTINUOUS
 62
     7
  5
D9
 10
311.148813
 20
151.926869
 30
0.0
 11
266.148813
 21
151.926869
 31
0.0
  0
LINE
  8
0
  6
CONTINUOUS
 62
     7
  5
DA
 10
266.148813
 20
161.926869
 30
0.0
 11
266.148813
 21
151.926869
 31
0.0
  0
LINE
  8
0
  6
CONTINUOUS
 62
     7
  5
DB
 10
311.148813
 20
161.926869
 30
0.0
 11
266.148813
 21
161.926869
 31
0.0
  0
LINE
  8
0
  6
CONTINUOUS
 62
     7
  5
DC
 10
266.148813
 20
151.926869
 30
0.0
 11
263.148813
 21
151.926869
 31
0.0
  0
LINE
  8
0
  6
CONTINUOUS
 62
     7
  5
DD
 10
263.148813
 20
151.926869
 30
0.0
 11
263.148813
 21
161.926869
 31
0.0
  0
LINE
  8
0
  6
CONTINUOUS
 62
     7
  5
DE
 10
263.148813
 20
161.926869
 30
0.0
 11
266.148813
 21
161.926869
 31
0.0
  0
LINE
  8
0
  6
CONTINUOUS
 62
     7
  5
DF
 10
314.148813
 20
161.926869
 30
0.0
 11
314.148813
 21
151.926869
 31
0.0
  0
LINE
  8
0
  6
CONTINUOUS
 62
     7
  5
E0
 10
314.148813
 20
151.926869
 30
0.0
 11
311.148813
 21
151.926869
 31
0.0
  0
LINE
  8
0
  6
CONTINUOUS
 62
     7
  5
E1
 10
311.148813
 20
161.926869
 30
0.0
 11
314.148813
 21
161.926869
 31
0.0
  0
LINE
  8
0
  6
CONTINUOUS
 62
     7
  5
E2
 10
264.648813
 20
176.326869
 30
0.0
 11
274.648813
 21
176.326869
 31
0.0
  0
LINE
  8
0
  6
CONTINUOUS
 62
     7
  5
E3
 10
274.648813
 20
170.326869
 30
0.0
 11
269.648813
 21
170.326869
 31
0.0
  0
LINE
  8
0
  6
CONTINUOUS
 62
     7
  5
E4
 10
269.648813
 20
170.326869
 30
0.0
 11
264.648813
 21
170.326869
 31
0.0
  0
LINE
  8
0
  6
CONTINUOUS
 62
     7
  5
E5
 10
312.648813
 20
176.326869
 30
0.0
 11
302.648813
 21
176.326869
 31
0.0
  0
LINE
  8
0
  6
CONTINUOUS
 62
     7
  5
E6
 10
302.648813
 20
170.326869
 30
0.0
 11
307.648813
 21
170.326869
 31
0.0
  0
LINE
  8
0
  6
CONTINUOUS
 62
     7
  5
E7
 10
307.648813
 20
170.326869
 30
0.0
 11
312.648813
 21
170.326869
 31
0.0
  0
LINE
  8
0
  6
CONTINUOUS
 62
     7
  5
E8
 10
291.648813
 20
147.126869
 30
0.0
 11
285.648813
 21
147.126869
 31
0.0
  0
LINE
  8
0
  6
CONTINUOUS
 62
     7
  5
E9
 10
291.327274
 20
145.926869
 30
0.0
 11
288.648813
 21
145.926869
 31
0.0
  0
LINE
  8
0
  6
CONTINUOUS
 62
     7
  5
EA
 10
288.648813
 20
145.926869
 30
0.0
 11
285.970352
 21
145.926869
 31
0.0
  0
LINE
  8
0
  6
CONTINUOUS
 62
     7
  5
EB
 10
301.898813
 20
143.926869
 30
0.0
 11
307.898813
 21
143.926869
 31
0.0
  0
LINE
  8
0
  6
CONTINUOUS
 62
     7
  5
EC
 10
275.398813
 20
143.926869
 30
0.0
 11
269.398813
 21
143.926869
 31
0.0
  0
LINE
  8
0
  6
CONTINUOUS
 62
     7
  5
ED
 10
269.898813
 20
143.426869
 30
0.0
 11
274.898813
 21
143.426869
 31
0.0
  0
LINE
  8
0
  6
CONTINUOUS
 62
     7
  5
EE
 10
307.398813
 20
143.426869
 30
0.0
 11
302.398813
 21
143.426869
 31
0.0
  0
LINE
  8
0
  6
CONTINUOUS
 62
     7
  5
EF
 10
285.648813
 20
167.126869
 30
0.0
 11
288.648813
 21
167.126869
 31
0.0
  0
LINE
  8
0
  6
CONTINUOUS
 62
     7
  5
F0
 10
288.648813
 20
167.126869
 30
0.0
 11
291.648813
 21
167.126869
 31
0.0
  0
LINE
  8
0
  6
CONTINUOUS
 62
     7
  5
F1
 10
274.648813
 20
170.326869
 30
0.0
 11
274.648813
 21
176.326869
 31
0.0
  0
LINE
  8
0
  6
CONTINUOUS
 62
     7
  5
F2
 10
264.648813
 20
176.326869
 30
0.0
 11
264.648813
 21
170.326869
 31
0.0
  0
LINE
  8
0
  6
CONTINUOUS
 62
     7
  5
F3
 10
312.648813
 20
170.326869
 30
0.0
 11
312.648813
 21
176.326869
 31
0.0
  0
LINE
  8
0
  6
CONTINUOUS
 62
     7
  5
F4
 10
302.648813
 20
176.326869
 30
0.0
 11
302.648813
 21
170.326869
 31
0.0
  0
LINE
  8
0
  6
CONTINUOUS
 62
     7
  5
F5
 10
266.648813
 20
170.326869
 30
0.0
 11
266.648813
 21
161.926869
 31
0.0
  0
LINE
  8
0
  6
CONTINUOUS
 62
     7
  5
F6
 10
272.648813
 20
161.926869
 30
0.0
 11
272.648813
 21
170.326869
 31
0.0
  0
LINE
  8
0
  6
CONTINUOUS
 62
     7
  5
F7
 10
304.648813
 20
170.326869
 30
0.0
 11
304.648813
 21
161.926869
 31
0.0
  0
LINE
  8
0
  6
CONTINUOUS
 62
     7
  5
F8
 10
310.648813
 20
161.926869
 30
0.0
 11
310.648813
 21
170.326869
 31
0.0
  0
LINE
  8
0
  6
CONTINUOUS
 62
     7
  5
F9
 10
285.648813
 20
151.926869
 30
0.0
 11
285.648813
 21
147.126869
 31
0.0
  0
LINE
  8
0
  6
CONTINUOUS
 62
     7
  5
FA
 10
291.648813
 20
147.126869
 30
0.0
 11
291.648813
 21
151.926869
 31
0.0
  0
LINE
  8
0
  6
CONTINUOUS
 62
     7
  5
FB
 10
285.648813
 20
147.126869
 30
0.0
 11
285.970352
 21
145.926869
 31
0.0
  0
LINE
  8
0
  6
CONTINUOUS
 62
     7
  5
FC
 10
291.327274
 20
145.926869
 30
0.0
 11
291.648813
 21
147.126869
 31
0.0
  0
LINE
  8
0
  6
CONTINUOUS
 62
     7
  5
FD
 10
301.898813
 20
151.926869
 30
0.0
 11
301.898813
 21
143.926869
 31
0.0
  0
LINE
  8
0
  6
CONTINUOUS
 62
     7
  5
FE
 10
307.898813
 20
143.926869
 30
0.0
 11
307.898813
 21
151.926869
 31
0.0
  0
LINE
  8
0
  6
CONTINUOUS
 62
     7
  5
FF
 10
269.398813
 20
151.926869
 30
0.0
 11
269.398813
 21
143.926869
 31
0.0
  0
LINE
  8
0
  6
CONTINUOUS
 62
     7
  5
100
 10
275.398813
 20
143.926869
 30
0.0
 11
275.398813
 21
151.926869
 31
0.0
  0
LINE
  8
0
  6
CONTINUOUS
 62
     7
  5
101
 10
269.398813
 20
143.926869
 30
0.0
 11
269.898813
 21
143.426869
 31
0.0
  0
LINE
  8
0
  6
CONTINUOUS
 62
     7
  5
102
 10
274.898813
 20
143.426869
 30
0.0
 11
275.398813
 21
143.926869
 31
0.0
  0
LINE
  8
0
  6
CONTINUOUS
 62
     7
  5
103
 10
301.898813
 20
143.926869
 30
0.0
 11
302.398813
 21
143.426869
 31
0.0
  0
LINE
  8
0
  6
CONTINUOUS
 62
     7
  5
104
 10
307.398813
 20
143.426869
 30
0.0
 11
307.898813
 21
143.926869
 31
0.0
  0
ARC
  8
0
  6
CONTINUOUS
 62
     7
  5
105
 10
288.655481
 20
161.926872
 30
0.0
 40
6.0
 50
60.073494
 51
90.0
210
0.0
220
0.0
230
1.0
  0
ARC
  8
0
  6
CONTINUOUS
 62
     7
  5
106
 10
288.642146
 20
161.926872
 30
0.0
 40
6.0
 50
90.0
 51
119.926506
210
0.0
220
0.0
230
1.0
  0
LINE
  8
0
  6
CONTINUOUS
 62
     7
  5
107
 10
288.655481
 20
167.926872
 30
0.0
 11
288.642146
 21
167.926872
 31
0.0
  0
LINE
  8
0
  6
CONTINUOUS
 62
     7
  5
108
 10
285.648813
 20
167.126869
 30
0.0
 11
285.648813
 21
161.926869
 31
0.0
  0
LINE
  8
0
  6
CONTINUOUS
 62
     7
  5
109
 10
291.648813
 20
161.926869
 30
0.0
 11
291.648813
 21
167.126869
 31
0.0
  0
ENDBLK
  8
0
  5
10A
  0
ENDSEC
  0
SECTION
  2
ENTITIES
  0
INSERT
  8
0
  5
61
  2
AID3
 10
0.0
 20
0.0
 30
0.0
  0
INSERT
  8
0
  5
89
  2
AID123
 10
0.0
 20
0.0
 30
0.0
  0
INSERT
  8
0
  5
D5
  2
AID199
 10
0.0
 20
0.0
 30
0.0
  0
INSERT
  8
0
  5
10B
  2
AID347
 10
0.0
 20
0.0
 30
0.0
  0
LINE
  8
0
  6
CENTER
 62
     1
  5
10D
 10
74.447534
 20
274.431468
 30
0.0
 11
86.447534
 21
274.431468
 31
0.0
  0
LINE
  8
0
  6
CENTER
 62
     1
  5
10E
 10
80.447534
 20
268.431468
 30
0.0
 11
80.447534
 21
280.431468
 31
0.0
  0
LINE
  8
0
  6
CENTER
 62
     1
  5
10F
 10
74.447534
 20
312.431468
 30
0.0
 11
86.447534
 21
312.431468
 31
0.0
  0
LINE
  8
0
  6
CENTER
 62
     1
  5
110
 10
80.447534
 20
306.431468
 30
0.0
 11
80.447534
 21
318.431468
 31
0.0
  0
LINE
  8
0
  6
CENTER
 62
     1
  5
111
 10
75.947534
 20
293.431468
 30
0.0
 11
87.947534
 21
293.431468
 31
0.0
  0
LINE
  8
0
  6
CENTER
 62
     1
  5
112
 10
81.947534
 20
287.431468
 30
0.0
 11
81.947534
 21
299.431468
 31
0.0
  0
LINE
  8
0
  6
CENTER
 62
     1
  5
113
 10
85.697534
 20
277.181468
 30
0.0
 11
98.197534
 21
277.181468
 31
0.0
  0
LINE
  8
0
  6
CENTER
 62
     1
  5
114
 10
91.947534
 20
270.931468
 30
0.0
 11
91.947534
 21
283.431468
 31
0.0
  0
LINE
  8
0
  6
CENTER
 62
     1
  5
115
 10
85.697534
 20
309.681468
 30
0.0
 11
98.197534
 21
309.681468
 31
0.0
  0
LINE
  8
0
  6
CENTER
 62
     1
  5
116
 10
91.947534
 20
303.431468
 30
0.0
 11
91.947534
 21
315.931468
 31
0.0
  0
LINE
  8
0
  6
CENTER
 62
     1
  5
117
 10
89.447534
 20
293.431468
 30
0.0
 11
101.447534
 21
293.431468
 31
0.0
  0
LINE
  8
0
  6
CENTER
 62
     1
  5
118
 10
95.447534
 20
287.431468
 30
0.0
 11
95.447534
 21
299.431468
 31
0.0
  0
LINE
  8
0
  6
CENTER
 62
     1
  5
119
 10
143.447534
 20
293.431468
 30
0.0
 11
155.447534
 21
293.431468
 31
0.0
  0
LINE
  8
0
  6
CENTER
 62
     1
  5
11A
 10
149.447534
 20
287.431468
 30
0.0
 11
149.447534
 21
299.431468
 31
0.0
  0
LINE
  8
0
  6
CENTER
 62
     1
  5
11B
 10
146.697534
 20
277.181468
 30
0.0
 11
159.197534
 21
277.181468
 31
0.0
  0
LINE
  8
0
  6
CENTER
 62
     1
  5
11C
 10
152.947534
 20
270.931468
 30
0.0
 11
152.947534
 21
283.431468
 31
0.0
  0
LINE
  8
0
  6
CENTER
 62
     1
  5
11D
 10
146.697534
 20
309.681468
 30
0.0
 11
159.197534
 21
309.681468
 31
0.0
  0
LINE
  8
0
  6
CENTER
 62
     1
  5
11E
 10
152.947534
 20
303.431468
 30
0.0
 11
152.947534
 21
315.931468
 31
0.0
  0
LINE
  8
0
  6
CENTER
 62
     1
  5
11F
 10
156.947534
 20
293.431468
 30
0.0
 11
168.947534
 21
293.431468
 31
0.0
  0
LINE
  8
0
  6
CENTER
 62
     1
  5
120
 10
162.947534
 20
287.431468
 30
0.0
 11
162.947534
 21
299.431468
 31
0.0
  0
LINE
  8
0
  6
CENTER
 62
     1
  5
121
 10
158.447534
 20
274.431468
 30
0.0
 11
170.447534
 21
274.431468
 31
0.0
  0
LINE
  8
0
  6
CENTER
 62
     1
  5
122
 10
164.447534
 20
268.431468
 30
0.0
 11
164.447534
 21
280.431468
 31
0.0
  0
LINE
  8
0
  6
CENTER
 62
     1
  5
123
 10
158.447534
 20
312.431468
 30
0.0
 11
170.447534
 21
312.431468
 31
0.0
  0
LINE
  8
0
  6
CENTER
 62
     1
  5
124
 10
164.447534
 20
306.431468
 30
0.0
 11
164.447534
 21
318.431468
 31
0.0
  0
LINE
  8
0
  6
CENTER
 62
     1
  5
125
 10
307.648813
 20
158.926869
 30
0.0
 11
307.648813
 21
179.326869
 31
0.0
  0
LINE
  8
0
  6
CENTER
 62
     1
  5
126
 10
304.898813
 20
140.426869
 30
0.0
 11
304.898813
 21
158.426869
 31
0.0
  0
LINE
  8
0
  6
CENTER
 62
     1
  5
127
 10
288.648813
 20
142.926869
 30
0.0
 11
288.648813
 21
156.126869
 31
0.0
  0
LINE
  8
0
  6
CENTER
 62
     1
  5
128
 10
288.648813
 20
158.126869
 30
0.0
 11
288.648813
 21
170.126869
 31
0.0
  0
LINE
  8
0
  6
CENTER
 62
     1
  5
129
 10
272.398813
 20
140.426869
 30
0.0
 11
272.398813
 21
158.426869
 31
0.0
  0
LINE
  8
0
  6
CENTER
 62
     1
  5
12A
 10
269.648813
 20
158.926869
 30
0.0
 11
269.648813
 21
179.326869
 31
0.0
  0
LINE
  8
0
  6
CENTER
 62
     1
  5
12B
 10
95.447534
 20
158.926869
 30
0.0
 11
95.447534
 21
170.126869
 31
0.0
  0
LINE
  8
0
  6
CENTER
 62
     1
  5
12C
 10
149.447534
 20
158.926869
 30
0.0
 11
149.447534
 21
170.126869
 31
0.0
  0
LINE
  8
0
  6
CENTER
 62
     1
  5
12D
 10
164.447534
 20
158.926869
 30
0.0
 11
164.447534
 21
179.326869
 31
0.0
  0
LINE
  8
0
  6
CENTER
 62
     1
  5
12E
 10
162.947534
 20
142.926869
 30
0.0
 11
162.947534
 21
154.926869
 31
0.0
  0
LINE
  8
0
  6
CENTER
 62
     1
  5
12F
 10
152.947534
 20
140.426869
 30
0.0
 11
152.947534
 21
164.426869
 31
0.0
  0
LINE
  8
0
  6
CENTER
 62
     1
  5
130
 10
91.947534
 20
140.426869
 30
0.0
 11
91.947534
 21
158.426869
 31
0.0
  0
LINE
  8
0
  6
CENTER
 62
     1
  5
131
 10
81.947534
 20
142.926869
 30
0.0
 11
81.947534
 21
154.926869
 31
0.0
  0
LINE
  8
0
  6
CENTER
 62
     1
  5
132
 10
80.447534
 20
158.926869
 30
0.0
 11
80.447534
 21
179.326869
 31
0.0
  0
LINE
  8
0
  6
CENTER
 62
     1
  5
133
 10
72.447534
 20
7.322269
 30
0.0
 11
88.447534
 21
7.322269
 31
0.0
  0
LINE
  8
0
  6
CENTER
 62
     1
  5
134
 10
80.447534
 20
-0.677731
 30
0.0
 11
80.447534
 21
15.322269
 31
0.0
  0
LINE
  8
0
  6
CENTER
 62
     1
  5
135
 10
72.447534
 20
45.322269
 30
0.0
 11
88.447534
 21
45.322269
 31
0.0
  0
LINE
  8
0
  6
CENTER
 62
     1
  5
136
 10
80.447534
 20
37.322269
 30
0.0
 11
80.447534
 21
53.322269
 31
0.0
  0
LINE
  8
0
  6
CENTER
 62
     1
  5
137
 10
75.947534
 20
26.322269
 30
0.0
 11
87.947534
 21
26.322269
 31
0.0
  0
LINE
  8
0
  6
CENTER
 62
     1
  5
138
 10
81.947534
 20
20.322269
 30
0.0
 11
81.947534
 21
32.322269
 31
0.0
  0
LINE
  8
0
  6
CENTER
 62
     1
  5
139
 10
83.447534
 20
10.072269
 30
0.0
 11
100.447534
 21
10.072269
 31
0.0
  0
LINE
  8
0
  6
CENTER
 62
     1
  5
13A
 10
91.947534
 20
1.572269
 30
0.0
 11
91.947534
 21
18.572269
 31
0.0
  0
LINE
  8
0
  6
CENTER
 62
     1
  5
13B
 10
83.447534
 20
42.572269
 30
0.0
 11
100.447534
 21
42.572269
 31
0.0
  0
LINE
  8
0
  6
CENTER
 62
     1
  5
13C
 10
91.947534
 20
34.072269
 30
0.0
 11
91.947534
 21
51.072269
 31
0.0
  0
LINE
  8
0
  6
CENTER
 62
     1
  5
13D
 10
89.447534
 20
26.322269
 30
0.0
 11
101.447534
 21
26.322269
 31
0.0
  0
LINE
  8
0
  6
CENTER
 62
     1
  5
13E
 10
95.447534
 20
20.322269
 30
0.0
 11
95.447534
 21
32.322269
 31
0.0
  0
LINE
  8
0
  6
CENTER
 62
     1
  5
13F
 10
143.447534
 20
26.322269
 30
0.0
 11
155.447534
 21
26.322269
 31
0.0
  0
LINE
  8
0
  6
CENTER
 62
     1
  5
140
 10
149.447534
 20
20.322269
 30
0.0
 11
149.447534
 21
32.322269
 31
0.0
  0
LINE
  8
0
  6
CENTER
 62
     1
  5
141
 10
144.447534
 20
10.072269
 30
0.0
 11
161.447534
 21
10.072269
 31
0.0
  0
LINE
  8
0
  6
CENTER
 62
     1
  5
142
 10
152.947534
 20
1.572269
 30
0.0
 11
152.947534
 21
18.572269
 31
0.0
  0
LINE
  8
0
  6
CENTER
 62
     1
  5
143
 10
144.447534
 20
42.572269
 30
0.0
 11
161.447534
 21
42.572269
 31
0.0
  0
LINE
  8
0
  6
CENTER
 62
     1
  5
144
 10
152.947534
 20
34.072269
 30
0.0
 11
152.947534
 21
51.072269
 31
0.0
  0
LINE
  8
0
  6
CENTER
 62
     1
  5
145
 10
156.947534
 20
26.322269
 30
0.0
 11
168.947534
 21
26.322269
 31
0.0
  0
LINE
  8
0
  6
CENTER
 62
     1
  5
146
 10
162.947534
 20
20.322269
 30
0.0
 11
162.947534
 21
32.322269
 31
0.0
  0
LINE
  8
0
  6
CENTER
 62
     1
  5
147
 10
156.447534
 20
7.322269
 30
0.0
 11
172.447534
 21
7.322269
 31
0.0
  0
LINE
  8
0
  6
CENTER
 62
     1
  5
148
 10
164.447534
 20
-0.677731
 30
0.0
 11
164.447534
 21
15.322269
 31
0.0
  0
LINE
  8
0
  6
CENTER
 62
     1
  5
149
 10
156.447534
 20
45.322269
 30
0.0
 11
172.447534
 21
45.322269
 31
0.0
  0
LINE
  8
0
  6
CENTER
 62
     1
  5
14A
 10
164.447534
 20
37.322269
 30
0.0
 11
164.447534
 21
53.322269
 31
0.0
  0
ENDSEC
  0
EOF
