  0
SECTION
  2
HEADER
  9
$ACADVER
  1
AC1009
  9
$DWGCODEPAGE
  3
ansi_1252
  9
$INSBASE
 10
0.0
 20
0.0
 30
0.0
  9
$EXTMIN
 10
-29.374733
 20
-38.463598
 30
0.0
  9
$EXTMAX
 10
472.11776
 20
334.442175
 30
5.0
  9
$LIMMIN
 10
-29.374733
 20
-38.463598
  9
$LIMMAX
 10
472.11776
 20
334.442175
  9
$ORTHOMODE
 70
     0
  9
$REGENMODE
 70
     1
  9
$FILLMODE
 70
     1
  9
$QTEXTMODE
 70
     0
  9
$MIRRTEXT
 70
     1
  9
$DRAGMODE
 70
     2
  9
$LTSCALE
 40
10.0
  9
$OSMODE
 70
     0
  9
$ATTMODE
 70
     1
  9
$TEXTSIZE
 40
0.2
  9
$TRACEWID
 40
0.05
  9
$TEXTSTYLE
  7
STANDARD
  9
$CLAYER
  8
0
  9
$CELTYPE
  6
CONTINUOUS
  9
$CECOLOR
 62
   256
  9
$DIMSCALE
 40
1.0
  9
$DIMASZ
 40
1.25
  9
$DIMEXO
 40
1.0
  9
$DIMDLI
 40
0.38
  9
$DIMRND
 40
0.0
  9
$DIMDLE
 40
0.0
  9
$DIMEXE
 40
0.75
  9
$DIMTP
 40
0.0
  9
$DIMTM
 40
0.0
  9
$DIMTXT
 40
2.5
  9
$DIMCEN
 40
0.09
  9
$DIMTSZ
 40
0.0
  9
$DIMTOL
 70
     0
  9
$DIMLIM
 70
     0
  9
$DIMTIH
 70
     0
  9
$DIMTOH
 70
     0
  9
$DIMSE1
 70
     0
  9
$DIMSE2
 70
     0
  9
$DIMTAD
 70
     1
  9
$DIMZIN
 70
     0
  9
$DIMBLK
  1

  9
$DIMASO
 70
     1
  9
$DIMSHO
 70
     1
  9
$DIMPOST
  1

  9
$DIMAPOST
  1

  9
$DIMALT
 70
     0
  9
$DIMALTD
 70
     2
  9
$DIMALTF
 40
25.4
  9
$DIMLFAC
 40
1.0
  9
$DIMTOFL
 70
     0
  9
$DIMTVP
 40
0.0
  9
$DIMTIX
 70
     0
  9
$DIMSOXD
 70
     0
  9
$DIMSAH
 70
     0
  9
$DIMBLK1
  1

  9
$DIMBLK2
  1

  9
$DIMSTYLE
  2
STANDARD
  9
$DIMCLRD
 70
     7
  9
$DIMCLRE
 70
     7
  9
$DIMCLRT
 70
     7
  9
$DIMTFAC
 40
0.8
  9
$DIMGAP
 40
1.25
  9
$LUNITS
 70
     2
  9
$LUPREC
 70
     4
  9
$AXISMODE
 70
     0
  9
$AXISUNIT
 10
0.0
 20
0.0
  9
$SKETCHINC
 40
0.1
  9
$FILLETRAD
 40
0.0
  9
$AUNITS
 70
     0
  9
$AUPREC
 70
     0
  9
$MENU
  1
acad
  9
$ELEVATION
 40
0.0
  9
$PELEVATION
 40
0.0
  9
$THICKNESS
 40
0.0
  9
$LIMCHECK
 70
     0
  9
$BLIPMODE
 70
     1
  9
$CHAMFERA
 40
0.0
  9
$CHAMFERB
 40
0.0
  9
$SKPOLY
 70
     0
  9
$TDCREATE
 40
2454335.410659722
  9
$TDUPDATE
 40
2454335.326319445
  9
$TDINDWG
 40
0.0000000000
  9
$TDUSRTIMER
 40
0.0000000000
  9
$USRTIMER
 70
     1
  9
$ANGBASE
 50
0.0
  9
$ANGDIR
 70
     0
  9
$PDMODE
 70
     0
  9
$PDSIZE
 40
0.0
  9
$PLINEWID
 40
0.0
  9
$COORDS
 70
     0
  9
$SPLFRAME
 70
     0
  9
$SPLINETYPE
 70
     6
  9
$SPLINESEGS
 70
     8
  9
$ATTDIA
 70
     0
  9
$ATTREQ
 70
     1
  9
$HANDLING
 70
     1
  9
$HANDSEED
  5
189
  9
$SURFTAB1
 70
     6
  9
$SURFTAB2
 70
     6
  9
$SURFTYPE
 70
     6
  9
$SURFU
 70
     6
  9
$SURFV
 70
     6
  9
$UCSNAME
  2

  9
$UCSORG
 10
0.0
 20
0.0
 30
0.0
  9
$UCSXDIR
 10
1.0
 20
0.0
 30
0.0
  9
$UCSYDIR
 10
0.0
 20
1.0
 30
0.0
  9
$PUCSNAME
  2

  9
$PUCSORG
 10
0.0
 20
0.0
 30
0.0
  9
$PUCSXDIR
 10
1.0
 20
0.0
 30
0.0
  9
$PUCSYDIR
 10
0.0
 20
1.0
 30
0.0
  9
$USERI1
 70
     0
  9
$USERI2
 70
     0
  9
$USERI3
 70
     0
  9
$USERI4
 70
     0
  9
$USERI5
 70
     0
  9
$USERR1
 40
0.0
  9
$USERR2
 40
0.0
  9
$USERR3
 40
0.0
  9
$USERR4
 40
0.0
  9
$USERR5
 40
0.0
  9
$WORLDVIEW
 70
     1
  9
$SHADEDGE
 70
     3
  9
$SHADEDIF
 70
    70
  9
$TILEMODE
 70
     1
  9
$MAXACTVP
 70
    16
  9
$PINSBASE
 10
0.0
 20
0.0
 30
0.0
  9
$PLIMCHECK
 70
     0
  9
$PEXTMIN
 10
1.000000E+20
 20
1.000000E+20
 30
1.000000E+20
  9
$PEXTMAX
 10
-1.000000E+20
 20
-1.000000E+20
 30
-1.000000E+20
  9
$PLIMMIN
 10
0.0
 20
0.0
  9
$PLIMMAX
 10
12.0
 20
9.0
  9
$UNITMODE
 70
     0
  9
$VISRETAIN
 70
     0
  9
$PLINEGEN
 70
     1
  9
$PSLTSCALE
 70
     0
  9
$TREEDEPTH
 70
  3020
  0
ENDSEC
  0
SECTION
  2
TABLES
  0
TABLE
  2
VPORT
 70
     1
  0
VPORT
  2
*ACTIVE
 70
     0
 10
0.0
 20
0.0
 11
1.0
 21
1.0
 12
6.591288
 22
4.579184
 13
0.0
 23
0.0
 14
1.0
 24
1.0
 15
0.0
 25
0.0
 16
0.0
 26
0.0
 36
1.0
 17
0.0
 27
0.0
 37
0.0
 40
9.158369
 41
0.688564
 42
50.0
 43
0.0
 44
0.0
 50
0.0
 51
0.0
 71
     0
 72
   100
 73
     1
 74
     1
 75
     0
 76
     0
 77
     0
 78
     0
  0
ENDTAB
  0
TABLE
  2
LTYPE
 70
     2
  0
LTYPE
  2
CONTINUOUS
 70
    64
  3
Solid line
 72
    65
 73
     0
 40
0.0
  0
LTYPE
  2
CENTER
 70
    64
  3
____ _ ____ _ ____ _ ____ _ ____ _ ____ _ ____
 72
    65
 73
     4
 40
2.0
 49
1.25
 49
-0.25
 49
0.25
 49
-0.25
  0
ENDTAB
  0
TABLE
  2
LAYER
 70
     1
  0
LAYER
  2
0
 70
     0
 62
     7
  6
CONTINUOUS
  0
ENDTAB
  0
TABLE
  2
STYLE
 70
     1
  0
STYLE
  2
STANDARD
 70
     0
 40
0.0
 41
1.0
 50
0.0
 71
     0
 42
0.0
  3
IsonormD
  4

  0
ENDTAB
  0
TABLE
  2
VIEW
 70
     0
  0
ENDTAB
  0
TABLE
  2
UCS
 70
     0
  0
ENDTAB
  0
TABLE
  2
APPID
 70
     2
  0
APPID
  2
ACAD
 70
     0
  0
APPID
  2
TopSolid_Draft
 70
     0
  0
ENDTAB
  0
TABLE
  2
DIMSTYLE
 70
     1
  0
DIMSTYLE
  2
STANDARD
 70
     0
  3

  4

  5

  6

  7

 40
1.0
 41
1.25
 42
1.0
 43
0.38
 44
0.75
 45
0.0
 46
0.0
 47
0.0
 48
0.0
 71
     0
 72
     0
 73
     0
 74
     0
 75
     0
 76
     0
 77
     1
 78
     0
140
2.5
141
0.09
142
0.0
143
25.4
144
1.0
145
0.0
146
0.8
147
1.25
170
     0
171
     2
172
     0
173
     0
174
     0
175
     0
176
     7
177
     7
178
     7
  0
ENDTAB
  0
ENDSEC
  0
SECTION
  2
BLOCKS
  0
BLOCK
  8
0
  5
25
  2
AID3
 70
     0
 10
0.0
 20
0.0
 30
0.0
  3
#draft view
  0
LINE
  8
0
  6
CONTINUOUS
 62
     7
  5
26
 10
126.36616
 20
135.680402
 30
0.0
 11
137.36616
 21
135.680402
 31
0.0
  0
LINE
  8
0
  6
CONTINUOUS
 62
     7
  5
27
 10
126.36616
 20
135.680402
 30
0.0
 11
126.36616
 21
173.680402
 31
0.0
  0
LINE
  8
0
  6
CONTINUOUS
 62
     7
  5
28
 10
126.36616
 20
173.680402
 30
0.0
 11
137.36616
 21
173.680402
 31
0.0
  0
LINE
  8
0
  6
CONTINUOUS
 62
     7
  5
29
 10
137.36616
 20
135.680402
 30
0.0
 11
137.36616
 21
173.680402
 31
0.0
  0
LINE
  8
0
  6
CONTINUOUS
 62
     7
  5
2A
 10
313.36616
 20
163.180402
 30
0.0
 11
313.36616
 21
154.680402
 31
0.0
  0
LINE
  8
0
  6
CONTINUOUS
 62
     7
  5
2B
 10
312.86616
 20
145.680402
 30
0.0
 11
312.86616
 21
163.680402
 31
0.0
  0
LINE
  8
0
  6
CONTINUOUS
 62
     7
  5
2C
 10
313.36616
 20
154.680402
 30
0.0
 11
313.36616
 21
146.180402
 31
0.0
  0
LINE
  8
0
  6
CONTINUOUS
 62
     7
  5
2D
 10
311.36616
 20
163.680402
 30
0.0
 11
311.36616
 21
154.680402
 31
0.0
  0
LINE
  8
0
  6
CONTINUOUS
 62
     7
  5
2E
 10
311.36616
 20
154.680402
 30
0.0
 11
311.36616
 21
145.680402
 31
0.0
  0
LINE
  8
0
  6
CONTINUOUS
 62
     7
  5
2F
 10
318.36616
 20
150.430402
 30
0.0
 11
318.36616
 21
154.680402
 31
0.0
  0
LINE
  8
0
  6
CONTINUOUS
 62
     7
  5
30
 10
318.36616
 20
154.680402
 30
0.0
 11
318.36616
 21
158.930402
 31
0.0
  0
LINE
  8
0
  6
CONTINUOUS
 62
     7
  5
31
 10
140.56616
 20
159.930402
 30
0.0
 11
140.56616
 21
159.680402
 31
0.0
  0
LINE
  8
0
  6
CONTINUOUS
 62
     7
  5
32
 10
140.56616
 20
149.680402
 30
0.0
 11
140.56616
 21
149.430402
 31
0.0
  0
CIRCLE
  8
0
  6
CONTINUOUS
 62
     7
  5
33
 10
174.36616
 20
140.680402
 30
0.0
 40
2.5
210
0.0
220
0.0
230
1.0
  0
CIRCLE
  8
0
  6
CONTINUOUS
 62
     7
  5
34
 10
202.36616
 20
140.680402
 30
0.0
 40
2.5
210
0.0
220
0.0
230
1.0
  0
CIRCLE
  8
0
  6
CONTINUOUS
 62
     7
  5
35
 10
174.36616
 20
168.680402
 30
0.0
 40
2.5
210
0.0
220
0.0
230
1.0
  0
CIRCLE
  8
0
  6
CONTINUOUS
 62
     7
  5
36
 10
202.36616
 20
168.680402
 30
0.0
 40
2.5
210
0.0
220
0.0
230
1.0
  0
LINE
  8
0
  6
CONTINUOUS
 62
     7
  5
37
 10
141.36616
 20
173.680402
 30
0.0
 11
141.36616
 21
134.680402
 31
0.0
  0
LINE
  8
0
  6
CONTINUOUS
 62
     7
  5
38
 10
141.36616
 20
173.680402
 30
0.0
 11
188.36616
 21
173.680402
 31
0.0
  0
LINE
  8
0
  6
CONTINUOUS
 62
     7
  5
39
 10
188.36616
 20
173.680402
 30
0.0
 11
241.36616
 21
173.680402
 31
0.0
  0
LINE
  8
0
  6
CONTINUOUS
 62
     7
  5
3A
 10
241.36616
 20
173.680402
 30
0.0
 11
241.36616
 21
134.680402
 31
0.0
  0
LINE
  8
0
  6
CONTINUOUS
 62
     7
  5
3B
 10
141.36616
 20
134.680402
 30
0.0
 11
241.36616
 21
134.680402
 31
0.0
  0
CIRCLE
  8
0
  6
CONTINUOUS
 62
     7
  5
3C
 10
174.36616
 20
168.680402
 30
0.0
 40
2.067
210
0.0
220
0.0
230
1.0
  0
CIRCLE
  8
0
  6
CONTINUOUS
 62
     7
  5
3D
 10
202.36616
 20
140.680402
 30
0.0
 40
2.067
210
0.0
220
0.0
230
1.0
  0
CIRCLE
  8
0
  6
CONTINUOUS
 62
     7
  5
3E
 10
202.36616
 20
168.680402
 30
0.0
 40
2.067
210
0.0
220
0.0
230
1.0
  0
CIRCLE
  8
0
  6
CONTINUOUS
 62
     7
  5
3F
 10
174.36616
 20
140.680402
 30
0.0
 40
2.067
210
0.0
220
0.0
230
1.0
  0
LINE
  8
0
  6
CONTINUOUS
 62
     7
  5
40
 10
199.36616
 20
175.180402
 30
0.0
 11
177.36616
 21
175.180402
 31
0.0
  0
LINE
  8
0
  6
CONTINUOUS
 62
     7
  5
41
 10
312.86616
 20
145.680402
 30
0.0
 11
313.36616
 21
146.180402
 31
0.0
  0
LINE
  8
0
  6
CONTINUOUS
 62
     7
  5
42
 10
313.36616
 20
163.180402
 30
0.0
 11
312.86616
 21
163.680402
 31
0.0
  0
LINE
  8
0
  6
CONTINUOUS
 62
     7
  5
43
 10
312.86616
 20
163.680402
 30
0.0
 11
311.36616
 21
163.680402
 31
0.0
  0
LINE
  8
0
  6
CONTINUOUS
 62
     7
  5
44
 10
311.36616
 20
145.680402
 30
0.0
 11
312.86616
 21
145.680402
 31
0.0
  0
LINE
  8
0
  6
CONTINUOUS
 62
     7
  5
45
 10
311.36616
 20
159.680402
 30
0.0
 11
241.36616
 21
159.680402
 31
0.0
  0
LINE
  8
0
  6
CONTINUOUS
 62
     7
  5
46
 10
141.36616
 20
159.680402
 30
0.0
 11
137.36616
 21
159.680402
 31
0.0
  0
LINE
  8
0
  6
CONTINUOUS
 62
     7
  5
47
 10
137.36616
 20
149.680402
 30
0.0
 11
141.36616
 21
149.680402
 31
0.0
  0
LINE
  8
0
  6
CONTINUOUS
 62
     7
  5
48
 10
241.36616
 20
149.680402
 30
0.0
 11
311.36616
 21
149.680402
 31
0.0
  0
LINE
  8
0
  6
CONTINUOUS
 62
     7
  5
49
 10
313.36616
 20
150.430402
 30
0.0
 11
318.36616
 21
150.430402
 31
0.0
  0
LINE
  8
0
  6
CONTINUOUS
 62
     7
  5
4A
 10
318.36616
 20
158.930402
 30
0.0
 11
313.36616
 21
158.930402
 31
0.0
  0
LINE
  8
0
  6
CONTINUOUS
 62
     7
  5
4B
 10
140.56616
 20
159.930402
 30
0.0
 11
137.36616
 21
159.930402
 31
0.0
  0
LINE
  8
0
  6
CONTINUOUS
 62
     7
  5
4C
 10
137.36616
 20
149.430402
 30
0.0
 11
140.56616
 21
149.430402
 31
0.0
  0
LINE
  8
0
  6
CONTINUOUS
 62
     7
  5
4D
 10
199.36616
 20
173.680402
 30
0.0
 11
199.36616
 21
175.180402
 31
0.0
  0
LINE
  8
0
  6
CONTINUOUS
 62
     7
  5
4E
 10
177.36616
 20
175.180402
 30
0.0
 11
177.36616
 21
173.680402
 31
0.0
  0
ENDBLK
  8
0
  5
4F
  0
BLOCK
  8
0
  5
52
  2
AID89
 70
     0
 10
0.0
 20
0.0
 30
0.0
  3
#auxiliary draft view
  0
LINE
  8
0
  6
CONTINUOUS
 62
     7
  5
53
 10
46.625267
 20
155.835103
 30
0.0
 11
46.625267
 21
153.525702
 31
0.0
  0
LINE
  8
0
  6
CONTINUOUS
 62
     7
  5
54
 10
42.625267
 20
155.835103
 30
0.0
 11
44.625267
 21
156.989803
 31
0.0
  0
LINE
  8
0
  6
CONTINUOUS
 62
     7
  5
55
 10
42.625267
 20
153.525702
 30
0.0
 11
42.625267
 21
155.835103
 31
0.0
  0
LINE
  8
0
  6
CONTINUOUS
 62
     7
  5
56
 10
44.625267
 20
152.371001
 30
0.0
 11
42.625267
 21
153.525702
 31
0.0
  0
LINE
  8
0
  6
CONTINUOUS
 62
     7
  5
57
 10
46.625267
 20
153.525702
 30
0.0
 11
44.625267
 21
152.371001
 31
0.0
  0
CIRCLE
  8
0
  6
CONTINUOUS
 62
     7
  5
58
 10
44.625267
 20
154.680402
 30
0.0
 40
4.25
210
0.0
220
0.0
230
1.0
  0
LINE
  8
0
  6
CONTINUOUS
 62
     7
  5
59
 10
44.625267
 20
156.989803
 30
0.0
 11
46.625267
 21
155.835103
 31
0.0
  0
LINE
  8
0
  6
CONTINUOUS
 62
     7
  5
5A
 10
-15.374733
 20
153.525702
 30
0.0
 11
-17.374733
 21
152.371001
 31
0.0
  0
LINE
  8
0
  6
CONTINUOUS
 62
     7
  5
5B
 10
-19.374733
 20
155.835103
 30
0.0
 11
-17.374733
 21
156.989803
 31
0.0
  0
LINE
  8
0
  6
CONTINUOUS
 62
     7
  5
5C
 10
-15.374733
 20
155.835103
 30
0.0
 11
-15.374733
 21
153.525702
 31
0.0
  0
LINE
  8
0
  6
CONTINUOUS
 62
     7
  5
5D
 10
-17.374733
 20
152.371001
 30
0.0
 11
-19.374733
 21
153.525702
 31
0.0
  0
LINE
  8
0
  6
CONTINUOUS
 62
     7
  5
5E
 10
-19.374733
 20
153.525702
 30
0.0
 11
-19.374733
 21
155.835103
 31
0.0
  0
LINE
  8
0
  6
CONTINUOUS
 62
     7
  5
5F
 10
-17.374733
 20
156.989803
 30
0.0
 11
-15.374733
 21
155.835103
 31
0.0
  0
CIRCLE
  8
0
  6
CONTINUOUS
 62
     7
  5
60
 10
-17.374733
 20
154.680402
 30
0.0
 40
4.25
210
0.0
220
0.0
230
1.0
  0
CIRCLE
  8
0
  6
CONTINUOUS
 62
     7
  5
61
 10
-17.374733
 20
154.680402
 30
0.0
 40
8.5
210
0.0
220
0.0
230
1.0
  0
CIRCLE
  8
0
  6
CONTINUOUS
 62
     7
  5
62
 10
-17.374733
 20
154.680402
 30
0.0
 40
9.0
210
0.0
220
0.0
230
1.0
  0
CIRCLE
  8
0
  6
CONTINUOUS
 62
     7
  5
63
 10
44.625267
 20
154.680402
 30
0.0
 40
8.5
210
0.0
220
0.0
230
1.0
  0
CIRCLE
  8
0
  6
CONTINUOUS
 62
     7
  5
64
 10
44.625267
 20
154.680402
 30
0.0
 40
9.0
210
0.0
220
0.0
230
1.0
  0
CIRCLE
  8
0
  6
CONTINUOUS
 62
     7
  5
65
 10
13.625267
 20
154.680402
 30
0.0
 40
2.3
210
0.0
220
0.0
230
1.0
  0
CIRCLE
  8
0
  6
CONTINUOUS
 62
     7
  5
66
 10
13.625267
 20
154.680402
 30
0.0
 40
2.5
210
0.0
220
0.0
230
1.0
  0
CIRCLE
  8
0
  6
CONTINUOUS
 62
     7
  5
67
 10
13.625267
 20
154.680402
 30
0.0
 40
5.25
210
0.0
220
0.0
230
1.0
  0
LINE
  8
0
  6
CONTINUOUS
 62
     7
  5
68
 10
-28.374733
 20
173.680402
 30
0.0
 11
-28.374733
 21
134.680402
 31
0.0
  0
LINE
  8
0
  6
CONTINUOUS
 62
     7
  5
69
 10
-6.624733
 20
173.680402
 30
0.0
 11
-6.624733
 21
134.680402
 31
0.0
  0
LINE
  8
0
  6
CONTINUOUS
 62
     7
  5
6A
 10
-28.374733
 20
173.680402
 30
0.0
 11
-6.624733
 21
173.680402
 31
0.0
  0
LINE
  8
0
  6
CONTINUOUS
 62
     7
  5
6B
 10
-28.374733
 20
134.680402
 30
0.0
 11
-6.624733
 21
134.680402
 31
0.0
  0
LINE
  8
0
  6
CONTINUOUS
 62
     7
  5
6C
 10
33.875267
 20
173.680402
 30
0.0
 11
33.875267
 21
134.680402
 31
0.0
  0
LINE
  8
0
  6
CONTINUOUS
 62
     7
  5
6D
 10
33.875267
 20
173.680402
 30
0.0
 11
55.625267
 21
173.680402
 31
0.0
  0
LINE
  8
0
  6
CONTINUOUS
 62
     7
  5
6E
 10
55.625267
 20
173.680402
 30
0.0
 11
55.625267
 21
134.680402
 31
0.0
  0
LINE
  8
0
  6
CONTINUOUS
 62
     7
  5
6F
 10
33.875267
 20
134.680402
 30
0.0
 11
55.625267
 21
134.680402
 31
0.0
  0
ARC
  8
0
  6
CONTINUOUS
 62
     7
  5
70
 10
13.625267
 20
154.680402
 30
0.0
 40
11.55
 50
130.492661
 51
49.507339
210
0.0
220
0.0
230
1.0
  0
LINE
  8
0
  6
CONTINUOUS
 62
     7
  5
71
 10
11.125267
 20
169.680402
 30
0.0
 11
16.125267
 21
169.680402
 31
0.0
  0
ARC
  8
0
  6
CONTINUOUS
 62
     7
  5
72
 10
16.125267
 20
164.680402
 30
0.0
 40
5.0
 50
360.0
 51
90.0
210
0.0
220
0.0
230
1.0
  0
ARC
  8
0
  6
CONTINUOUS
 62
     7
  5
73
 10
11.125267
 20
164.680402
 30
0.0
 40
5.0
 50
90.0
 51
180.0
210
0.0
220
0.0
230
1.0
  0
LINE
  8
0
  6
CONTINUOUS
 62
     7
  5
74
 10
21.125267
 20
164.680402
 30
0.0
 11
21.125267
 21
163.464052
 31
0.0
  0
LINE
  8
0
  6
CONTINUOUS
 62
     7
  5
75
 10
6.125267
 20
163.464052
 30
0.0
 11
6.125267
 21
164.680402
 31
0.0
  0
LINE
  8
0
  6
CONTINUOUS
 62
     7
  5
76
 10
-6.624733
 20
173.680402
 30
0.0
 11
33.875267
 21
173.680402
 31
0.0
  0
LINE
  8
0
  6
CONTINUOUS
 62
     7
  5
77
 10
-6.624733
 20
134.680402
 30
0.0
 11
33.875267
 21
134.680402
 31
0.0
  0
LINE
  8
0
  6
CONTINUOUS
 62
     7
  5
78
 10
8.125267
 20
168.680402
 30
0.0
 11
8.125267
 21
164.836804
 31
0.0
  0
ARC
  8
0
  6
CONTINUOUS
 62
     7
  5
79
 10
13.625267
 20
154.680402
 30
0.0
 40
11.55
 50
118.43689
 51
130.492661
210
0.0
220
0.0
230
1.0
  0
LINE
  8
0
  6
CONTINUOUS
 62
     7
  5
7A
 10
19.125267
 20
164.836804
 30
0.0
 11
19.125267
 21
168.680402
 31
0.0
  0
ARC
  8
0
  6
CONTINUOUS
 62
     7
  5
7B
 10
13.625267
 20
154.680402
 30
0.0
 40
11.55
 50
49.507339
 51
61.56311
210
0.0
220
0.0
230
1.0
  0
LINE
  8
0
  6
CONTINUOUS
 62
     7
  5
7C
 10
-6.374733
 20
175.180402
 30
0.0
 11
-17.374733
 21
175.180402
 31
0.0
  0
LINE
  8
0
  6
CONTINUOUS
 62
     7
  5
7D
 10
-17.374733
 20
175.180402
 30
0.0
 11
-28.374733
 21
175.180402
 31
0.0
  0
LINE
  8
0
  6
CONTINUOUS
 62
     7
  5
7E
 10
-6.374733
 20
173.680402
 30
0.0
 11
-6.374733
 21
175.180402
 31
0.0
  0
LINE
  8
0
  6
CONTINUOUS
 62
     7
  5
7F
 10
-28.374733
 20
175.180402
 30
0.0
 11
-28.374733
 21
173.680402
 31
0.0
  0
ENDBLK
  8
0
  5
80
  0
BLOCK
  8
0
  5
83
  2
AID183
 70
     0
 10
0.0
 20
0.0
 30
0.0
  3
#auxiliary draft view
  0
LINE
  8
0
  6
CONTINUOUS
 62
     7
  5
84
 10
126.36616
 20
252.442175
 30
0.0
 11
137.36616
 21
252.442175
 31
0.0
  0
LINE
  8
0
  6
CONTINUOUS
 62
     7
  5
85
 10
126.36616
 20
252.442175
 30
0.0
 11
126.36616
 21
332.442175
 31
0.0
  0
LINE
  8
0
  6
CONTINUOUS
 62
     7
  5
86
 10
126.36616
 20
332.442175
 30
0.0
 11
137.36616
 21
332.442175
 31
0.0
  0
LINE
  8
0
  6
CONTINUOUS
 62
     7
  5
87
 10
137.36616
 20
252.442175
 30
0.0
 11
137.36616
 21
332.442175
 31
0.0
  0
LINE
  8
0
  6
CONTINUOUS
 62
     7
  5
88
 10
312.86616
 20
252.442175
 30
0.0
 11
312.86616
 21
270.442175
 31
0.0
  0
LINE
  8
0
  6
CONTINUOUS
 62
     7
  5
89
 10
311.36616
 20
270.442175
 30
0.0
 11
311.36616
 21
252.442175
 31
0.0
  0
LINE
  8
0
  6
CONTINUOUS
 62
     7
  5
8A
 10
312.86616
 20
314.442175
 30
0.0
 11
312.86616
 21
332.442175
 31
0.0
  0
LINE
  8
0
  6
CONTINUOUS
 62
     7
  5
8B
 10
313.36616
 20
331.942175
 30
0.0
 11
313.36616
 21
314.942175
 31
0.0
  0
LINE
  8
0
  6
CONTINUOUS
 62
     7
  5
8C
 10
313.36616
 20
269.942175
 30
0.0
 11
313.36616
 21
252.942175
 31
0.0
  0
LINE
  8
0
  6
CONTINUOUS
 62
     7
  5
8D
 10
311.36616
 20
332.442175
 30
0.0
 11
311.36616
 21
314.442175
 31
0.0
  0
LINE
  8
0
  6
CONTINUOUS
 62
     7
  5
8E
 10
140.56616
 20
297.692175
 30
0.0
 11
140.56616
 21
287.192175
 31
0.0
  0
LINE
  8
0
  6
CONTINUOUS
 62
     7
  5
8F
 10
318.36616
 20
257.192175
 30
0.0
 11
318.36616
 21
265.692175
 31
0.0
  0
LINE
  8
0
  6
CONTINUOUS
 62
     7
  5
90
 10
318.36616
 20
319.192175
 30
0.0
 11
318.36616
 21
327.692175
 31
0.0
  0
LINE
  8
0
  6
CONTINUOUS
 62
     7
  5
91
 10
149.96616
 20
289.942175
 30
0.0
 11
149.96616
 21
294.942175
 31
0.0
  0
LINE
  8
0
  6
CONTINUOUS
 62
     7
  5
92
 10
150.16616
 20
290.142175
 30
0.0
 11
150.16616
 21
294.742175
 31
0.0
  0
CIRCLE
  8
0
  6
CONTINUOUS
 62
     7
  5
93
 10
174.36616
 20
318.442175
 30
0.0
 40
2.5
210
0.0
220
0.0
230
1.0
  0
CIRCLE
  8
0
  6
CONTINUOUS
 62
     7
  5
94
 10
202.36616
 20
318.442175
 30
0.0
 40
2.5
210
0.0
220
0.0
230
1.0
  0
CIRCLE
  8
0
  6
CONTINUOUS
 62
     7
  5
95
 10
174.36616
 20
266.442175
 30
0.0
 40
2.5
210
0.0
220
0.0
230
1.0
  0
CIRCLE
  8
0
  6
CONTINUOUS
 62
     7
  5
96
 10
202.36616
 20
266.442175
 30
0.0
 40
2.5
210
0.0
220
0.0
230
1.0
  0
CIRCLE
  8
0
  6
CONTINUOUS
 62
     7
  5
97
 10
170.36616
 20
311.442175
 30
0.0
 40
3.25
210
0.0
220
0.0
230
1.0
  0
LINE
  8
0
  6
CONTINUOUS
 62
     7
  5
98
 10
141.36616
 20
334.442175
 30
0.0
 11
241.36616
 21
334.442175
 31
0.0
  0
LINE
  8
0
  6
CONTINUOUS
 62
     7
  5
99
 10
241.36616
 20
334.442175
 30
0.0
 11
241.36616
 21
312.692175
 31
0.0
  0
LINE
  8
0
  6
CONTINUOUS
 62
     7
  5
9A
 10
241.36616
 20
312.692175
 30
0.0
 11
230.86616
 21
312.692175
 31
0.0
  0
LINE
  8
0
  6
CONTINUOUS
 62
     7
  5
9B
 10
230.86616
 20
312.692175
 30
0.0
 11
230.86616
 21
272.192175
 31
0.0
  0
LINE
  8
0
  6
CONTINUOUS
 62
     7
  5
9C
 10
230.86616
 20
272.192175
 30
0.0
 11
241.36616
 21
272.192175
 31
0.0
  0
LINE
  8
0
  6
CONTINUOUS
 62
     7
  5
9D
 10
241.36616
 20
272.192175
 30
0.0
 11
241.36616
 21
250.442175
 31
0.0
  0
LINE
  8
0
  6
CONTINUOUS
 62
     7
  5
9E
 10
141.36616
 20
250.442175
 30
0.0
 11
141.36616
 21
272.192175
 31
0.0
  0
LINE
  8
0
  6
CONTINUOUS
 62
     7
  5
9F
 10
141.36616
 20
272.192175
 30
0.0
 11
161.36616
 21
272.192175
 31
0.0
  0
LINE
  8
0
  6
CONTINUOUS
 62
     7
  5
A0
 10
161.36616
 20
272.192175
 30
0.0
 11
161.36616
 21
312.692175
 31
0.0
  0
LINE
  8
0
  6
CONTINUOUS
 62
     7
  5
A1
 10
161.36616
 20
312.692175
 30
0.0
 11
141.36616
 21
312.692175
 31
0.0
  0
LINE
  8
0
  6
CONTINUOUS
 62
     7
  5
A2
 10
141.36616
 20
312.692175
 30
0.0
 11
141.36616
 21
334.442175
 31
0.0
  0
LINE
  8
0
  6
CONTINUOUS
 62
     7
  5
A3
 10
241.36616
 20
250.442175
 30
0.0
 11
141.36616
 21
250.442175
 31
0.0
  0
CIRCLE
  8
0
  6
CONTINUOUS
 62
     7
  5
A4
 10
170.36616
 20
273.442175
 30
0.0
 40
3.25
210
0.0
220
0.0
230
1.0
  0
CIRCLE
  8
0
  6
CONTINUOUS
 62
     7
  5
A5
 10
202.36616
 20
266.442175
 30
0.0
 40
2.067
210
0.0
220
0.0
230
1.0
  0
CIRCLE
  8
0
  6
CONTINUOUS
 62
     7
  5
A6
 10
202.36616
 20
318.442175
 30
0.0
 40
2.067
210
0.0
220
0.0
230
1.0
  0
CIRCLE
  8
0
  6
CONTINUOUS
 62
     7
  5
A7
 10
174.36616
 20
318.442175
 30
0.0
 40
2.067
210
0.0
220
0.0
230
1.0
  0
CIRCLE
  8
0
  6
CONTINUOUS
 62
     7
  5
A8
 10
174.36616
 20
266.442175
 30
0.0
 40
2.067
210
0.0
220
0.0
230
1.0
  0
LINE
  8
0
  6
CONTINUOUS
 62
     7
  5
A9
 10
312.86616
 20
270.442175
 30
0.0
 11
311.36616
 21
270.442175
 31
0.0
  0
LINE
  8
0
  6
CONTINUOUS
 62
     7
  5
AA
 10
311.36616
 20
252.442175
 30
0.0
 11
312.86616
 21
252.442175
 31
0.0
  0
LINE
  8
0
  6
CONTINUOUS
 62
     7
  5
AB
 10
312.86616
 20
314.442175
 30
0.0
 11
313.36616
 21
314.942175
 31
0.0
  0
LINE
  8
0
  6
CONTINUOUS
 62
     7
  5
AC
 10
313.36616
 20
331.942175
 30
0.0
 11
312.86616
 21
332.442175
 31
0.0
  0
LINE
  8
0
  6
CONTINUOUS
 62
     7
  5
AD
 10
312.86616
 20
252.442175
 30
0.0
 11
313.36616
 21
252.942175
 31
0.0
  0
LINE
  8
0
  6
CONTINUOUS
 62
     7
  5
AE
 10
313.36616
 20
269.942175
 30
0.0
 11
312.86616
 21
270.442175
 31
0.0
  0
LINE
  8
0
  6
CONTINUOUS
 62
     7
  5
AF
 10
312.86616
 20
332.442175
 30
0.0
 11
311.36616
 21
332.442175
 31
0.0
  0
LINE
  8
0
  6
CONTINUOUS
 62
     7
  5
B0
 10
311.36616
 20
314.442175
 30
0.0
 11
312.86616
 21
314.442175
 31
0.0
  0
LINE
  8
0
  6
CONTINUOUS
 62
     7
  5
B1
 10
140.56616
 20
297.692175
 30
0.0
 11
137.36616
 21
297.692175
 31
0.0
  0
LINE
  8
0
  6
CONTINUOUS
 62
     7
  5
B2
 10
137.36616
 20
287.192175
 30
0.0
 11
140.56616
 21
287.192175
 31
0.0
  0
LINE
  8
0
  6
CONTINUOUS
 62
     7
  5
B3
 10
311.36616
 20
328.442175
 30
0.0
 11
241.36616
 21
328.442175
 31
0.0
  0
LINE
  8
0
  6
CONTINUOUS
 62
     7
  5
B4
 10
141.36616
 20
328.442175
 30
0.0
 11
137.36616
 21
328.442175
 31
0.0
  0
LINE
  8
0
  6
CONTINUOUS
 62
     7
  5
B5
 10
137.36616
 20
318.442175
 30
0.0
 11
141.36616
 21
318.442175
 31
0.0
  0
LINE
  8
0
  6
CONTINUOUS
 62
     7
  5
B6
 10
241.36616
 20
318.442175
 30
0.0
 11
311.36616
 21
318.442175
 31
0.0
  0
LINE
  8
0
  6
CONTINUOUS
 62
     7
  5
B7
 10
311.36616
 20
266.442175
 30
0.0
 11
241.36616
 21
266.442175
 31
0.0
  0
LINE
  8
0
  6
CONTINUOUS
 62
     7
  5
B8
 10
141.36616
 20
266.442175
 30
0.0
 11
137.36616
 21
266.442175
 31
0.0
  0
LINE
  8
0
  6
CONTINUOUS
 62
     7
  5
B9
 10
137.36616
 20
256.442175
 30
0.0
 11
141.36616
 21
256.442175
 31
0.0
  0
LINE
  8
0
  6
CONTINUOUS
 62
     7
  5
BA
 10
241.36616
 20
256.442175
 30
0.0
 11
311.36616
 21
256.442175
 31
0.0
  0
LINE
  8
0
  6
CONTINUOUS
 62
     7
  5
BB
 10
313.36616
 20
257.192175
 30
0.0
 11
318.36616
 21
257.192175
 31
0.0
  0
LINE
  8
0
  6
CONTINUOUS
 62
     7
  5
BC
 10
318.36616
 20
265.692175
 30
0.0
 11
313.36616
 21
265.692175
 31
0.0
  0
LINE
  8
0
  6
CONTINUOUS
 62
     7
  5
BD
 10
313.36616
 20
319.192175
 30
0.0
 11
318.36616
 21
319.192175
 31
0.0
  0
LINE
  8
0
  6
CONTINUOUS
 62
     7
  5
BE
 10
318.36616
 20
327.692175
 30
0.0
 11
313.36616
 21
327.692175
 31
0.0
  0
LINE
  8
0
  6
CONTINUOUS
 62
     7
  5
BF
 10
149.96616
 20
294.942175
 30
0.0
 11
140.56616
 21
294.942175
 31
0.0
  0
LINE
  8
0
  6
CONTINUOUS
 62
     7
  5
C0
 10
140.56616
 20
289.942175
 30
0.0
 11
149.96616
 21
289.942175
 31
0.0
  0
LINE
  8
0
  6
CONTINUOUS
 62
     7
  5
C1
 10
149.96616
 20
289.942175
 30
0.0
 11
150.16616
 21
290.142175
 31
0.0
  0
LINE
  8
0
  6
CONTINUOUS
 62
     7
  5
C2
 10
150.16616
 20
294.742175
 30
0.0
 11
149.96616
 21
294.942175
 31
0.0
  0
ENDBLK
  8
0
  5
C3
  0
BLOCK
  8
0
  5
C6
  2
AID313
 70
     0
 10
0.0
 20
0.0
 30
0.0
  3
#auxiliary draft view
  0
LINE
  8
0
  6
CONTINUOUS
 62
     7
  5
C7
 10
126.36616
 20
46.536402
 30
0.0
 11
137.36616
 21
46.536402
 31
0.0
  0
LINE
  8
0
  6
CONTINUOUS
 62
     7
  5
C8
 10
137.36616
 20
-33.463598
 30
0.0
 11
137.36616
 21
46.536402
 31
0.0
  0
LINE
  8
0
  6
CONTINUOUS
 62
     7
  5
C9
 10
126.36616
 20
-33.463598
 30
0.0
 11
126.36616
 21
46.536402
 31
0.0
  0
LINE
  8
0
  6
CONTINUOUS
 62
     7
  5
CA
 10
126.36616
 20
-33.463598
 30
0.0
 11
137.36616
 21
-33.463598
 31
0.0
  0
LINE
  8
0
  6
CONTINUOUS
 62
     7
  5
CB
 10
313.36616
 20
-15.963598
 30
0.0
 11
313.36616
 21
-32.963598
 31
0.0
  0
LINE
  8
0
  6
CONTINUOUS
 62
     7
  5
CC
 10
312.86616
 20
-33.463598
 30
0.0
 11
312.86616
 21
-24.463598
 31
0.0
  0
LINE
  8
0
  6
CONTINUOUS
 62
     7
  5
CD
 10
312.86616
 20
-24.463598
 30
0.0
 11
312.86616
 21
-15.463598
 31
0.0
  0
LINE
  8
0
  6
CONTINUOUS
 62
     7
  5
CE
 10
311.36616
 20
-15.463598
 30
0.0
 11
311.36616
 21
-33.463598
 31
0.0
  0
LINE
  8
0
  6
CONTINUOUS
 62
     7
  5
CF
 10
312.86616
 20
28.536402
 30
0.0
 11
312.86616
 21
37.536402
 31
0.0
  0
LINE
  8
0
  6
CONTINUOUS
 62
     7
  5
D0
 10
311.36616
 20
46.536402
 30
0.0
 11
311.36616
 21
28.536402
 31
0.0
  0
LINE
  8
0
  6
CONTINUOUS
 62
     7
  5
D1
 10
312.86616
 20
37.536402
 30
0.0
 11
312.86616
 21
46.536402
 31
0.0
  0
LINE
  8
0
  6
CONTINUOUS
 62
     7
  5
D2
 10
313.36616
 20
46.036402
 30
0.0
 11
313.36616
 21
29.036402
 31
0.0
  0
LINE
  8
0
  6
CONTINUOUS
 62
     7
  5
D3
 10
140.56616
 20
11.786402
 30
0.0
 11
140.56616
 21
1.286402
 31
0.0
  0
LINE
  8
0
  6
CONTINUOUS
 62
     7
  5
D4
 10
318.36616
 20
-28.713598
 30
0.0
 11
318.36616
 21
-20.213598
 31
0.0
  0
LINE
  8
0
  6
CONTINUOUS
 62
     7
  5
D5
 10
318.36616
 20
33.286402
 30
0.0
 11
318.36616
 21
41.786402
 31
0.0
  0
LINE
  8
0
  6
CONTINUOUS
 62
     7
  5
D6
 10
149.96616
 20
4.036402
 30
0.0
 11
149.96616
 21
9.036402
 31
0.0
  0
LINE
  8
0
  6
CONTINUOUS
 62
     7
  5
D7
 10
150.16616
 20
4.236402
 30
0.0
 11
150.16616
 21
8.836402
 31
0.0
  0
CIRCLE
  8
0
  6
CONTINUOUS
 62
     7
  5
D8
 10
188.36616
 20
-24.463598
 30
0.0
 40
11.0
210
0.0
220
0.0
230
1.0
  0
CIRCLE
  8
0
  6
CONTINUOUS
 62
     7
  5
D9
 10
194.36616
 20
22.536402
 30
0.0
 40
2.0
210
0.0
220
0.0
230
1.0
  0
CIRCLE
  8
0
  6
CONTINUOUS
 62
     7
  5
DA
 10
226.36616
 20
22.536402
 30
0.0
 40
2.0
210
0.0
220
0.0
230
1.0
  0
CIRCLE
  8
0
  6
CONTINUOUS
 62
     7
  5
DB
 10
226.36616
 20
-9.463598
 30
0.0
 40
2.0
210
0.0
220
0.0
230
1.0
  0
CIRCLE
  8
0
  6
CONTINUOUS
 62
     7
  5
DC
 10
194.36616
 20
-9.463598
 30
0.0
 40
2.0
210
0.0
220
0.0
230
1.0
  0
LINE
  8
0
  6
CONTINUOUS
 62
     7
  5
DD
 10
167.36616
 20
7.036402
 30
0.0
 11
167.36616
 21
6.036402
 31
0.0
  0
ARC
  8
0
  6
CONTINUOUS
 62
     7
  5
DE
 10
172.36616
 20
6.036402
 30
0.0
 40
5.0
 50
180.0
 51
270.0
210
0.0
220
0.0
230
1.0
  0
LINE
  8
0
  6
CONTINUOUS
 62
     7
  5
DF
 10
172.36616
 20
1.036402
 30
0.0
 11
219.86616
 21
1.036402
 31
0.0
  0
ARC
  8
0
  6
CONTINUOUS
 62
     7
  5
E0
 10
219.86616
 20
6.036402
 30
0.0
 40
5.0
 50
270.0
 51
360.0
210
0.0
220
0.0
230
1.0
  0
LINE
  8
0
  6
CONTINUOUS
 62
     7
  5
E1
 10
224.86616
 20
6.036402
 30
0.0
 11
224.86616
 21
7.036402
 31
0.0
  0
ARC
  8
0
  6
CONTINUOUS
 62
     7
  5
E2
 10
219.86616
 20
7.036402
 30
0.0
 40
5.0
 50
0.0
 51
90.0
210
0.0
220
0.0
230
1.0
  0
LINE
  8
0
  6
CONTINUOUS
 62
     7
  5
E3
 10
219.86616
 20
12.036402
 30
0.0
 11
172.36616
 21
12.036402
 31
0.0
  0
ARC
  8
0
  6
CONTINUOUS
 62
     7
  5
E4
 10
172.36616
 20
7.036402
 30
0.0
 40
5.0
 50
90.0
 51
180.0
210
0.0
220
0.0
230
1.0
  0
CIRCLE
  8
0
  6
CONTINUOUS
 62
     7
  5
E5
 10
170.36616
 20
25.536402
 30
0.0
 40
3.25
210
0.0
220
0.0
230
1.0
  0
CIRCLE
  8
0
  6
CONTINUOUS
 62
     7
  5
E6
 10
170.36616
 20
-12.463598
 30
0.0
 40
3.25
210
0.0
220
0.0
230
1.0
  0
LINE
  8
0
  6
CONTINUOUS
 62
     7
  5
E7
 10
141.36616
 20
-13.713598
 30
0.0
 11
141.36616
 21
-35.463598
 31
0.0
  0
LINE
  8
0
  6
CONTINUOUS
 62
     7
  5
E8
 10
161.36616
 20
-13.713598
 30
0.0
 11
141.36616
 21
-13.713598
 31
0.0
  0
LINE
  8
0
  6
CONTINUOUS
 62
     7
  5
E9
 10
161.36616
 20
26.786402
 30
0.0
 11
161.36616
 21
-13.713598
 31
0.0
  0
LINE
  8
0
  6
CONTINUOUS
 62
     7
  5
EA
 10
141.36616
 20
26.786402
 30
0.0
 11
161.36616
 21
26.786402
 31
0.0
  0
LINE
  8
0
  6
CONTINUOUS
 62
     7
  5
EB
 10
141.36616
 20
48.536402
 30
0.0
 11
141.36616
 21
26.786402
 31
0.0
  0
LINE
  8
0
  6
CONTINUOUS
 62
     7
  5
EC
 10
241.36616
 20
48.536402
 30
0.0
 11
141.36616
 21
48.536402
 31
0.0
  0
LINE
  8
0
  6
CONTINUOUS
 62
     7
  5
ED
 10
241.36616
 20
26.786402
 30
0.0
 11
241.36616
 21
48.536402
 31
0.0
  0
LINE
  8
0
  6
CONTINUOUS
 62
     7
  5
EE
 10
230.86616
 20
26.786402
 30
0.0
 11
241.36616
 21
26.786402
 31
0.0
  0
LINE
  8
0
  6
CONTINUOUS
 62
     7
  5
EF
 10
230.86616
 20
-13.713598
 30
0.0
 11
230.86616
 21
26.786402
 31
0.0
  0
LINE
  8
0
  6
CONTINUOUS
 62
     7
  5
F0
 10
241.36616
 20
-13.713598
 30
0.0
 11
230.86616
 21
-13.713598
 31
0.0
  0
LINE
  8
0
  6
CONTINUOUS
 62
     7
  5
F1
 10
241.36616
 20
-35.463598
 30
0.0
 11
241.36616
 21
-13.713598
 31
0.0
  0
LINE
  8
0
  6
CONTINUOUS
 62
     7
  5
F2
 10
188.36616
 20
-35.463598
 30
0.0
 11
241.36616
 21
-35.463598
 31
0.0
  0
LINE
  8
0
  6
CONTINUOUS
 62
     7
  5
F3
 10
141.36616
 20
-35.463598
 30
0.0
 11
188.36616
 21
-35.463598
 31
0.0
  0
CIRCLE
  8
0
  6
CONTINUOUS
 62
     7
  5
F4
 10
194.36616
 20
-9.463598
 30
0.0
 40
1.621
210
0.0
220
0.0
230
1.0
  0
CIRCLE
  8
0
  6
CONTINUOUS
 62
     7
  5
F5
 10
194.36616
 20
22.536402
 30
0.0
 40
1.621
210
0.0
220
0.0
230
1.0
  0
CIRCLE
  8
0
  6
CONTINUOUS
 62
     7
  5
F6
 10
226.36616
 20
-9.463598
 30
0.0
 40
1.621
210
0.0
220
0.0
230
1.0
  0
CIRCLE
  8
0
  6
CONTINUOUS
 62
     7
  5
F7
 10
226.36616
 20
22.536402
 30
0.0
 40
1.621
210
0.0
220
0.0
230
1.0
  0
LINE
  8
0
  6
CONTINUOUS
 62
     7
  5
F8
 10
312.86616
 20
-33.463598
 30
0.0
 11
313.36616
 21
-32.963598
 31
0.0
  0
LINE
  8
0
  6
CONTINUOUS
 62
     7
  5
F9
 10
313.36616
 20
-15.963598
 30
0.0
 11
312.86616
 21
-15.463598
 31
0.0
  0
LINE
  8
0
  6
CONTINUOUS
 62
     7
  5
FA
 10
312.86616
 20
-15.463598
 30
0.0
 11
311.36616
 21
-15.463598
 31
0.0
  0
LINE
  8
0
  6
CONTINUOUS
 62
     7
  5
FB
 10
311.36616
 20
-33.463598
 30
0.0
 11
312.86616
 21
-33.463598
 31
0.0
  0
LINE
  8
0
  6
CONTINUOUS
 62
     7
  5
FC
 10
312.86616
 20
46.536402
 30
0.0
 11
311.36616
 21
46.536402
 31
0.0
  0
LINE
  8
0
  6
CONTINUOUS
 62
     7
  5
FD
 10
311.36616
 20
28.536402
 30
0.0
 11
312.86616
 21
28.536402
 31
0.0
  0
LINE
  8
0
  6
CONTINUOUS
 62
     7
  5
FE
 10
312.86616
 20
28.536402
 30
0.0
 11
313.36616
 21
29.036402
 31
0.0
  0
LINE
  8
0
  6
CONTINUOUS
 62
     7
  5
FF
 10
313.36616
 20
46.036402
 30
0.0
 11
312.86616
 21
46.536402
 31
0.0
  0
LINE
  8
0
  6
CONTINUOUS
 62
     7
  5
100
 10
140.56616
 20
11.786402
 30
0.0
 11
137.36616
 21
11.786402
 31
0.0
  0
LINE
  8
0
  6
CONTINUOUS
 62
     7
  5
101
 10
137.36616
 20
1.286402
 30
0.0
 11
140.56616
 21
1.286402
 31
0.0
  0
LINE
  8
0
  6
CONTINUOUS
 62
     7
  5
102
 10
311.36616
 20
-19.463598
 30
0.0
 11
241.36616
 21
-19.463598
 31
0.0
  0
LINE
  8
0
  6
CONTINUOUS
 62
     7
  5
103
 10
141.36616
 20
-19.463598
 30
0.0
 11
137.36616
 21
-19.463598
 31
0.0
  0
LINE
  8
0
  6
CONTINUOUS
 62
     7
  5
104
 10
137.36616
 20
-29.463598
 30
0.0
 11
141.36616
 21
-29.463598
 31
0.0
  0
LINE
  8
0
  6
CONTINUOUS
 62
     7
  5
105
 10
241.36616
 20
-29.463598
 30
0.0
 11
311.36616
 21
-29.463598
 31
0.0
  0
LINE
  8
0
  6
CONTINUOUS
 62
     7
  5
106
 10
311.36616
 20
42.536402
 30
0.0
 11
241.36616
 21
42.536402
 31
0.0
  0
LINE
  8
0
  6
CONTINUOUS
 62
     7
  5
107
 10
141.36616
 20
42.536402
 30
0.0
 11
137.36616
 21
42.536402
 31
0.0
  0
LINE
  8
0
  6
CONTINUOUS
 62
     7
  5
108
 10
137.36616
 20
32.536402
 30
0.0
 11
141.36616
 21
32.536402
 31
0.0
  0
LINE
  8
0
  6
CONTINUOUS
 62
     7
  5
109
 10
241.36616
 20
32.536402
 30
0.0
 11
311.36616
 21
32.536402
 31
0.0
  0
LINE
  8
0
  6
CONTINUOUS
 62
     7
  5
10A
 10
313.36616
 20
-28.713598
 30
0.0
 11
318.36616
 21
-28.713598
 31
0.0
  0
LINE
  8
0
  6
CONTINUOUS
 62
     7
  5
10B
 10
318.36616
 20
-20.213598
 30
0.0
 11
313.36616
 21
-20.213598
 31
0.0
  0
LINE
  8
0
  6
CONTINUOUS
 62
     7
  5
10C
 10
313.36616
 20
33.286402
 30
0.0
 11
318.36616
 21
33.286402
 31
0.0
  0
LINE
  8
0
  6
CONTINUOUS
 62
     7
  5
10D
 10
318.36616
 20
41.786402
 30
0.0
 11
313.36616
 21
41.786402
 31
0.0
  0
LINE
  8
0
  6
CONTINUOUS
 62
     7
  5
10E
 10
149.96616
 20
9.036402
 30
0.0
 11
140.56616
 21
9.036402
 31
0.0
  0
LINE
  8
0
  6
CONTINUOUS
 62
     7
  5
10F
 10
140.56616
 20
4.036402
 30
0.0
 11
149.96616
 21
4.036402
 31
0.0
  0
LINE
  8
0
  6
CONTINUOUS
 62
     7
  5
110
 10
149.96616
 20
4.036402
 30
0.0
 11
150.16616
 21
4.236402
 31
0.0
  0
LINE
  8
0
  6
CONTINUOUS
 62
     7
  5
111
 10
150.16616
 20
8.836402
 30
0.0
 11
149.96616
 21
9.036402
 31
0.0
  0
ENDBLK
  8
0
  5
112
  0
BLOCK
  8
0
  5
115
  2
AID467
 70
     0
 10
0.0
 20
0.0
 30
0.0
  3
#auxiliary draft view
  0
CIRCLE
  8
0
  6
CONTINUOUS
 62
     7
  5
116
 10
444.11776
 20
140.680402
 30
0.0
 40
2.067
210
0.0
220
0.0
230
1.0
  0
CIRCLE
  8
0
  6
CONTINUOUS
 62
     7
  5
117
 10
444.11776
 20
140.680402
 30
0.0
 40
2.5
210
0.0
220
0.0
230
1.0
  0
CIRCLE
  8
0
  6
CONTINUOUS
 62
     7
  5
118
 10
416.11776
 20
168.680402
 30
0.0
 40
2.5
210
0.0
220
0.0
230
1.0
  0
CIRCLE
  8
0
  6
CONTINUOUS
 62
     7
  5
119
 10
444.11776
 20
168.680402
 30
0.0
 40
2.5
210
0.0
220
0.0
230
1.0
  0
CIRCLE
  8
0
  6
CONTINUOUS
 62
     7
  5
11A
 10
416.11776
 20
140.680402
 30
0.0
 40
2.5
210
0.0
220
0.0
230
1.0
  0
CIRCLE
  8
0
  6
CONTINUOUS
 62
     7
  5
11B
 10
396.11776
 20
168.680402
 30
0.0
 40
2.75
210
0.0
220
0.0
230
1.0
  0
CIRCLE
  8
0
  6
CONTINUOUS
 62
     7
  5
11C
 10
464.11776
 20
168.680402
 30
0.0
 40
2.75
210
0.0
220
0.0
230
1.0
  0
CIRCLE
  8
0
  6
CONTINUOUS
 62
     7
  5
11D
 10
396.11776
 20
140.680402
 30
0.0
 40
2.75
210
0.0
220
0.0
230
1.0
  0
CIRCLE
  8
0
  6
CONTINUOUS
 62
     7
  5
11E
 10
430.11776
 20
154.680402
 30
0.0
 40
6.5
210
0.0
220
0.0
230
1.0
  0
LINE
  8
0
  6
CONTINUOUS
 62
     7
  5
11F
 10
390.11776
 20
173.680402
 30
0.0
 11
390.11776
 21
135.680402
 31
0.0
  0
LINE
  8
0
  6
CONTINUOUS
 62
     7
  5
120
 10
470.11776
 20
173.680402
 30
0.0
 11
390.11776
 21
173.680402
 31
0.0
  0
LINE
  8
0
  6
CONTINUOUS
 62
     7
  5
121
 10
390.11776
 20
135.680402
 30
0.0
 11
470.11776
 21
135.680402
 31
0.0
  0
LINE
  8
0
  6
CONTINUOUS
 62
     7
  5
122
 10
470.11776
 20
135.680402
 30
0.0
 11
470.11776
 21
173.680402
 31
0.0
  0
CIRCLE
  8
0
  6
CONTINUOUS
 62
     7
  5
123
 10
464.11776
 20
140.680402
 30
0.0
 40
2.75
210
0.0
220
0.0
230
1.0
  0
CIRCLE
  8
0
  6
CONTINUOUS
 62
     7
  5
124
 10
444.11776
 20
168.680402
 30
0.0
 40
2.067
210
0.0
220
0.0
230
1.0
  0
CIRCLE
  8
0
  6
CONTINUOUS
 62
     7
  5
125
 10
416.11776
 20
140.680402
 30
0.0
 40
2.067
210
0.0
220
0.0
230
1.0
  0
CIRCLE
  8
0
  6
CONTINUOUS
 62
     7
  5
126
 10
416.11776
 20
168.680402
 30
0.0
 40
2.067
210
0.0
220
0.0
230
1.0
  0
CIRCLE
  8
0
  6
CONTINUOUS
 62
     7
  5
127
 10
430.11776
 20
154.680402
 30
0.0
 40
2.25
210
0.0
220
0.0
230
1.0
  0
CIRCLE
  8
0
  6
CONTINUOUS
 62
     7
  5
128
 10
430.11776
 20
154.680402
 30
0.0
 40
4.75
210
0.0
220
0.0
230
1.0
  0
LINE
  8
0
  6
CONTINUOUS
 62
     7
  5
129
 10
430.11776
 20
152.948351
 30
0.0
 11
431.61776
 21
153.814377
 31
0.0
  0
LINE
  8
0
  6
CONTINUOUS
 62
     7
  5
12A
 10
431.61776
 20
155.546428
 30
0.0
 11
430.11776
 21
156.412453
 31
0.0
  0
LINE
  8
0
  6
CONTINUOUS
 62
     7
  5
12B
 10
430.11776
 20
156.412453
 30
0.0
 11
428.61776
 21
155.546428
 31
0.0
  0
LINE
  8
0
  6
CONTINUOUS
 62
     7
  5
12C
 10
428.61776
 20
153.814377
 30
0.0
 11
430.11776
 21
152.948351
 31
0.0
  0
LINE
  8
0
  6
CONTINUOUS
 62
     7
  5
12D
 10
431.61776
 20
153.814377
 30
0.0
 11
431.61776
 21
155.546428
 31
0.0
  0
LINE
  8
0
  6
CONTINUOUS
 62
     7
  5
12E
 10
428.61776
 20
155.546428
 30
0.0
 11
428.61776
 21
153.814377
 31
0.0
  0
CIRCLE
  8
0
  6
CONTINUOUS
 62
     7
  5
12F
 10
430.11776
 20
154.680402
 30
0.0
 40
5.25
210
0.0
220
0.0
230
1.0
  0
LINE
  8
0
  6
CONTINUOUS
 62
     7
  5
130
 10
450.36776
 20
135.680402
 30
0.0
 11
450.36776
 21
134.680402
 31
0.0
  0
LINE
  8
0
  6
CONTINUOUS
 62
     7
  5
131
 10
470.11776
 20
173.680402
 30
0.0
 11
472.11776
 21
173.680402
 31
0.0
  0
LINE
  8
0
  6
CONTINUOUS
 62
     7
  5
132
 10
450.36776
 20
134.680402
 30
0.0
 11
472.11776
 21
134.680402
 31
0.0
  0
LINE
  8
0
  6
CONTINUOUS
 62
     7
  5
133
 10
472.11776
 20
173.680402
 30
0.0
 11
472.11776
 21
134.680402
 31
0.0
  0
LINE
  8
0
  6
CONTINUOUS
 62
     7
  5
134
 10
388.11776
 20
173.680402
 30
0.0
 11
388.11776
 21
134.680402
 31
0.0
  0
LINE
  8
0
  6
CONTINUOUS
 62
     7
  5
135
 10
409.86776
 20
135.680402
 30
0.0
 11
409.86776
 21
134.680402
 31
0.0
  0
LINE
  8
0
  6
CONTINUOUS
 62
     7
  5
136
 10
388.11776
 20
134.680402
 30
0.0
 11
409.86776
 21
134.680402
 31
0.0
  0
LINE
  8
0
  6
CONTINUOUS
 62
     7
  5
137
 10
388.11776
 20
173.680402
 30
0.0
 11
390.11776
 21
173.680402
 31
0.0
  0
LINE
  8
0
  6
CONTINUOUS
 62
     7
  5
138
 10
409.86776
 20
134.680402
 30
0.0
 11
450.36776
 21
134.680402
 31
0.0
  0
LINE
  8
0
  6
CONTINUOUS
 62
     7
  5
139
 10
472.11776
 20
175.180402
 30
0.0
 11
450.11776
 21
175.180402
 31
0.0
  0
LINE
  8
0
  6
CONTINUOUS
 62
     7
  5
13A
 10
472.11776
 20
173.680402
 30
0.0
 11
472.11776
 21
175.180402
 31
0.0
  0
LINE
  8
0
  6
CONTINUOUS
 62
     7
  5
13B
 10
450.11776
 20
175.180402
 30
0.0
 11
450.11776
 21
173.680402
 31
0.0
  0
ENDBLK
  8
0
  5
13C
  0
ENDSEC
  0
SECTION
  2
ENTITIES
  0
INSERT
  8
0
  5
50
  2
AID3
 10
0.0
 20
0.0
 30
0.0
  0
INSERT
  8
0
  5
81
  2
AID89
 10
0.0
 20
0.0
 30
0.0
  0
INSERT
  8
0
  5
C4
  2
AID183
 10
0.0
 20
0.0
 30
0.0
  0
INSERT
  8
0
  5
113
  2
AID313
 10
0.0
 20
0.0
 30
0.0
  0
INSERT
  8
0
  5
13D
  2
AID467
 10
0.0
 20
0.0
 30
0.0
  0
LINE
  8
0
  6
CENTER
 62
     1
  5
13F
 10
158.36616
 20
292.442175
 30
0.0
 11
233.86616
 21
292.442175
 31
0.0
  0
LINE
  8
0
  6
CENTER
 62
     1
  5
140
 10
164.11616
 20
273.442175
 30
0.0
 11
176.61616
 21
273.442175
 31
0.0
  0
LINE
  8
0
  6
CENTER
 62
     1
  5
141
 10
170.36616
 20
267.192175
 30
0.0
 11
170.36616
 21
279.692175
 31
0.0
  0
LINE
  8
0
  6
CENTER
 62
     1
  5
142
 10
164.11616
 20
311.442175
 30
0.0
 11
176.61616
 21
311.442175
 31
0.0
  0
LINE
  8
0
  6
CENTER
 62
     1
  5
143
 10
170.36616
 20
305.192175
 30
0.0
 11
170.36616
 21
317.692175
 31
0.0
  0
LINE
  8
0
  6
CENTER
 62
     1
  5
144
 10
168.86616
 20
266.442175
 30
0.0
 11
179.86616
 21
266.442175
 31
0.0
  0
LINE
  8
0
  6
CENTER
 62
     1
  5
145
 10
174.36616
 20
260.942175
 30
0.0
 11
174.36616
 21
271.942175
 31
0.0
  0
LINE
  8
0
  6
CENTER
 62
     1
  5
146
 10
168.86616
 20
318.442175
 30
0.0
 11
179.86616
 21
318.442175
 31
0.0
  0
LINE
  8
0
  6
CENTER
 62
     1
  5
147
 10
174.36616
 20
312.942175
 30
0.0
 11
174.36616
 21
323.942175
 31
0.0
  0
LINE
  8
0
  6
CENTER
 62
     1
  5
148
 10
196.86616
 20
266.442175
 30
0.0
 11
207.86616
 21
266.442175
 31
0.0
  0
LINE
  8
0
  6
CENTER
 62
     1
  5
149
 10
202.36616
 20
260.942175
 30
0.0
 11
202.36616
 21
271.942175
 31
0.0
  0
LINE
  8
0
  6
CENTER
 62
     1
  5
14A
 10
196.86616
 20
318.442175
 30
0.0
 11
207.86616
 21
318.442175
 31
0.0
  0
LINE
  8
0
  6
CENTER
 62
     1
  5
14B
 10
202.36616
 20
312.942175
 30
0.0
 11
202.36616
 21
323.942175
 31
0.0
  0
LINE
  8
0
  6
CENTER
 62
     1
  5
14C
 10
134.36616
 20
292.442175
 30
0.0
 11
153.16616
 21
292.442175
 31
0.0
  0
LINE
  8
0
  6
CENTER
 62
     1
  5
14D
 10
-29.374733
 20
154.680402
 30
0.0
 11
-5.374733
 21
154.680402
 31
0.0
  0
LINE
  8
0
  6
CENTER
 62
     1
  5
14E
 10
-0.924733
 20
154.680402
 30
0.0
 11
28.175267
 21
154.680402
 31
0.0
  0
LINE
  8
0
  6
CENTER
 62
     1
  5
14F
 10
13.625267
 20
140.130402
 30
0.0
 11
13.625267
 21
169.230402
 31
0.0
  0
LINE
  8
0
  6
CENTER
 62
     1
  5
150
 10
32.625267
 20
154.680402
 30
0.0
 11
56.625267
 21
154.680402
 31
0.0
  0
LINE
  8
0
  6
CENTER
 62
     1
  5
151
 10
44.625267
 20
142.680402
 30
0.0
 11
44.625267
 21
166.680402
 31
0.0
  0
LINE
  8
0
  6
CENTER
 62
     1
  5
152
 10
-17.374733
 20
178.180402
 30
0.0
 11
-17.374733
 21
133.680402
 31
0.0
  0
LINE
  8
0
  6
CENTER
 62
     1
  5
153
 10
168.86616
 20
140.680402
 30
0.0
 11
179.86616
 21
140.680402
 31
0.0
  0
LINE
  8
0
  6
CENTER
 62
     1
  5
154
 10
168.86616
 20
168.680402
 30
0.0
 11
179.86616
 21
168.680402
 31
0.0
  0
LINE
  8
0
  6
CENTER
 62
     1
  5
155
 10
174.36616
 20
163.180402
 30
0.0
 11
174.36616
 21
174.180402
 31
0.0
  0
LINE
  8
0
  6
CENTER
 62
     1
  5
156
 10
196.86616
 20
140.680402
 30
0.0
 11
207.86616
 21
140.680402
 31
0.0
  0
LINE
  8
0
  6
CENTER
 62
     1
  5
157
 10
196.86616
 20
168.680402
 30
0.0
 11
207.86616
 21
168.680402
 31
0.0
  0
LINE
  8
0
  6
CENTER
 62
     1
  5
158
 10
202.36616
 20
163.180402
 30
0.0
 11
202.36616
 21
174.180402
 31
0.0
  0
LINE
  8
0
  6
CENTER
 62
     1
  5
159
 10
134.36616
 20
154.680402
 30
0.0
 11
321.36616
 21
154.680402
 31
0.0
  0
LINE
  8
0
  6
CENTER
 62
     1
  5
15A
 10
202.36616
 20
146.180402
 30
0.0
 11
202.36616
 21
131.680402
 31
0.0
  0
LINE
  8
0
  6
CENTER
 62
     1
  5
15B
 10
174.36616
 20
135.180402
 30
0.0
 11
174.36616
 21
149.480402
 31
0.0
  0
LINE
  8
0
  6
CENTER
 62
     1
  5
15C
 10
404.11776
 20
138.113402
 30
0.0
 11
404.11776
 21
131.680402
 31
0.0
  0
LINE
  8
0
  6
CENTER
 62
     1
  5
15D
 10
390.36776
 20
140.680402
 30
0.0
 11
401.86776
 21
140.680402
 31
0.0
  0
LINE
  8
0
  6
CENTER
 62
     1
  5
15E
 10
396.11776
 20
134.930402
 30
0.0
 11
396.11776
 21
146.430402
 31
0.0
  0
LINE
  8
0
  6
CENTER
 62
     1
  5
15F
 10
390.36776
 20
168.680402
 30
0.0
 11
401.86776
 21
168.680402
 31
0.0
  0
LINE
  8
0
  6
CENTER
 62
     1
  5
160
 10
396.11776
 20
162.930402
 30
0.0
 11
396.11776
 21
174.430402
 31
0.0
  0
LINE
  8
0
  6
CENTER
 62
     1
  5
161
 10
410.61776
 20
140.680402
 30
0.0
 11
421.61776
 21
140.680402
 31
0.0
  0
LINE
  8
0
  6
CENTER
 62
     1
  5
162
 10
416.11776
 20
135.180402
 30
0.0
 11
416.11776
 21
146.180402
 31
0.0
  0
LINE
  8
0
  6
CENTER
 62
     1
  5
163
 10
410.61776
 20
168.680402
 30
0.0
 11
421.61776
 21
168.680402
 31
0.0
  0
LINE
  8
0
  6
CENTER
 62
     1
  5
164
 10
416.11776
 20
163.180402
 30
0.0
 11
416.11776
 21
174.180402
 31
0.0
  0
LINE
  8
0
  6
CENTER
 62
     1
  5
165
 10
420.61776
 20
154.680402
 30
0.0
 11
439.61776
 21
154.680402
 31
0.0
  0
LINE
  8
0
  6
CENTER
 62
     1
  5
166
 10
430.11776
 20
145.180402
 30
0.0
 11
430.11776
 21
164.180402
 31
0.0
  0
LINE
  8
0
  6
CENTER
 62
     1
  5
167
 10
438.61776
 20
140.680402
 30
0.0
 11
449.61776
 21
140.680402
 31
0.0
  0
LINE
  8
0
  6
CENTER
 62
     1
  5
168
 10
444.11776
 20
135.180402
 30
0.0
 11
444.11776
 21
146.180402
 31
0.0
  0
LINE
  8
0
  6
CENTER
 62
     1
  5
169
 10
438.61776
 20
168.680402
 30
0.0
 11
449.61776
 21
168.680402
 31
0.0
  0
LINE
  8
0
  6
CENTER
 62
     1
  5
16A
 10
444.11776
 20
163.180402
 30
0.0
 11
444.11776
 21
174.180402
 31
0.0
  0
LINE
  8
0
  6
CENTER
 62
     1
  5
16B
 10
458.36776
 20
140.680402
 30
0.0
 11
469.86776
 21
140.680402
 31
0.0
  0
LINE
  8
0
  6
CENTER
 62
     1
  5
16C
 10
464.11776
 20
134.930402
 30
0.0
 11
464.11776
 21
146.430402
 31
0.0
  0
LINE
  8
0
  6
CENTER
 62
     1
  5
16D
 10
458.36776
 20
168.680402
 30
0.0
 11
469.86776
 21
168.680402
 31
0.0
  0
LINE
  8
0
  6
CENTER
 62
     1
  5
16E
 10
464.11776
 20
162.930402
 30
0.0
 11
464.11776
 21
174.430402
 31
0.0
  0
LINE
  8
0
  6
CENTER
 62
     1
  5
16F
 10
164.11616
 20
-12.463598
 30
0.0
 11
176.61616
 21
-12.463598
 31
0.0
  0
LINE
  8
0
  6
CENTER
 62
     1
  5
170
 10
170.36616
 20
-18.713598
 30
0.0
 11
170.36616
 21
-6.213598
 31
0.0
  0
LINE
  8
0
  6
CENTER
 62
     1
  5
171
 10
164.11616
 20
25.536402
 30
0.0
 11
176.61616
 21
25.536402
 31
0.0
  0
LINE
  8
0
  6
CENTER
 62
     1
  5
172
 10
170.36616
 20
19.286402
 30
0.0
 11
170.36616
 21
31.786402
 31
0.0
  0
LINE
  8
0
  6
CENTER
 62
     1
  5
173
 10
188.36616
 20
-38.463598
 30
0.0
 11
188.36616
 21
-10.463598
 31
0.0
  0
LINE
  8
0
  6
CENTER
 62
     1
  5
174
 10
189.36616
 20
-9.463598
 30
0.0
 11
199.36616
 21
-9.463598
 31
0.0
  0
LINE
  8
0
  6
CENTER
 62
     1
  5
175
 10
194.36616
 20
-14.463598
 30
0.0
 11
194.36616
 21
-4.463598
 31
0.0
  0
LINE
  8
0
  6
CENTER
 62
     1
  5
176
 10
189.36616
 20
22.536402
 30
0.0
 11
199.36616
 21
22.536402
 31
0.0
  0
LINE
  8
0
  6
CENTER
 62
     1
  5
177
 10
194.36616
 20
17.536402
 30
0.0
 11
194.36616
 21
27.536402
 31
0.0
  0
LINE
  8
0
  6
CENTER
 62
     1
  5
178
 10
221.36616
 20
-9.463598
 30
0.0
 11
231.36616
 21
-9.463598
 31
0.0
  0
LINE
  8
0
  6
CENTER
 62
     1
  5
179
 10
226.36616
 20
-14.463598
 30
0.0
 11
226.36616
 21
-4.463598
 31
0.0
  0
LINE
  8
0
  6
CENTER
 62
     1
  5
17A
 10
221.36616
 20
22.536402
 30
0.0
 11
231.36616
 21
22.536402
 31
0.0
  0
LINE
  8
0
  6
CENTER
 62
     1
  5
17B
 10
226.36616
 20
17.536402
 30
0.0
 11
226.36616
 21
27.536402
 31
0.0
  0
LINE
  8
0
  6
CENTER
 62
     1
  5
17C
 10
134.36616
 20
-24.463598
 30
0.0
 11
321.36616
 21
-24.463598
 31
0.0
  0
LINE
  8
0
  6
CENTER
 62
     1
  5
17D
 10
124.36616
 20
6.536402
 30
0.0
 11
233.16616
 21
6.536402
 31
0.0
  0
LINE
  8
0
  6
CENTER
 62
     1
  5
17E
 10
319.36616
 20
323.442175
 30
0.0
 11
238.36616
 21
323.442175
 31
0.0
  0
LINE
  8
0
  6
CENTER
 62
     1
  5
17F
 10
319.36616
 20
261.442175
 30
0.0
 11
238.36616
 21
261.442175
 31
0.0
  0
LINE
  8
0
  6
CENTER
 62
     1
  5
180
 10
319.36616
 20
37.536402
 30
0.0
 11
238.36616
 21
37.536402
 31
0.0
  0
LINE
  8
0
  6
CENTER
 62
     1
  5
181
 10
144.36616
 20
323.442175
 30
0.0
 11
134.36616
 21
323.442175
 31
0.0
  0
LINE
  8
0
  6
CENTER
 62
     1
  5
182
 10
144.36616
 20
261.442175
 30
0.0
 11
134.36616
 21
261.442175
 31
0.0
  0
LINE
  8
0
  6
CENTER
 62
     1
  5
183
 10
144.36616
 20
37.536402
 30
0.0
 11
134.36616
 21
37.536402
 31
0.0
  0
TEXT
  8
0
 62
     7
  5
184
 10
-13.874733
 20
52.430402
 30
0.0
 40
5.5
  1
Représenté course 60 mm
210
0.0
220
0.0
230
1.0
  0
TEXT
  8
0
 62
     7
  5
185
 10
-13.874733
 20
34.930402
 30
0.0
 40
5.5
  1
Represented stroke 60 mm
210
0.0
220
0.0
230
1.0
  0
TEXT
  8
0
 62
     7
  5
186
 10
-13.874733
 20
17.430402
 30
0.0
 40
5.5
  1
In Hub 60 mm vorgestellt
210
0.0
220
0.0
230
1.0
  0
ENDSEC
  0
EOF
