  0
SECTION
  2
HEADER
  9
$ACADVER
  1
AC1009
  9
$DWGCODEPAGE
  3
ansi_1252
  9
$INSBASE
 10
0.0
 20
0.0
 30
0.0
  9
$EXTMIN
 10
-69.374733
 20
-53.963598
 30
0.0
  9
$EXTMAX
 10
510.11776
 20
349.942175
 30
5.0
  9
$LIMMIN
 10
-69.374733
 20
-53.963598
  9
$LIMMAX
 10
510.11776
 20
349.942175
  9
$ORTHOMODE
 70
     0
  9
$REGENMODE
 70
     1
  9
$FILLMODE
 70
     1
  9
$QTEXTMODE
 70
     0
  9
$MIRRTEXT
 70
     1
  9
$DRAGMODE
 70
     2
  9
$LTSCALE
 40
10.0
  9
$OSMODE
 70
     0
  9
$ATTMODE
 70
     1
  9
$TEXTSIZE
 40
0.2
  9
$TRACEWID
 40
0.05
  9
$TEXTSTYLE
  7
STANDARD
  9
$CLAYER
  8
0
  9
$CELTYPE
  6
CONTINUOUS
  9
$CECOLOR
 62
   256
  9
$DIMSCALE
 40
1.0
  9
$DIMASZ
 40
1.25
  9
$DIMEXO
 40
1.0
  9
$DIMDLI
 40
0.38
  9
$DIMRND
 40
0.0
  9
$DIMDLE
 40
0.0
  9
$DIMEXE
 40
0.75
  9
$DIMTP
 40
0.0
  9
$DIMTM
 40
0.0
  9
$DIMTXT
 40
2.5
  9
$DIMCEN
 40
0.09
  9
$DIMTSZ
 40
0.0
  9
$DIMTOL
 70
     0
  9
$DIMLIM
 70
     0
  9
$DIMTIH
 70
     0
  9
$DIMTOH
 70
     0
  9
$DIMSE1
 70
     0
  9
$DIMSE2
 70
     0
  9
$DIMTAD
 70
     1
  9
$DIMZIN
 70
     0
  9
$DIMBLK
  1

  9
$DIMASO
 70
     1
  9
$DIMSHO
 70
     1
  9
$DIMPOST
  1

  9
$DIMAPOST
  1

  9
$DIMALT
 70
     0
  9
$DIMALTD
 70
     2
  9
$DIMALTF
 40
25.4
  9
$DIMLFAC
 40
1.0
  9
$DIMTOFL
 70
     0
  9
$DIMTVP
 40
0.0
  9
$DIMTIX
 70
     0
  9
$DIMSOXD
 70
     0
  9
$DIMSAH
 70
     0
  9
$DIMBLK1
  1

  9
$DIMBLK2
  1

  9
$DIMSTYLE
  2
STANDARD
  9
$DIMCLRD
 70
     7
  9
$DIMCLRE
 70
     7
  9
$DIMCLRT
 70
     7
  9
$DIMTFAC
 40
0.8
  9
$DIMGAP
 40
1.25
  9
$LUNITS
 70
     2
  9
$LUPREC
 70
     4
  9
$AXISMODE
 70
     0
  9
$AXISUNIT
 10
0.0
 20
0.0
  9
$SKETCHINC
 40
0.1
  9
$FILLETRAD
 40
0.0
  9
$AUNITS
 70
     0
  9
$AUPREC
 70
     0
  9
$MENU
  1
acad
  9
$ELEVATION
 40
0.0
  9
$PELEVATION
 40
0.0
  9
$THICKNESS
 40
0.0
  9
$LIMCHECK
 70
     0
  9
$BLIPMODE
 70
     1
  9
$CHAMFERA
 40
0.0
  9
$CHAMFERB
 40
0.0
  9
$SKPOLY
 70
     0
  9
$TDCREATE
 40
2454335.419768518
  9
$TDUPDATE
 40
2454335.336030093
  9
$TDINDWG
 40
0.0000000000
  9
$TDUSRTIMER
 40
0.0000000000
  9
$USRTIMER
 70
     1
  9
$ANGBASE
 50
0.0
  9
$ANGDIR
 70
     0
  9
$PDMODE
 70
     0
  9
$PDSIZE
 40
0.0
  9
$PLINEWID
 40
0.0
  9
$COORDS
 70
     0
  9
$SPLFRAME
 70
     0
  9
$SPLINETYPE
 70
     6
  9
$SPLINESEGS
 70
     8
  9
$ATTDIA
 70
     0
  9
$ATTREQ
 70
     1
  9
$HANDLING
 70
     1
  9
$HANDSEED
  5
1D5
  9
$SURFTAB1
 70
     6
  9
$SURFTAB2
 70
     6
  9
$SURFTYPE
 70
     6
  9
$SURFU
 70
     6
  9
$SURFV
 70
     6
  9
$UCSNAME
  2

  9
$UCSORG
 10
0.0
 20
0.0
 30
0.0
  9
$UCSXDIR
 10
1.0
 20
0.0
 30
0.0
  9
$UCSYDIR
 10
0.0
 20
1.0
 30
0.0
  9
$PUCSNAME
  2

  9
$PUCSORG
 10
0.0
 20
0.0
 30
0.0
  9
$PUCSXDIR
 10
1.0
 20
0.0
 30
0.0
  9
$PUCSYDIR
 10
0.0
 20
1.0
 30
0.0
  9
$USERI1
 70
     0
  9
$USERI2
 70
     0
  9
$USERI3
 70
     0
  9
$USERI4
 70
     0
  9
$USERI5
 70
     0
  9
$USERR1
 40
0.0
  9
$USERR2
 40
0.0
  9
$USERR3
 40
0.0
  9
$USERR4
 40
0.0
  9
$USERR5
 40
0.0
  9
$WORLDVIEW
 70
     1
  9
$SHADEDGE
 70
     3
  9
$SHADEDIF
 70
    70
  9
$TILEMODE
 70
     1
  9
$MAXACTVP
 70
    16
  9
$PINSBASE
 10
0.0
 20
0.0
 30
0.0
  9
$PLIMCHECK
 70
     0
  9
$PEXTMIN
 10
1.000000E+20
 20
1.000000E+20
 30
1.000000E+20
  9
$PEXTMAX
 10
-1.000000E+20
 20
-1.000000E+20
 30
-1.000000E+20
  9
$PLIMMIN
 10
0.0
 20
0.0
  9
$PLIMMAX
 10
12.0
 20
9.0
  9
$UNITMODE
 70
     0
  9
$VISRETAIN
 70
     0
  9
$PLINEGEN
 70
     1
  9
$PSLTSCALE
 70
     0
  9
$TREEDEPTH
 70
  3020
  0
ENDSEC
  0
SECTION
  2
TABLES
  0
TABLE
  2
VPORT
 70
     1
  0
VPORT
  2
*ACTIVE
 70
     0
 10
0.0
 20
0.0
 11
1.0
 21
1.0
 12
6.591288
 22
4.579184
 13
0.0
 23
0.0
 14
1.0
 24
1.0
 15
0.0
 25
0.0
 16
0.0
 26
0.0
 36
1.0
 17
0.0
 27
0.0
 37
0.0
 40
9.158369
 41
0.688564
 42
50.0
 43
0.0
 44
0.0
 50
0.0
 51
0.0
 71
     0
 72
   100
 73
     1
 74
     1
 75
     0
 76
     0
 77
     0
 78
     0
  0
ENDTAB
  0
TABLE
  2
LTYPE
 70
     2
  0
LTYPE
  2
CONTINUOUS
 70
    64
  3
Solid line
 72
    65
 73
     0
 40
0.0
  0
LTYPE
  2
CENTER
 70
    64
  3
____ _ ____ _ ____ _ ____ _ ____ _ ____ _ ____
 72
    65
 73
     4
 40
2.0
 49
1.25
 49
-0.25
 49
0.25
 49
-0.25
  0
ENDTAB
  0
TABLE
  2
LAYER
 70
     1
  0
LAYER
  2
0
 70
     0
 62
     7
  6
CONTINUOUS
  0
ENDTAB
  0
TABLE
  2
STYLE
 70
     1
  0
STYLE
  2
STANDARD
 70
     0
 40
0.0
 41
1.0
 50
0.0
 71
     0
 42
0.0
  3
IsonormD
  4

  0
ENDTAB
  0
TABLE
  2
VIEW
 70
     0
  0
ENDTAB
  0
TABLE
  2
UCS
 70
     0
  0
ENDTAB
  0
TABLE
  2
APPID
 70
     2
  0
APPID
  2
ACAD
 70
     0
  0
APPID
  2
TopSolid_Draft
 70
     0
  0
ENDTAB
  0
TABLE
  2
DIMSTYLE
 70
     1
  0
DIMSTYLE
  2
STANDARD
 70
     0
  3

  4

  5

  6

  7

 40
1.0
 41
1.25
 42
1.0
 43
0.38
 44
0.75
 45
0.0
 46
0.0
 47
0.0
 48
0.0
 71
     0
 72
     0
 73
     0
 74
     0
 75
     0
 76
     0
 77
     1
 78
     0
140
2.5
141
0.09
142
0.0
143
25.4
144
1.0
145
0.0
146
0.8
147
1.25
170
     0
171
     2
172
     0
173
     0
174
     0
175
     0
176
     7
177
     7
178
     7
  0
ENDTAB
  0
ENDSEC
  0
SECTION
  2
BLOCKS
  0
BLOCK
  8
0
  5
25
  2
AID3
 70
     0
 10
0.0
 20
0.0
 30
0.0
  3
#draft view
  0
LINE
  8
0
  6
CONTINUOUS
 62
     7
  5
26
 10
328.56616
 20
141.180402
 30
0.0
 11
328.56616
 21
167.180402
 31
0.0
  0
LINE
  8
0
  6
CONTINUOUS
 62
     7
  5
27
 10
326.36616
 20
167.180402
 30
0.0
 11
326.36616
 21
141.180402
 31
0.0
  0
LINE
  8
0
  6
CONTINUOUS
 62
     7
  5
28
 10
329.36616
 20
166.380402
 30
0.0
 11
329.36616
 21
154.180402
 31
0.0
  0
LINE
  8
0
  6
CONTINUOUS
 62
     7
  5
29
 10
329.36616
 20
154.180402
 30
0.0
 11
329.36616
 21
141.980402
 31
0.0
  0
LINE
  8
0
  6
CONTINUOUS
 62
     7
  5
2A
 10
109.36616
 20
126.680402
 30
0.0
 11
109.36616
 21
181.680402
 31
0.0
  0
LINE
  8
0
  6
CONTINUOUS
 62
     7
  5
2B
 10
109.36616
 20
181.680402
 30
0.0
 11
124.36616
 21
181.680402
 31
0.0
  0
LINE
  8
0
  6
CONTINUOUS
 62
     7
  5
2C
 10
124.36616
 20
126.680402
 30
0.0
 11
124.36616
 21
181.680402
 31
0.0
  0
LINE
  8
0
  6
CONTINUOUS
 62
     7
  5
2D
 10
109.36616
 20
126.680402
 30
0.0
 11
124.36616
 21
126.680402
 31
0.0
  0
LINE
  8
0
  6
CONTINUOUS
 62
     7
  5
2E
 10
335.36616
 20
149.180402
 30
0.0
 11
335.36616
 21
159.180402
 31
0.0
  0
LINE
  8
0
  6
CONTINUOUS
 62
     7
  5
2F
 10
129.66616
 20
162.680402
 30
0.0
 11
129.66616
 21
162.180402
 31
0.0
  0
LINE
  8
0
  6
CONTINUOUS
 62
     7
  5
30
 10
129.66616
 20
146.180402
 30
0.0
 11
129.66616
 21
145.680402
 31
0.0
  0
CIRCLE
  8
0
  6
CONTINUOUS
 62
     7
  5
31
 10
192.36616
 20
173.180402
 30
0.0
 40
3.0
210
0.0
220
0.0
230
1.0
  0
CIRCLE
  8
0
  6
CONTINUOUS
 62
     7
  5
32
 10
192.36616
 20
135.180402
 30
0.0
 40
3.0
210
0.0
220
0.0
230
1.0
  0
CIRCLE
  8
0
  6
CONTINUOUS
 62
     7
  5
33
 10
173.36616
 20
173.180402
 30
0.0
 40
3.0
210
0.0
220
0.0
230
1.0
  0
CIRCLE
  8
0
  6
CONTINUOUS
 62
     7
  5
34
 10
211.36616
 20
173.180402
 30
0.0
 40
3.0
210
0.0
220
0.0
230
1.0
  0
CIRCLE
  8
0
  6
CONTINUOUS
 62
     7
  5
35
 10
173.36616
 20
135.180402
 30
0.0
 40
3.0
210
0.0
220
0.0
230
1.0
  0
CIRCLE
  8
0
  6
CONTINUOUS
 62
     7
  5
36
 10
211.36616
 20
135.180402
 30
0.0
 40
3.0
210
0.0
220
0.0
230
1.0
  0
LINE
  8
0
  6
CONTINUOUS
 62
     7
  5
37
 10
131.36616
 20
183.180402
 30
0.0
 11
188.86616
 21
183.180402
 31
0.0
  0
LINE
  8
0
  6
CONTINUOUS
 62
     7
  5
38
 10
188.86616
 20
183.180402
 30
0.0
 11
256.36616
 21
183.180402
 31
0.0
  0
LINE
  8
0
  6
CONTINUOUS
 62
     7
  5
39
 10
131.36616
 20
125.180402
 30
0.0
 11
256.36616
 21
125.180402
 31
0.0
  0
LINE
  8
0
  6
CONTINUOUS
 62
     7
  5
3A
 10
256.36616
 20
183.180402
 30
0.0
 11
256.36616
 21
125.180402
 31
0.0
  0
LINE
  8
0
  6
CONTINUOUS
 62
     7
  5
3B
 10
131.36616
 20
183.180402
 30
0.0
 11
131.36616
 21
125.180402
 31
0.0
  0
CIRCLE
  8
0
  6
CONTINUOUS
 62
     7
  5
3C
 10
211.36616
 20
135.180402
 30
0.0
 40
2.459
210
0.0
220
0.0
230
1.0
  0
CIRCLE
  8
0
  6
CONTINUOUS
 62
     7
  5
3D
 10
173.36616
 20
135.180402
 30
0.0
 40
2.459
210
0.0
220
0.0
230
1.0
  0
CIRCLE
  8
0
  6
CONTINUOUS
 62
     7
  5
3E
 10
173.36616
 20
173.180402
 30
0.0
 40
2.459
210
0.0
220
0.0
230
1.0
  0
CIRCLE
  8
0
  6
CONTINUOUS
 62
     7
  5
3F
 10
211.36616
 20
173.180402
 30
0.0
 40
2.459
210
0.0
220
0.0
230
1.0
  0
LINE
  8
0
  6
CONTINUOUS
 62
     7
  5
40
 10
202.86616
 20
184.680402
 30
0.0
 11
174.86616
 21
184.680402
 31
0.0
  0
LINE
  8
0
  6
CONTINUOUS
 62
     7
  5
41
 10
276.36616
 20
178.180402
 30
0.0
 11
256.36616
 21
178.180402
 31
0.0
  0
LINE
  8
0
  6
CONTINUOUS
 62
     7
  5
42
 10
276.36616
 20
130.180402
 30
0.0
 11
256.36616
 21
130.180402
 31
0.0
  0
LINE
  8
0
  6
CONTINUOUS
 62
     7
  5
43
 10
276.36616
 20
178.180402
 30
0.0
 11
276.36616
 21
162.180402
 31
0.0
  0
LINE
  8
0
  6
CONTINUOUS
 62
     7
  5
44
 10
276.36616
 20
146.180402
 30
0.0
 11
276.36616
 21
130.180402
 31
0.0
  0
LINE
  8
0
  6
CONTINUOUS
 62
     7
  5
45
 10
328.56616
 20
167.180402
 30
0.0
 11
326.36616
 21
167.180402
 31
0.0
  0
LINE
  8
0
  6
CONTINUOUS
 62
     7
  5
46
 10
326.36616
 20
141.180402
 30
0.0
 11
328.56616
 21
141.180402
 31
0.0
  0
LINE
  8
0
  6
CONTINUOUS
 62
     7
  5
47
 10
328.56616
 20
141.180402
 30
0.0
 11
329.36616
 21
141.980402
 31
0.0
  0
LINE
  8
0
  6
CONTINUOUS
 62
     7
  5
48
 10
329.36616
 20
166.380402
 30
0.0
 11
328.56616
 21
167.180402
 31
0.0
  0
LINE
  8
0
  6
CONTINUOUS
 62
     7
  5
49
 10
326.36616
 20
162.180402
 30
0.0
 11
256.36616
 21
162.180402
 31
0.0
  0
LINE
  8
0
  6
CONTINUOUS
 62
     7
  5
4A
 10
131.36616
 20
162.180402
 30
0.0
 11
124.36616
 21
162.180402
 31
0.0
  0
LINE
  8
0
  6
CONTINUOUS
 62
     7
  5
4B
 10
124.36616
 20
146.180402
 30
0.0
 11
131.36616
 21
146.180402
 31
0.0
  0
LINE
  8
0
  6
CONTINUOUS
 62
     7
  5
4C
 10
256.36616
 20
146.180402
 30
0.0
 11
326.36616
 21
146.180402
 31
0.0
  0
LINE
  8
0
  6
CONTINUOUS
 62
     7
  5
4D
 10
329.36616
 20
149.180402
 30
0.0
 11
335.36616
 21
149.180402
 31
0.0
  0
LINE
  8
0
  6
CONTINUOUS
 62
     7
  5
4E
 10
335.36616
 20
159.180402
 30
0.0
 11
329.36616
 21
159.180402
 31
0.0
  0
LINE
  8
0
  6
CONTINUOUS
 62
     7
  5
4F
 10
129.66616
 20
162.680402
 30
0.0
 11
124.36616
 21
162.680402
 31
0.0
  0
LINE
  8
0
  6
CONTINUOUS
 62
     7
  5
50
 10
124.36616
 20
145.680402
 30
0.0
 11
129.66616
 21
145.680402
 31
0.0
  0
LINE
  8
0
  6
CONTINUOUS
 62
     7
  5
51
 10
202.86616
 20
183.180402
 30
0.0
 11
202.86616
 21
184.680402
 31
0.0
  0
LINE
  8
0
  6
CONTINUOUS
 62
     7
  5
52
 10
174.86616
 20
184.680402
 30
0.0
 11
174.86616
 21
183.180402
 31
0.0
  0
ENDBLK
  8
0
  5
53
  0
BLOCK
  8
0
  5
56
  2
AID97
 70
     0
 10
0.0
 20
0.0
 30
0.0
  3
#auxiliary draft view
  0
LINE
  8
0
  6
CONTINUOUS
 62
     7
  5
57
 10
-53.818108
 20
156.680402
 30
0.0
 11
-50.931357
 21
156.680402
 31
0.0
  0
LINE
  8
0
  6
CONTINUOUS
 62
     7
  5
58
 10
-55.261484
 20
154.180402
 30
0.0
 11
-53.818108
 21
156.680402
 31
0.0
  0
LINE
  8
0
  6
CONTINUOUS
 62
     7
  5
59
 10
-53.818108
 20
151.680402
 30
0.0
 11
-55.261484
 21
154.180402
 31
0.0
  0
CIRCLE
  8
0
  6
CONTINUOUS
 62
     7
  5
5A
 10
-52.374733
 20
154.180402
 30
0.0
 40
5.0
210
0.0
220
0.0
230
1.0
  0
LINE
  8
0
  6
CONTINUOUS
 62
     7
  5
5B
 10
-49.487981
 20
154.180402
 30
0.0
 11
-50.931357
 21
151.680402
 31
0.0
  0
LINE
  8
0
  6
CONTINUOUS
 62
     7
  5
5C
 10
-50.931357
 20
151.680402
 30
0.0
 11
-53.818108
 21
151.680402
 31
0.0
  0
LINE
  8
0
  6
CONTINUOUS
 62
     7
  5
5D
 10
-50.931357
 20
156.680402
 30
0.0
 11
-49.487981
 21
154.180402
 31
0.0
  0
LINE
  8
0
  6
CONTINUOUS
 62
     7
  5
5E
 10
36.068643
 20
156.680402
 30
0.0
 11
37.512019
 21
154.180402
 31
0.0
  0
LINE
  8
0
  6
CONTINUOUS
 62
     7
  5
5F
 10
33.181892
 20
151.680402
 30
0.0
 11
31.738516
 21
154.180402
 31
0.0
  0
LINE
  8
0
  6
CONTINUOUS
 62
     7
  5
60
 10
37.512019
 20
154.180402
 30
0.0
 11
36.068643
 21
151.680402
 31
0.0
  0
LINE
  8
0
  6
CONTINUOUS
 62
     7
  5
61
 10
33.181892
 20
156.680402
 30
0.0
 11
36.068643
 21
156.680402
 31
0.0
  0
LINE
  8
0
  6
CONTINUOUS
 62
     7
  5
62
 10
31.738516
 20
154.180402
 30
0.0
 11
33.181892
 21
156.680402
 31
0.0
  0
CIRCLE
  8
0
  6
CONTINUOUS
 62
     7
  5
63
 10
34.625267
 20
154.180402
 30
0.0
 40
5.0
210
0.0
220
0.0
230
1.0
  0
LINE
  8
0
  6
CONTINUOUS
 62
     7
  5
64
 10
36.068643
 20
151.680402
 30
0.0
 11
33.181892
 21
151.680402
 31
0.0
  0
CIRCLE
  8
0
  6
CONTINUOUS
 62
     7
  5
65
 10
34.625267
 20
154.180402
 30
0.0
 40
12.2
210
0.0
220
0.0
230
1.0
  0
CIRCLE
  8
0
  6
CONTINUOUS
 62
     7
  5
66
 10
-52.374733
 20
154.180402
 30
0.0
 40
12.2
210
0.0
220
0.0
230
1.0
  0
CIRCLE
  8
0
  6
CONTINUOUS
 62
     7
  5
67
 10
34.625267
 20
154.180402
 30
0.0
 40
13.0
210
0.0
220
0.0
230
1.0
  0
CIRCLE
  8
0
  6
CONTINUOUS
 62
     7
  5
68
 10
-52.374733
 20
154.180402
 30
0.0
 40
13.0
210
0.0
220
0.0
230
1.0
  0
CIRCLE
  8
0
  6
CONTINUOUS
 62
     7
  5
69
 10
-8.874733
 20
154.180402
 30
0.0
 40
3.6
210
0.0
220
0.0
230
1.0
  0
CIRCLE
  8
0
  6
CONTINUOUS
 62
     7
  5
6A
 10
-8.874733
 20
154.180402
 30
0.0
 40
4.0
210
0.0
220
0.0
230
1.0
  0
CIRCLE
  8
0
  6
CONTINUOUS
 62
     7
  5
6B
 10
-8.874733
 20
154.180402
 30
0.0
 40
8.5
210
0.0
220
0.0
230
1.0
  0
LINE
  8
0
  6
CONTINUOUS
 62
     7
  5
6C
 10
16.125267
 20
130.180402
 30
0.0
 11
16.125267
 21
152.930402
 31
0.0
  0
LINE
  8
0
  6
CONTINUOUS
 62
     7
  5
6D
 10
-33.874733
 20
130.180402
 30
0.0
 11
16.125267
 21
130.180402
 31
0.0
  0
LINE
  8
0
  6
CONTINUOUS
 62
     7
  5
6E
 10
-33.874733
 20
178.180402
 30
0.0
 11
-33.874733
 21
130.180402
 31
0.0
  0
LINE
  8
0
  6
CONTINUOUS
 62
     7
  5
6F
 10
16.125267
 20
178.180402
 30
0.0
 11
-33.874733
 21
178.180402
 31
0.0
  0
ARC
  8
0
  6
CONTINUOUS
 62
     7
  5
70
 10
-8.874733
 20
154.180402
 30
0.0
 40
18.6
 50
3.853427
 51
56.779057
210
0.0
220
0.0
230
1.0
  0
ARC
  8
0
  6
CONTINUOUS
 62
     7
  5
71
 10
-4.674733
 20
170.080402
 30
0.0
 40
6.0
 50
356.752384
 51
90.0
210
0.0
220
0.0
230
0.9999999999999999
  0
LINE
  8
0
  6
CONTINUOUS
 62
     7
  5
72
 10
-4.674733
 20
176.080402
 30
0.0
 11
-13.074733
 21
176.080402
 31
0.0
  0
ARC
  8
0
  6
CONTINUOUS
 62
     7
  5
73
 10
-13.074733
 20
170.080402
 30
0.0
 40
6.0
 50
90.0
 51
183.247616
210
0.0
220
0.0
230
1.0
  0
ARC
  8
0
  6
CONTINUOUS
 62
     7
  5
74
 10
-8.874733
 20
154.180402
 30
0.0
 40
18.6
 50
123.220943
 51
356.146573
210
0.0
220
0.0
230
1.0
  0
LINE
  8
0
  6
CONTINUOUS
 62
     7
  5
75
 10
9.683217
 20
152.930402
 30
0.0
 11
16.125267
 21
152.930402
 31
0.0
  0
LINE
  8
0
  6
CONTINUOUS
 62
     7
  5
76
 10
16.125267
 20
155.430402
 30
0.0
 11
9.683217
 21
155.430402
 31
0.0
  0
LINE
  8
0
  6
CONTINUOUS
 62
     7
  5
77
 10
16.125267
 20
155.430402
 30
0.0
 11
16.125267
 21
178.180402
 31
0.0
  0
LINE
  8
0
  6
CONTINUOUS
 62
     7
  5
78
 10
-15.374733
 20
175.622063
 30
0.0
 11
-15.374733
 21
171.60768
 31
0.0
  0
ARC
  8
0
  6
CONTINUOUS
 62
     7
  5
79
 10
-8.874733
 20
154.180402
 30
0.0
 40
18.6
 50
110.454435
 51
123.220943
210
0.0
220
0.0
230
1.0
  0
LINE
  8
0
  6
CONTINUOUS
 62
     7
  5
7A
 10
-2.374733
 20
171.60768
 30
0.0
 11
-2.374733
 21
175.622063
 31
0.0
  0
ARC
  8
0
  6
CONTINUOUS
 62
     7
  5
7B
 10
-8.874733
 20
154.180402
 30
0.0
 40
18.6
 50
56.779057
 51
69.545565
210
0.0
220
0.0
230
1.0
  0
LINE
  8
0
  6
CONTINUOUS
 62
     7
  5
7C
 10
-66.374733
 20
183.180402
 30
0.0
 11
-37.974733
 21
183.180402
 31
0.0
  0
LINE
  8
0
  6
CONTINUOUS
 62
     7
  5
7D
 10
-37.974733
 20
183.180402
 30
0.0
 11
-37.974733
 21
125.180402
 31
0.0
  0
LINE
  8
0
  6
CONTINUOUS
 62
     7
  5
7E
 10
-66.374733
 20
183.180402
 30
0.0
 11
-66.374733
 21
125.180402
 31
0.0
  0
LINE
  8
0
  6
CONTINUOUS
 62
     7
  5
7F
 10
-66.374733
 20
125.180402
 30
0.0
 11
-37.974733
 21
125.180402
 31
0.0
  0
LINE
  8
0
  6
CONTINUOUS
 62
     7
  5
80
 10
48.625267
 20
183.180402
 30
0.0
 11
48.625267
 21
125.180402
 31
0.0
  0
LINE
  8
0
  6
CONTINUOUS
 62
     7
  5
81
 10
20.225267
 20
183.180402
 30
0.0
 11
48.625267
 21
183.180402
 31
0.0
  0
LINE
  8
0
  6
CONTINUOUS
 62
     7
  5
82
 10
20.225267
 20
183.180402
 30
0.0
 11
20.225267
 21
125.180402
 31
0.0
  0
LINE
  8
0
  6
CONTINUOUS
 62
     7
  5
83
 10
20.225267
 20
125.180402
 30
0.0
 11
48.625267
 21
125.180402
 31
0.0
  0
LINE
  8
0
  6
CONTINUOUS
 62
     7
  5
84
 10
-38.374733
 20
184.680402
 30
0.0
 11
-52.374733
 21
184.680402
 31
0.0
  0
LINE
  8
0
  6
CONTINUOUS
 62
     7
  5
85
 10
-52.374733
 20
184.680402
 30
0.0
 11
-66.374733
 21
184.680402
 31
0.0
  0
ARC
  8
0
  6
CONTINUOUS
 62
     7
  5
86
 10
-5.874733
 20
168.180402
 30
0.0
 40
8.0
 50
64.05552
 51
80.91625
210
0.0
220
0.0
230
1.0
  0
ARC
  8
0
  6
CONTINUOUS
 62
     7
  5
87
 10
-11.874733
 20
168.180402
 30
0.0
 40
8.0
 50
99.08375
 51
115.94448
210
0.0
220
0.0
230
1.0
  0
ARC
  8
0
  6
CONTINUOUS
 62
     7
  5
88
 10
-8.874733
 20
154.180402
 30
0.0
 40
19.0
 50
356.227816
 51
3.772184
210
0.0
220
0.0
230
1.0
  0
LINE
  8
0
  6
CONTINUOUS
 62
     7
  5
89
 10
-37.974733
 20
183.180402
 30
0.0
 11
20.225267
 21
183.180402
 31
0.0
  0
LINE
  8
0
  6
CONTINUOUS
 62
     7
  5
8A
 10
-37.974733
 20
125.180402
 30
0.0
 11
20.225267
 21
125.180402
 31
0.0
  0
LINE
  8
0
  6
CONTINUOUS
 62
     7
  5
8B
 10
10.325267
 20
155.430402
 30
0.0
 11
10.325267
 21
152.930402
 31
0.0
  0
LINE
  8
0
  6
CONTINUOUS
 62
     7
  5
8C
 10
14.325267
 20
152.930402
 30
0.0
 11
14.325267
 21
155.430402
 31
0.0
  0
LINE
  8
0
  6
CONTINUOUS
 62
     7
  5
8D
 10
-38.374733
 20
183.180402
 30
0.0
 11
-38.374733
 21
184.680402
 31
0.0
  0
LINE
  8
0
  6
CONTINUOUS
 62
     7
  5
8E
 10
-66.374733
 20
184.680402
 30
0.0
 11
-66.374733
 21
183.180402
 31
0.0
  0
ENDBLK
  8
0
  5
8F
  0
BLOCK
  8
0
  5
92
  2
AID213
 70
     0
 10
0.0
 20
0.0
 30
0.0
  3
#auxiliary draft view
  0
LINE
  8
0
  6
CONTINUOUS
 62
     7
  5
93
 10
109.36616
 20
236.442175
 30
0.0
 11
109.36616
 21
348.442175
 31
0.0
  0
LINE
  8
0
  6
CONTINUOUS
 62
     7
  5
94
 10
124.36616
 20
236.442175
 30
0.0
 11
124.36616
 21
348.442175
 31
0.0
  0
LINE
  8
0
  6
CONTINUOUS
 62
     7
  5
95
 10
109.36616
 20
348.442175
 30
0.0
 11
124.36616
 21
348.442175
 31
0.0
  0
LINE
  8
0
  6
CONTINUOUS
 62
     7
  5
96
 10
109.36616
 20
236.442175
 30
0.0
 11
124.36616
 21
236.442175
 31
0.0
  0
LINE
  8
0
  6
CONTINUOUS
 62
     7
  5
97
 10
328.56616
 20
235.942175
 30
0.0
 11
328.56616
 21
261.942175
 31
0.0
  0
LINE
  8
0
  6
CONTINUOUS
 62
     7
  5
98
 10
326.36616
 20
261.942175
 30
0.0
 11
326.36616
 21
248.942175
 31
0.0
  0
LINE
  8
0
  6
CONTINUOUS
 62
     7
  5
99
 10
326.36616
 20
248.942175
 30
0.0
 11
326.36616
 21
235.942175
 31
0.0
  0
LINE
  8
0
  6
CONTINUOUS
 62
     7
  5
9A
 10
328.56616
 20
322.942175
 30
0.0
 11
328.56616
 21
348.942175
 31
0.0
  0
LINE
  8
0
  6
CONTINUOUS
 62
     7
  5
9B
 10
326.36616
 20
348.942175
 30
0.0
 11
326.36616
 21
335.942175
 31
0.0
  0
LINE
  8
0
  6
CONTINUOUS
 62
     7
  5
9C
 10
326.36616
 20
335.942175
 30
0.0
 11
326.36616
 21
322.942175
 31
0.0
  0
LINE
  8
0
  6
CONTINUOUS
 62
     7
  5
9D
 10
329.36616
 20
348.142175
 30
0.0
 11
329.36616
 21
323.742175
 31
0.0
  0
LINE
  8
0
  6
CONTINUOUS
 62
     7
  5
9E
 10
329.36616
 20
261.142175
 30
0.0
 11
329.36616
 21
236.742175
 31
0.0
  0
LINE
  8
0
  6
CONTINUOUS
 62
     7
  5
9F
 10
129.66616
 20
300.942175
 30
0.0
 11
129.66616
 21
283.942175
 31
0.0
  0
LINE
  8
0
  6
CONTINUOUS
 62
     7
  5
A0
 10
335.36616
 20
330.942175
 30
0.0
 11
335.36616
 21
335.942175
 31
0.0
  0
LINE
  8
0
  6
CONTINUOUS
 62
     7
  5
A1
 10
335.36616
 20
335.942175
 30
0.0
 11
335.36616
 21
340.942175
 31
0.0
  0
LINE
  8
0
  6
CONTINUOUS
 62
     7
  5
A2
 10
335.36616
 20
243.942175
 30
0.0
 11
335.36616
 21
248.942175
 31
0.0
  0
LINE
  8
0
  6
CONTINUOUS
 62
     7
  5
A3
 10
335.36616
 20
248.942175
 30
0.0
 11
335.36616
 21
253.942175
 31
0.0
  0
LINE
  8
0
  6
CONTINUOUS
 62
     7
  5
A4
 10
139.26616
 20
288.442175
 30
0.0
 11
139.26616
 21
296.442175
 31
0.0
  0
LINE
  8
0
  6
CONTINUOUS
 62
     7
  5
A5
 10
139.66616
 20
288.842175
 30
0.0
 11
139.66616
 21
296.042175
 31
0.0
  0
CIRCLE
  8
0
  6
CONTINUOUS
 62
     7
  5
A6
 10
211.36616
 20
326.942175
 30
0.0
 40
2.459
210
0.0
220
0.0
230
1.0
  0
CIRCLE
  8
0
  6
CONTINUOUS
 62
     7
  5
A7
 10
211.36616
 20
326.942175
 30
0.0
 40
3.0
210
0.0
220
0.0
230
1.0
  0
CIRCLE
  8
0
  6
CONTINUOUS
 62
     7
  5
A8
 10
192.36616
 20
341.942175
 30
0.0
 40
3.0
210
0.0
220
0.0
230
1.0
  0
CIRCLE
  8
0
  6
CONTINUOUS
 62
     7
  5
A9
 10
192.36616
 20
242.942175
 30
0.0
 40
3.0
210
0.0
220
0.0
230
1.0
  0
CIRCLE
  8
0
  6
CONTINUOUS
 62
     7
  5
AA
 10
173.36616
 20
326.942175
 30
0.0
 40
3.0
210
0.0
220
0.0
230
1.0
  0
CIRCLE
  8
0
  6
CONTINUOUS
 62
     7
  5
AB
 10
173.36616
 20
257.942175
 30
0.0
 40
3.0
210
0.0
220
0.0
230
1.0
  0
CIRCLE
  8
0
  6
CONTINUOUS
 62
     7
  5
AC
 10
211.36616
 20
257.942175
 30
0.0
 40
3.0
210
0.0
220
0.0
230
1.0
  0
LINE
  8
0
  6
CONTINUOUS
 62
     7
  5
AD
 10
131.36616
 20
349.942175
 30
0.0
 11
256.36616
 21
349.942175
 31
0.0
  0
LINE
  8
0
  6
CONTINUOUS
 62
     7
  5
AE
 10
256.36616
 20
349.942175
 30
0.0
 11
256.36616
 21
321.542175
 31
0.0
  0
LINE
  8
0
  6
CONTINUOUS
 62
     7
  5
AF
 10
256.36616
 20
263.342175
 30
0.0
 11
256.36616
 21
234.942175
 31
0.0
  0
LINE
  8
0
  6
CONTINUOUS
 62
     7
  5
B0
 10
131.36616
 20
234.942175
 30
0.0
 11
131.36616
 21
263.442175
 31
0.0
  0
LINE
  8
0
  6
CONTINUOUS
 62
     7
  5
B1
 10
131.36616
 20
263.442175
 30
0.0
 11
161.36616
 21
263.442175
 31
0.0
  0
LINE
  8
0
  6
CONTINUOUS
 62
     7
  5
B2
 10
161.36616
 20
263.442175
 30
0.0
 11
161.36616
 21
321.442175
 31
0.0
  0
LINE
  8
0
  6
CONTINUOUS
 62
     7
  5
B3
 10
161.36616
 20
321.442175
 30
0.0
 11
131.36616
 21
321.442175
 31
0.0
  0
LINE
  8
0
  6
CONTINUOUS
 62
     7
  5
B4
 10
131.36616
 20
321.442175
 30
0.0
 11
131.36616
 21
349.942175
 31
0.0
  0
LINE
  8
0
  6
CONTINUOUS
 62
     7
  5
B5
 10
256.36616
 20
321.542175
 30
0.0
 11
191.36616
 21
321.542175
 31
0.0
  0
LINE
  8
0
  6
CONTINUOUS
 62
     7
  5
B6
 10
191.36616
 20
321.542175
 30
0.0
 11
191.36616
 21
263.342175
 31
0.0
  0
LINE
  8
0
  6
CONTINUOUS
 62
     7
  5
B7
 10
191.36616
 20
263.342175
 30
0.0
 11
256.36616
 21
263.342175
 31
0.0
  0
LINE
  8
0
  6
CONTINUOUS
 62
     7
  5
B8
 10
256.36616
 20
234.942175
 30
0.0
 11
131.36616
 21
234.942175
 31
0.0
  0
CIRCLE
  8
0
  6
CONTINUOUS
 62
     7
  5
B9
 10
173.36616
 20
326.942175
 30
0.0
 40
2.459
210
0.0
220
0.0
230
1.0
  0
CIRCLE
  8
0
  6
CONTINUOUS
 62
     7
  5
BA
 10
211.36616
 20
257.942175
 30
0.0
 40
2.459
210
0.0
220
0.0
230
1.0
  0
CIRCLE
  8
0
  6
CONTINUOUS
 62
     7
  5
BB
 10
173.36616
 20
257.942175
 30
0.0
 40
2.459
210
0.0
220
0.0
230
1.0
  0
LINE
  8
0
  6
CONTINUOUS
 62
     7
  5
BC
 10
276.36616
 20
317.442175
 30
0.0
 11
191.36616
 21
317.442175
 31
0.0
  0
LINE
  8
0
  6
CONTINUOUS
 62
     7
  5
BD
 10
276.36616
 20
317.442175
 30
0.0
 11
276.36616
 21
267.442175
 31
0.0
  0
LINE
  8
0
  6
CONTINUOUS
 62
     7
  5
BE
 10
276.36616
 20
267.442175
 30
0.0
 11
191.36616
 21
267.442175
 31
0.0
  0
LINE
  8
0
  6
CONTINUOUS
 62
     7
  5
BF
 10
155.36616
 20
280.442175
 30
0.0
 11
155.36616
 21
270.442175
 31
0.0
  0
LINE
  8
0
  6
CONTINUOUS
 62
     7
  5
C0
 10
155.36616
 20
314.442175
 30
0.0
 11
155.36616
 21
304.442175
 31
0.0
  0
LINE
  8
0
  6
CONTINUOUS
 62
     7
  5
C1
 10
328.56616
 20
261.942175
 30
0.0
 11
326.36616
 21
261.942175
 31
0.0
  0
LINE
  8
0
  6
CONTINUOUS
 62
     7
  5
C2
 10
326.36616
 20
235.942175
 30
0.0
 11
328.56616
 21
235.942175
 31
0.0
  0
LINE
  8
0
  6
CONTINUOUS
 62
     7
  5
C3
 10
328.56616
 20
348.942175
 30
0.0
 11
326.36616
 21
348.942175
 31
0.0
  0
LINE
  8
0
  6
CONTINUOUS
 62
     7
  5
C4
 10
326.36616
 20
322.942175
 30
0.0
 11
328.56616
 21
322.942175
 31
0.0
  0
LINE
  8
0
  6
CONTINUOUS
 62
     7
  5
C5
 10
328.56616
 20
322.942175
 30
0.0
 11
329.36616
 21
323.742175
 31
0.0
  0
LINE
  8
0
  6
CONTINUOUS
 62
     7
  5
C6
 10
329.36616
 20
348.142175
 30
0.0
 11
328.56616
 21
348.942175
 31
0.0
  0
LINE
  8
0
  6
CONTINUOUS
 62
     7
  5
C7
 10
328.56616
 20
235.942175
 30
0.0
 11
329.36616
 21
236.742175
 31
0.0
  0
LINE
  8
0
  6
CONTINUOUS
 62
     7
  5
C8
 10
329.36616
 20
261.142175
 30
0.0
 11
328.56616
 21
261.942175
 31
0.0
  0
LINE
  8
0
  6
CONTINUOUS
 62
     7
  5
C9
 10
129.66616
 20
300.942175
 30
0.0
 11
124.36616
 21
300.942175
 31
0.0
  0
LINE
  8
0
  6
CONTINUOUS
 62
     7
  5
CA
 10
124.36616
 20
283.942175
 30
0.0
 11
129.66616
 21
283.942175
 31
0.0
  0
LINE
  8
0
  6
CONTINUOUS
 62
     7
  5
CB
 10
326.36616
 20
343.942175
 30
0.0
 11
256.36616
 21
343.942175
 31
0.0
  0
LINE
  8
0
  6
CONTINUOUS
 62
     7
  5
CC
 10
131.36616
 20
343.942175
 30
0.0
 11
124.36616
 21
343.942175
 31
0.0
  0
LINE
  8
0
  6
CONTINUOUS
 62
     7
  5
CD
 10
124.36616
 20
327.942175
 30
0.0
 11
131.36616
 21
327.942175
 31
0.0
  0
LINE
  8
0
  6
CONTINUOUS
 62
     7
  5
CE
 10
256.36616
 20
327.942175
 30
0.0
 11
326.36616
 21
327.942175
 31
0.0
  0
LINE
  8
0
  6
CONTINUOUS
 62
     7
  5
CF
 10
326.36616
 20
256.942175
 30
0.0
 11
256.36616
 21
256.942175
 31
0.0
  0
LINE
  8
0
  6
CONTINUOUS
 62
     7
  5
D0
 10
131.36616
 20
256.942175
 30
0.0
 11
124.36616
 21
256.942175
 31
0.0
  0
LINE
  8
0
  6
CONTINUOUS
 62
     7
  5
D1
 10
124.36616
 20
240.942175
 30
0.0
 11
131.36616
 21
240.942175
 31
0.0
  0
LINE
  8
0
  6
CONTINUOUS
 62
     7
  5
D2
 10
256.36616
 20
240.942175
 30
0.0
 11
326.36616
 21
240.942175
 31
0.0
  0
LINE
  8
0
  6
CONTINUOUS
 62
     7
  5
D3
 10
329.36616
 20
330.942175
 30
0.0
 11
335.36616
 21
330.942175
 31
0.0
  0
LINE
  8
0
  6
CONTINUOUS
 62
     7
  5
D4
 10
335.36616
 20
340.942175
 30
0.0
 11
329.36616
 21
340.942175
 31
0.0
  0
LINE
  8
0
  6
CONTINUOUS
 62
     7
  5
D5
 10
329.36616
 20
243.942175
 30
0.0
 11
335.36616
 21
243.942175
 31
0.0
  0
LINE
  8
0
  6
CONTINUOUS
 62
     7
  5
D6
 10
335.36616
 20
253.942175
 30
0.0
 11
329.36616
 21
253.942175
 31
0.0
  0
LINE
  8
0
  6
CONTINUOUS
 62
     7
  5
D7
 10
139.26616
 20
296.442175
 30
0.0
 11
129.66616
 21
296.442175
 31
0.0
  0
LINE
  8
0
  6
CONTINUOUS
 62
     7
  5
D8
 10
129.66616
 20
288.442175
 30
0.0
 11
139.26616
 21
288.442175
 31
0.0
  0
LINE
  8
0
  6
CONTINUOUS
 62
     7
  5
D9
 10
139.26616
 20
288.442175
 30
0.0
 11
139.66616
 21
288.842175
 31
0.0
  0
LINE
  8
0
  6
CONTINUOUS
 62
     7
  5
DA
 10
139.66616
 20
296.042175
 30
0.0
 11
139.26616
 21
296.442175
 31
0.0
  0
LINE
  8
0
  6
CONTINUOUS
 62
     7
  5
DB
 10
161.36616
 20
280.442175
 30
0.0
 11
155.36616
 21
280.442175
 31
0.0
  0
LINE
  8
0
  6
CONTINUOUS
 62
     7
  5
DC
 10
155.36616
 20
270.442175
 30
0.0
 11
161.36616
 21
270.442175
 31
0.0
  0
LINE
  8
0
  6
CONTINUOUS
 62
     7
  5
DD
 10
161.36616
 20
314.442175
 30
0.0
 11
155.36616
 21
314.442175
 31
0.0
  0
LINE
  8
0
  6
CONTINUOUS
 62
     7
  5
DE
 10
155.36616
 20
304.442175
 30
0.0
 11
161.36616
 21
304.442175
 31
0.0
  0
ENDBLK
  8
0
  5
DF
  0
BLOCK
  8
0
  5
E2
  2
AID369
 70
     0
 10
0.0
 20
0.0
 30
0.0
  3
#auxiliary draft view
  0
LINE
  8
0
  6
CONTINUOUS
 62
     7
  5
E3
 10
109.36616
 20
62.536402
 30
0.0
 11
124.36616
 21
62.536402
 31
0.0
  0
LINE
  8
0
  6
CONTINUOUS
 62
     7
  5
E4
 10
109.36616
 20
-49.463598
 30
0.0
 11
124.36616
 21
-49.463598
 31
0.0
  0
LINE
  8
0
  6
CONTINUOUS
 62
     7
  5
E5
 10
109.36616
 20
-49.463598
 30
0.0
 11
109.36616
 21
62.536402
 31
0.0
  0
LINE
  8
0
  6
CONTINUOUS
 62
     7
  5
E6
 10
124.36616
 20
-49.463598
 30
0.0
 11
124.36616
 21
62.536402
 31
0.0
  0
LINE
  8
0
  6
CONTINUOUS
 62
     7
  5
E7
 10
328.56616
 20
-49.963598
 30
0.0
 11
328.56616
 21
-36.963598
 31
0.0
  0
LINE
  8
0
  6
CONTINUOUS
 62
     7
  5
E8
 10
326.36616
 20
-23.963598
 30
0.0
 11
326.36616
 21
-49.963598
 31
0.0
  0
LINE
  8
0
  6
CONTINUOUS
 62
     7
  5
E9
 10
328.56616
 20
-36.963598
 30
0.0
 11
328.56616
 21
-23.963598
 31
0.0
  0
LINE
  8
0
  6
CONTINUOUS
 62
     7
  5
EA
 10
329.36616
 20
-24.763598
 30
0.0
 11
329.36616
 21
-49.163598
 31
0.0
  0
LINE
  8
0
  6
CONTINUOUS
 62
     7
  5
EB
 10
329.36616
 20
62.236402
 30
0.0
 11
329.36616
 21
37.836402
 31
0.0
  0
LINE
  8
0
  6
CONTINUOUS
 62
     7
  5
EC
 10
328.56616
 20
37.036402
 30
0.0
 11
328.56616
 21
50.036402
 31
0.0
  0
LINE
  8
0
  6
CONTINUOUS
 62
     7
  5
ED
 10
328.56616
 20
50.036402
 30
0.0
 11
328.56616
 21
63.036402
 31
0.0
  0
LINE
  8
0
  6
CONTINUOUS
 62
     7
  5
EE
 10
326.36616
 20
63.036402
 30
0.0
 11
326.36616
 21
37.036402
 31
0.0
  0
LINE
  8
0
  6
CONTINUOUS
 62
     7
  5
EF
 10
129.66616
 20
15.036402
 30
0.0
 11
129.66616
 21
-1.963598
 31
0.0
  0
LINE
  8
0
  6
CONTINUOUS
 62
     7
  5
F0
 10
335.36616
 20
-41.963598
 30
0.0
 11
335.36616
 21
-31.963598
 31
0.0
  0
LINE
  8
0
  6
CONTINUOUS
 62
     7
  5
F1
 10
335.36616
 20
45.036402
 30
0.0
 11
335.36616
 21
55.036402
 31
0.0
  0
LINE
  8
0
  6
CONTINUOUS
 62
     7
  5
F2
 10
139.66616
 20
2.936402
 30
0.0
 11
139.66616
 21
10.136402
 31
0.0
  0
LINE
  8
0
  6
CONTINUOUS
 62
     7
  5
F3
 10
139.26616
 20
2.536402
 30
0.0
 11
139.26616
 21
10.536402
 31
0.0
  0
CIRCLE
  8
0
  6
CONTINUOUS
 62
     7
  5
F4
 10
188.86616
 20
-36.963598
 30
0.0
 40
14.0
210
0.0
220
0.0
230
1.0
  0
LINE
  8
0
  6
CONTINUOUS
 62
     7
  5
F5
 10
161.36616
 20
-22.463598
 30
0.0
 11
131.36616
 21
-22.463598
 31
0.0
  0
LINE
  8
0
  6
CONTINUOUS
 62
     7
  5
F6
 10
161.36616
 20
35.536402
 30
0.0
 11
161.36616
 21
-22.463598
 31
0.0
  0
LINE
  8
0
  6
CONTINUOUS
 62
     7
  5
F7
 10
131.36616
 20
35.536402
 30
0.0
 11
161.36616
 21
35.536402
 31
0.0
  0
LINE
  8
0
  6
CONTINUOUS
 62
     7
  5
F8
 10
131.36616
 20
64.036402
 30
0.0
 11
131.36616
 21
35.536402
 31
0.0
  0
LINE
  8
0
  6
CONTINUOUS
 62
     7
  5
F9
 10
256.36616
 20
64.036402
 30
0.0
 11
131.36616
 21
64.036402
 31
0.0
  0
LINE
  8
0
  6
CONTINUOUS
 62
     7
  5
FA
 10
256.36616
 20
35.636402
 30
0.0
 11
256.36616
 21
64.036402
 31
0.0
  0
LINE
  8
0
  6
CONTINUOUS
 62
     7
  5
FB
 10
191.36616
 20
35.636402
 30
0.0
 11
256.36616
 21
35.636402
 31
0.0
  0
LINE
  8
0
  6
CONTINUOUS
 62
     7
  5
FC
 10
191.36616
 20
-22.563598
 30
0.0
 11
191.36616
 21
35.636402
 31
0.0
  0
LINE
  8
0
  6
CONTINUOUS
 62
     7
  5
FD
 10
256.36616
 20
-22.563598
 30
0.0
 11
191.36616
 21
-22.563598
 31
0.0
  0
LINE
  8
0
  6
CONTINUOUS
 62
     7
  5
FE
 10
131.36616
 20
-50.963598
 30
0.0
 11
188.86616
 21
-50.963598
 31
0.0
  0
LINE
  8
0
  6
CONTINUOUS
 62
     7
  5
FF
 10
188.86616
 20
-50.963598
 30
0.0
 11
256.36616
 21
-50.963598
 31
0.0
  0
LINE
  8
0
  6
CONTINUOUS
 62
     7
  5
100
 10
256.36616
 20
-50.963598
 30
0.0
 11
256.36616
 21
-22.563598
 31
0.0
  0
LINE
  8
0
  6
CONTINUOUS
 62
     7
  5
101
 10
131.36616
 20
-22.463598
 30
0.0
 11
131.36616
 21
-50.963598
 31
0.0
  0
CIRCLE
  8
0
  6
CONTINUOUS
 62
     7
  5
102
 10
244.86616
 20
26.536402
 30
0.0
 40
2.067
210
0.0
220
0.0
230
1.0
  0
CIRCLE
  8
0
  6
CONTINUOUS
 62
     7
  5
103
 10
244.86616
 20
26.536402
 30
0.0
 40
2.5
210
0.0
220
0.0
230
1.0
  0
ARC
  8
0
  6
CONTINUOUS
 62
     7
  5
104
 10
261.86616
 20
7.036402
 30
0.0
 40
6.0
 50
360.0
 51
90.0
210
0.0
220
0.0
230
1.0
  0
LINE
  8
0
  6
CONTINUOUS
 62
     7
  5
105
 10
205.86616
 20
13.036402
 30
0.0
 11
261.86616
 21
13.036402
 31
0.0
  0
ARC
  8
0
  6
CONTINUOUS
 62
     7
  5
106
 10
205.86616
 20
7.036402
 30
0.0
 40
6.0
 50
90.0
 51
180.0
210
0.0
220
0.0
230
1.0
  0
LINE
  8
0
  6
CONTINUOUS
 62
     7
  5
107
 10
199.86616
 20
6.036402
 30
0.0
 11
199.86616
 21
7.036402
 31
0.0
  0
ARC
  8
0
  6
CONTINUOUS
 62
     7
  5
108
 10
205.86616
 20
6.036402
 30
0.0
 40
6.0
 50
180.0
 51
270.0
210
0.0
220
0.0
230
1.0
  0
LINE
  8
0
  6
CONTINUOUS
 62
     7
  5
109
 10
261.86616
 20
0.036402
 30
0.0
 11
205.86616
 21
0.036402
 31
0.0
  0
ARC
  8
0
  6
CONTINUOUS
 62
     7
  5
10A
 10
261.86616
 20
6.036402
 30
0.0
 40
6.0
 50
270.0
 51
360.0
210
0.0
220
0.0
230
1.0
  0
LINE
  8
0
  6
CONTINUOUS
 62
     7
  5
10B
 10
267.86616
 20
7.036402
 30
0.0
 11
267.86616
 21
6.036402
 31
0.0
  0
CIRCLE
  8
0
  6
CONTINUOUS
 62
     7
  5
10C
 10
244.86616
 20
-13.463598
 30
0.0
 40
2.5
210
0.0
220
0.0
230
1.0
  0
LINE
  8
0
  6
CONTINUOUS
 62
     7
  5
10D
 10
276.36616
 20
31.536402
 30
0.0
 11
276.36616
 21
-18.463598
 31
0.0
  0
LINE
  8
0
  6
CONTINUOUS
 62
     7
  5
10E
 10
276.36616
 20
-18.463598
 30
0.0
 11
191.36616
 21
-18.463598
 31
0.0
  0
LINE
  8
0
  6
CONTINUOUS
 62
     7
  5
10F
 10
199.86616
 20
31.536402
 30
0.0
 11
191.36616
 21
31.536402
 31
0.0
  0
LINE
  8
0
  6
CONTINUOUS
 62
     7
  5
110
 10
199.86616
 20
27.736402
 30
0.0
 11
199.86616
 21
31.536402
 31
0.0
  0
ARC
  8
0
  6
CONTINUOUS
 62
     7
  5
111
 10
205.86616
 20
27.736402
 30
0.0
 40
6.0
 50
180.0
 51
360.0
210
0.0
220
0.0
230
1.0
  0
LINE
  8
0
  6
CONTINUOUS
 62
     7
  5
112
 10
211.86616
 20
31.536402
 30
0.0
 11
211.86616
 21
27.736402
 31
0.0
  0
LINE
  8
0
  6
CONTINUOUS
 62
     7
  5
113
 10
227.86616
 20
31.536402
 30
0.0
 11
211.86616
 21
31.536402
 31
0.0
  0
LINE
  8
0
  6
CONTINUOUS
 62
     7
  5
114
 10
227.86616
 20
27.736402
 30
0.0
 11
227.86616
 21
31.536402
 31
0.0
  0
ARC
  8
0
  6
CONTINUOUS
 62
     7
  5
115
 10
233.86616
 20
27.736402
 30
0.0
 40
6.0
 50
180.0
 51
360.0
210
0.0
220
0.0
230
1.0
  0
LINE
  8
0
  6
CONTINUOUS
 62
     7
  5
116
 10
239.86616
 20
31.536402
 30
0.0
 11
239.86616
 21
27.736402
 31
0.0
  0
LINE
  8
0
  6
CONTINUOUS
 62
     7
  5
117
 10
255.86616
 20
31.536402
 30
0.0
 11
239.86616
 21
31.536402
 31
0.0
  0
LINE
  8
0
  6
CONTINUOUS
 62
     7
  5
118
 10
255.86616
 20
27.736402
 30
0.0
 11
255.86616
 21
31.536402
 31
0.0
  0
ARC
  8
0
  6
CONTINUOUS
 62
     7
  5
119
 10
261.86616
 20
27.736402
 30
0.0
 40
6.0
 50
180.0
 51
360.0
210
0.0
220
0.0
230
1.0
  0
LINE
  8
0
  6
CONTINUOUS
 62
     7
  5
11A
 10
267.86616
 20
31.536402
 30
0.0
 11
267.86616
 21
27.736402
 31
0.0
  0
LINE
  8
0
  6
CONTINUOUS
 62
     7
  5
11B
 10
276.36616
 20
31.536402
 30
0.0
 11
267.86616
 21
31.536402
 31
0.0
  0
CIRCLE
  8
0
  6
CONTINUOUS
 62
     7
  5
11C
 10
244.86616
 20
-13.463598
 30
0.0
 40
2.067
210
0.0
220
0.0
230
1.0
  0
LINE
  8
0
  6
CONTINUOUS
 62
     7
  5
11D
 10
155.36616
 20
-5.463598
 30
0.0
 11
155.36616
 21
-15.463598
 31
0.0
  0
LINE
  8
0
  6
CONTINUOUS
 62
     7
  5
11E
 10
263.36616
 20
26.870377
 30
0.0
 11
261.86616
 21
26.004352
 31
0.0
  0
LINE
  8
0
  6
CONTINUOUS
 62
     7
  5
11F
 10
263.36616
 20
28.602428
 30
0.0
 11
263.36616
 21
26.870377
 31
0.0
  0
LINE
  8
0
  6
CONTINUOUS
 62
     7
  5
120
 10
261.86616
 20
29.468453
 30
0.0
 11
263.36616
 21
28.602428
 31
0.0
  0
LINE
  8
0
  6
CONTINUOUS
 62
     7
  5
121
 10
260.36616
 20
28.602428
 30
0.0
 11
261.86616
 21
29.468453
 31
0.0
  0
LINE
  8
0
  6
CONTINUOUS
 62
     7
  5
122
 10
260.36616
 20
26.870377
 30
0.0
 11
260.36616
 21
28.602428
 31
0.0
  0
LINE
  8
0
  6
CONTINUOUS
 62
     7
  5
123
 10
261.86616
 20
26.004352
 30
0.0
 11
260.36616
 21
26.870377
 31
0.0
  0
CIRCLE
  8
0
  6
CONTINUOUS
 62
     7
  5
124
 10
261.86616
 20
27.736402
 30
0.0
 40
3.5
210
0.0
220
0.0
230
1.0
  0
LINE
  8
0
  6
CONTINUOUS
 62
     7
  5
125
 10
235.36616
 20
26.870377
 30
0.0
 11
233.86616
 21
26.004352
 31
0.0
  0
LINE
  8
0
  6
CONTINUOUS
 62
     7
  5
126
 10
233.86616
 20
29.468453
 30
0.0
 11
235.36616
 21
28.602428
 31
0.0
  0
LINE
  8
0
  6
CONTINUOUS
 62
     7
  5
127
 10
232.36616
 20
28.602428
 30
0.0
 11
233.86616
 21
29.468453
 31
0.0
  0
LINE
  8
0
  6
CONTINUOUS
 62
     7
  5
128
 10
232.36616
 20
26.870377
 30
0.0
 11
232.36616
 21
28.602428
 31
0.0
  0
LINE
  8
0
  6
CONTINUOUS
 62
     7
  5
129
 10
233.86616
 20
26.004352
 30
0.0
 11
232.36616
 21
26.870377
 31
0.0
  0
CIRCLE
  8
0
  6
CONTINUOUS
 62
     7
  5
12A
 10
233.86616
 20
27.736402
 30
0.0
 40
3.5
210
0.0
220
0.0
230
1.0
  0
LINE
  8
0
  6
CONTINUOUS
 62
     7
  5
12B
 10
235.36616
 20
28.602428
 30
0.0
 11
235.36616
 21
26.870377
 31
0.0
  0
LINE
  8
0
  6
CONTINUOUS
 62
     7
  5
12C
 10
207.36616
 20
28.602428
 30
0.0
 11
207.36616
 21
26.870377
 31
0.0
  0
LINE
  8
0
  6
CONTINUOUS
 62
     7
  5
12D
 10
205.86616
 20
29.468453
 30
0.0
 11
207.36616
 21
28.602428
 31
0.0
  0
LINE
  8
0
  6
CONTINUOUS
 62
     7
  5
12E
 10
204.36616
 20
28.602428
 30
0.0
 11
205.86616
 21
29.468453
 31
0.0
  0
LINE
  8
0
  6
CONTINUOUS
 62
     7
  5
12F
 10
204.36616
 20
26.870377
 30
0.0
 11
204.36616
 21
28.602428
 31
0.0
  0
CIRCLE
  8
0
  6
CONTINUOUS
 62
     7
  5
130
 10
205.86616
 20
27.736402
 30
0.0
 40
3.5
210
0.0
220
0.0
230
1.0
  0
LINE
  8
0
  6
CONTINUOUS
 62
     7
  5
131
 10
207.36616
 20
26.870377
 30
0.0
 11
205.86616
 21
26.004352
 31
0.0
  0
LINE
  8
0
  6
CONTINUOUS
 62
     7
  5
132
 10
205.86616
 20
26.004352
 30
0.0
 11
204.36616
 21
26.870377
 31
0.0
  0
LINE
  8
0
  6
CONTINUOUS
 62
     7
  5
133
 10
199.86616
 20
31.536402
 30
0.0
 11
211.86616
 21
31.536402
 31
0.0
  0
LINE
  8
0
  6
CONTINUOUS
 62
     7
  5
134
 10
255.86616
 20
31.536402
 30
0.0
 11
267.86616
 21
31.536402
 31
0.0
  0
LINE
  8
0
  6
CONTINUOUS
 62
     7
  5
135
 10
227.86616
 20
31.536402
 30
0.0
 11
239.86616
 21
31.536402
 31
0.0
  0
LINE
  8
0
  6
CONTINUOUS
 62
     7
  5
136
 10
155.36616
 20
28.536402
 30
0.0
 11
155.36616
 21
18.536402
 31
0.0
  0
LINE
  8
0
  6
CONTINUOUS
 62
     7
  5
137
 10
328.56616
 20
-23.963598
 30
0.0
 11
326.36616
 21
-23.963598
 31
0.0
  0
LINE
  8
0
  6
CONTINUOUS
 62
     7
  5
138
 10
326.36616
 20
-49.963598
 30
0.0
 11
328.56616
 21
-49.963598
 31
0.0
  0
LINE
  8
0
  6
CONTINUOUS
 62
     7
  5
139
 10
328.56616
 20
-49.963598
 30
0.0
 11
329.36616
 21
-49.163598
 31
0.0
  0
LINE
  8
0
  6
CONTINUOUS
 62
     7
  5
13A
 10
329.36616
 20
-24.763598
 30
0.0
 11
328.56616
 21
-23.963598
 31
0.0
  0
LINE
  8
0
  6
CONTINUOUS
 62
     7
  5
13B
 10
328.56616
 20
37.036402
 30
0.0
 11
329.36616
 21
37.836402
 31
0.0
  0
LINE
  8
0
  6
CONTINUOUS
 62
     7
  5
13C
 10
329.36616
 20
62.236402
 30
0.0
 11
328.56616
 21
63.036402
 31
0.0
  0
LINE
  8
0
  6
CONTINUOUS
 62
     7
  5
13D
 10
328.56616
 20
63.036402
 30
0.0
 11
326.36616
 21
63.036402
 31
0.0
  0
LINE
  8
0
  6
CONTINUOUS
 62
     7
  5
13E
 10
326.36616
 20
37.036402
 30
0.0
 11
328.56616
 21
37.036402
 31
0.0
  0
LINE
  8
0
  6
CONTINUOUS
 62
     7
  5
13F
 10
129.66616
 20
15.036402
 30
0.0
 11
124.36616
 21
15.036402
 31
0.0
  0
LINE
  8
0
  6
CONTINUOUS
 62
     7
  5
140
 10
124.36616
 20
-1.963598
 30
0.0
 11
129.66616
 21
-1.963598
 31
0.0
  0
LINE
  8
0
  6
CONTINUOUS
 62
     7
  5
141
 10
326.36616
 20
-28.963598
 30
0.0
 11
256.36616
 21
-28.963598
 31
0.0
  0
LINE
  8
0
  6
CONTINUOUS
 62
     7
  5
142
 10
131.36616
 20
-28.963598
 30
0.0
 11
124.36616
 21
-28.963598
 31
0.0
  0
LINE
  8
0
  6
CONTINUOUS
 62
     7
  5
143
 10
124.36616
 20
-44.963598
 30
0.0
 11
131.36616
 21
-44.963598
 31
0.0
  0
LINE
  8
0
  6
CONTINUOUS
 62
     7
  5
144
 10
256.36616
 20
-44.963598
 30
0.0
 11
326.36616
 21
-44.963598
 31
0.0
  0
LINE
  8
0
  6
CONTINUOUS
 62
     7
  5
145
 10
326.36616
 20
58.036402
 30
0.0
 11
256.36616
 21
58.036402
 31
0.0
  0
LINE
  8
0
  6
CONTINUOUS
 62
     7
  5
146
 10
131.36616
 20
58.036402
 30
0.0
 11
124.36616
 21
58.036402
 31
0.0
  0
LINE
  8
0
  6
CONTINUOUS
 62
     7
  5
147
 10
124.36616
 20
42.036402
 30
0.0
 11
131.36616
 21
42.036402
 31
0.0
  0
LINE
  8
0
  6
CONTINUOUS
 62
     7
  5
148
 10
256.36616
 20
42.036402
 30
0.0
 11
326.36616
 21
42.036402
 31
0.0
  0
LINE
  8
0
  6
CONTINUOUS
 62
     7
  5
149
 10
329.36616
 20
-41.963598
 30
0.0
 11
335.36616
 21
-41.963598
 31
0.0
  0
LINE
  8
0
  6
CONTINUOUS
 62
     7
  5
14A
 10
335.36616
 20
-31.963598
 30
0.0
 11
329.36616
 21
-31.963598
 31
0.0
  0
LINE
  8
0
  6
CONTINUOUS
 62
     7
  5
14B
 10
329.36616
 20
45.036402
 30
0.0
 11
335.36616
 21
45.036402
 31
0.0
  0
LINE
  8
0
  6
CONTINUOUS
 62
     7
  5
14C
 10
335.36616
 20
55.036402
 30
0.0
 11
329.36616
 21
55.036402
 31
0.0
  0
LINE
  8
0
  6
CONTINUOUS
 62
     7
  5
14D
 10
139.26616
 20
2.536402
 30
0.0
 11
139.66616
 21
2.936402
 31
0.0
  0
LINE
  8
0
  6
CONTINUOUS
 62
     7
  5
14E
 10
139.66616
 20
10.136402
 30
0.0
 11
139.26616
 21
10.536402
 31
0.0
  0
LINE
  8
0
  6
CONTINUOUS
 62
     7
  5
14F
 10
139.26616
 20
10.536402
 30
0.0
 11
129.66616
 21
10.536402
 31
0.0
  0
LINE
  8
0
  6
CONTINUOUS
 62
     7
  5
150
 10
129.66616
 20
2.536402
 30
0.0
 11
139.26616
 21
2.536402
 31
0.0
  0
LINE
  8
0
  6
CONTINUOUS
 62
     7
  5
151
 10
161.36616
 20
-5.463598
 30
0.0
 11
155.36616
 21
-5.463598
 31
0.0
  0
LINE
  8
0
  6
CONTINUOUS
 62
     7
  5
152
 10
155.36616
 20
-15.463598
 30
0.0
 11
161.36616
 21
-15.463598
 31
0.0
  0
LINE
  8
0
  6
CONTINUOUS
 62
     7
  5
153
 10
161.36616
 20
28.536402
 30
0.0
 11
155.36616
 21
28.536402
 31
0.0
  0
LINE
  8
0
  6
CONTINUOUS
 62
     7
  5
154
 10
155.36616
 20
18.536402
 30
0.0
 11
161.36616
 21
18.536402
 31
0.0
  0
ENDBLK
  8
0
  5
155
  0
BLOCK
  8
0
  5
158
  2
AID601
 70
     0
 10
0.0
 20
0.0
 30
0.0
  3
#auxiliary draft view
  0
CIRCLE
  8
0
  6
CONTINUOUS
 62
     7
  5
159
 10
494.61776
 20
135.180402
 30
0.0
 40
3.3
210
0.0
220
0.0
230
1.0
  0
CIRCLE
  8
0
  6
CONTINUOUS
 62
     7
  5
15A
 10
410.61776
 20
135.180402
 30
0.0
 40
3.3
210
0.0
220
0.0
230
1.0
  0
CIRCLE
  8
0
  6
CONTINUOUS
 62
     7
  5
15B
 10
494.61776
 20
173.180402
 30
0.0
 40
3.3
210
0.0
220
0.0
230
1.0
  0
CIRCLE
  8
0
  6
CONTINUOUS
 62
     7
  5
15C
 10
410.61776
 20
173.180402
 30
0.0
 40
3.3
210
0.0
220
0.0
230
1.0
  0
CIRCLE
  8
0
  6
CONTINUOUS
 62
     7
  5
15D
 10
425.61776
 20
154.180402
 30
0.0
 40
3.0
210
0.0
220
0.0
230
1.0
  0
CIRCLE
  8
0
  6
CONTINUOUS
 62
     7
  5
15E
 10
471.61776
 20
135.180402
 30
0.0
 40
3.0
210
0.0
220
0.0
230
1.0
  0
CIRCLE
  8
0
  6
CONTINUOUS
 62
     7
  5
15F
 10
433.61776
 20
135.180402
 30
0.0
 40
3.0
210
0.0
220
0.0
230
1.0
  0
CIRCLE
  8
0
  6
CONTINUOUS
 62
     7
  5
160
 10
471.61776
 20
173.180402
 30
0.0
 40
3.0
210
0.0
220
0.0
230
1.0
  0
CIRCLE
  8
0
  6
CONTINUOUS
 62
     7
  5
161
 10
433.61776
 20
173.180402
 30
0.0
 40
3.0
210
0.0
220
0.0
230
1.0
  0
CIRCLE
  8
0
  6
CONTINUOUS
 62
     7
  5
162
 10
452.61776
 20
154.180402
 30
0.0
 40
10.0
210
0.0
220
0.0
230
1.0
  0
LINE
  8
0
  6
CONTINUOUS
 62
     7
  5
163
 10
508.61776
 20
181.680402
 30
0.0
 11
396.61776
 21
181.680402
 31
0.0
  0
LINE
  8
0
  6
CONTINUOUS
 62
     7
  5
164
 10
508.61776
 20
126.680402
 30
0.0
 11
508.61776
 21
181.680402
 31
0.0
  0
LINE
  8
0
  6
CONTINUOUS
 62
     7
  5
165
 10
396.61776
 20
181.680402
 30
0.0
 11
396.61776
 21
126.680402
 31
0.0
  0
LINE
  8
0
  6
CONTINUOUS
 62
     7
  5
166
 10
396.61776
 20
126.680402
 30
0.0
 11
508.61776
 21
126.680402
 31
0.0
  0
CIRCLE
  8
0
  6
CONTINUOUS
 62
     7
  5
167
 10
479.61776
 20
154.180402
 30
0.0
 40
3.0
210
0.0
220
0.0
230
1.0
  0
CIRCLE
  8
0
  6
CONTINUOUS
 62
     7
  5
168
 10
471.61776
 20
173.180402
 30
0.0
 40
2.459
210
0.0
220
0.0
230
1.0
  0
CIRCLE
  8
0
  6
CONTINUOUS
 62
     7
  5
169
 10
433.61776
 20
173.180402
 30
0.0
 40
2.459
210
0.0
220
0.0
230
1.0
  0
CIRCLE
  8
0
  6
CONTINUOUS
 62
     7
  5
16A
 10
433.61776
 20
135.180402
 30
0.0
 40
2.459
210
0.0
220
0.0
230
1.0
  0
CIRCLE
  8
0
  6
CONTINUOUS
 62
     7
  5
16B
 10
471.61776
 20
135.180402
 30
0.0
 40
2.459
210
0.0
220
0.0
230
1.0
  0
CIRCLE
  8
0
  6
CONTINUOUS
 62
     7
  5
16C
 10
452.61776
 20
154.180402
 30
0.0
 40
3.75
210
0.0
220
0.0
230
1.0
  0
CIRCLE
  8
0
  6
CONTINUOUS
 62
     7
  5
16D
 10
452.61776
 20
154.180402
 30
0.0
 40
7.0
210
0.0
220
0.0
230
1.0
  0
LINE
  8
0
  6
CONTINUOUS
 62
     7
  5
16E
 10
450.11776
 20
152.737026
 30
0.0
 11
452.61776
 21
151.293651
 31
0.0
  0
LINE
  8
0
  6
CONTINUOUS
 62
     7
  5
16F
 10
455.11776
 20
155.623778
 30
0.0
 11
452.61776
 21
157.067153
 31
0.0
  0
LINE
  8
0
  6
CONTINUOUS
 62
     7
  5
170
 10
450.11776
 20
155.623778
 30
0.0
 11
450.11776
 21
152.737026
 31
0.0
  0
LINE
  8
0
  6
CONTINUOUS
 62
     7
  5
171
 10
452.61776
 20
151.293651
 30
0.0
 11
455.11776
 21
152.737026
 31
0.0
  0
LINE
  8
0
  6
CONTINUOUS
 62
     7
  5
172
 10
455.11776
 20
152.737026
 30
0.0
 11
455.11776
 21
155.623778
 31
0.0
  0
LINE
  8
0
  6
CONTINUOUS
 62
     7
  5
173
 10
452.61776
 20
157.067153
 30
0.0
 11
450.11776
 21
155.623778
 31
0.0
  0
CIRCLE
  8
0
  6
CONTINUOUS
 62
     7
  5
174
 10
452.61776
 20
154.180402
 30
0.0
 40
8.5
210
0.0
220
0.0
230
1.0
  0
LINE
  8
0
  6
CONTINUOUS
 62
     7
  5
175
 10
481.61776
 20
183.180402
 30
0.0
 11
481.61776
 21
181.680402
 31
0.0
  0
LINE
  8
0
  6
CONTINUOUS
 62
     7
  5
176
 10
481.61776
 20
126.680402
 30
0.0
 11
481.61776
 21
125.180402
 31
0.0
  0
LINE
  8
0
  6
CONTINUOUS
 62
     7
  5
177
 10
481.61776
 20
183.180402
 30
0.0
 11
510.11776
 21
183.180402
 31
0.0
  0
LINE
  8
0
  6
CONTINUOUS
 62
     7
  5
178
 10
510.11776
 20
183.180402
 30
0.0
 11
510.11776
 21
125.180402
 31
0.0
  0
LINE
  8
0
  6
CONTINUOUS
 62
     7
  5
179
 10
481.61776
 20
125.180402
 30
0.0
 11
510.11776
 21
125.180402
 31
0.0
  0
LINE
  8
0
  6
CONTINUOUS
 62
     7
  5
17A
 10
395.11776
 20
183.180402
 30
0.0
 11
395.11776
 21
125.180402
 31
0.0
  0
LINE
  8
0
  6
CONTINUOUS
 62
     7
  5
17B
 10
423.61776
 20
183.180402
 30
0.0
 11
423.61776
 21
181.680402
 31
0.0
  0
LINE
  8
0
  6
CONTINUOUS
 62
     7
  5
17C
 10
423.61776
 20
126.680402
 30
0.0
 11
423.61776
 21
125.180402
 31
0.0
  0
LINE
  8
0
  6
CONTINUOUS
 62
     7
  5
17D
 10
395.11776
 20
183.180402
 30
0.0
 11
423.61776
 21
183.180402
 31
0.0
  0
LINE
  8
0
  6
CONTINUOUS
 62
     7
  5
17E
 10
395.11776
 20
125.180402
 30
0.0
 11
423.61776
 21
125.180402
 31
0.0
  0
LINE
  8
0
  6
CONTINUOUS
 62
     7
  5
17F
 10
423.61776
 20
183.180402
 30
0.0
 11
481.61776
 21
183.180402
 31
0.0
  0
LINE
  8
0
  6
CONTINUOUS
 62
     7
  5
180
 10
423.61776
 20
125.180402
 30
0.0
 11
481.61776
 21
125.180402
 31
0.0
  0
LINE
  8
0
  6
CONTINUOUS
 62
     7
  5
181
 10
510.11776
 20
184.680402
 30
0.0
 11
482.11776
 21
184.680402
 31
0.0
  0
LINE
  8
0
  6
CONTINUOUS
 62
     7
  5
182
 10
510.11776
 20
183.180402
 30
0.0
 11
510.11776
 21
184.680402
 31
0.0
  0
LINE
  8
0
  6
CONTINUOUS
 62
     7
  5
183
 10
482.11776
 20
184.680402
 30
0.0
 11
482.11776
 21
183.180402
 31
0.0
  0
ENDBLK
  8
0
  5
184
  0
ENDSEC
  0
SECTION
  2
ENTITIES
  0
INSERT
  8
0
  5
54
  2
AID3
 10
0.0
 20
0.0
 30
0.0
  0
INSERT
  8
0
  5
90
  2
AID97
 10
0.0
 20
0.0
 30
0.0
  0
INSERT
  8
0
  5
E0
  2
AID213
 10
0.0
 20
0.0
 30
0.0
  0
INSERT
  8
0
  5
156
  2
AID369
 10
0.0
 20
0.0
 30
0.0
  0
INSERT
  8
0
  5
185
  2
AID601
 10
0.0
 20
0.0
 30
0.0
  0
LINE
  8
0
  6
CENTER
 62
     1
  5
187
 10
334.36616
 20
335.942175
 30
0.0
 11
253.36616
 21
335.942175
 31
0.0
  0
LINE
  8
0
  6
CENTER
 62
     1
  5
188
 10
334.36616
 20
248.942175
 30
0.0
 11
253.36616
 21
248.942175
 31
0.0
  0
LINE
  8
0
  6
CENTER
 62
     1
  5
189
 10
334.36616
 20
50.036402
 30
0.0
 11
253.36616
 21
50.036402
 31
0.0
  0
TEXT
  8
0
 62
     7
  5
18A
 10
-36.374733
 20
52.430402
 30
0.0
 40
5.5
  1
Représenté course 60 mm
210
0.0
220
0.0
230
1.0
  0
TEXT
  8
0
 62
     7
  5
18B
 10
-36.374733
 20
34.930402
 30
0.0
 40
5.5
  1
Represented stroke 60 mm
210
0.0
220
0.0
230
1.0
  0
TEXT
  8
0
 62
     7
  5
18C
 10
-36.374733
 20
17.430402
 30
0.0
 40
5.5
  1
In Hub 60 mm vorgestellt
210
0.0
220
0.0
230
1.0
  0
LINE
  8
0
  6
CENTER
 62
     1
  5
18D
 10
106.66616
 20
292.442175
 30
0.0
 11
282.66616
 21
292.442175
 31
0.0
  0
LINE
  8
0
  6
CENTER
 62
     1
  5
18E
 10
106.36616
 20
154.180402
 30
0.0
 11
338.36616
 21
154.180402
 31
0.0
  0
LINE
  8
0
  6
CENTER
 62
     1
  5
18F
 10
338.36616
 20
50.036402
 30
0.0
 11
326.36616
 21
50.036402
 31
0.0
  0
LINE
  8
0
  6
CENTER
 62
     1
  5
190
 10
332.36616
 20
50.036402
 30
0.0
 11
325.56616
 21
50.036402
 31
0.0
  0
LINE
  8
0
  6
CENTER
 62
     1
  5
191
 10
323.36616
 20
50.036402
 30
0.0
 11
331.56616
 21
50.036402
 31
0.0
  0
LINE
  8
0
  6
CENTER
 62
     1
  5
192
 10
323.36616
 20
-36.963598
 30
0.0
 11
331.56616
 21
-36.963598
 31
0.0
  0
LINE
  8
0
  6
CENTER
 62
     1
  5
193
 10
332.36616
 20
-36.963598
 30
0.0
 11
325.56616
 21
-36.963598
 31
0.0
  0
LINE
  8
0
  6
CENTER
 62
     1
  5
194
 10
338.36616
 20
-36.963598
 30
0.0
 11
326.36616
 21
-36.963598
 31
0.0
  0
LINE
  8
0
  6
CENTER
 62
     1
  5
195
 10
121.36616
 20
50.036402
 30
0.0
 11
329.36616
 21
50.036402
 31
0.0
  0
LINE
  8
0
  6
CENTER
 62
     1
  5
196
 10
121.36616
 20
-36.963598
 30
0.0
 11
329.36616
 21
-36.963598
 31
0.0
  0
LINE
  8
0
  6
CENTER
 62
     1
  5
197
 10
106.66616
 20
6.536402
 30
0.0
 11
292.66616
 21
6.536402
 31
0.0
  0
LINE
  8
0
  6
CENTER
 62
     1
  5
198
 10
-68.374733
 20
154.180402
 30
0.0
 11
-36.374733
 21
154.180402
 31
0.0
  0
LINE
  8
0
  6
CENTER
 62
     1
  5
199
 10
-52.374733
 20
138.180402
 30
0.0
 11
-52.374733
 21
170.180402
 31
0.0
  0
LINE
  8
0
  6
CENTER
 62
     1
  5
19A
 10
-20.374733
 20
154.180402
 30
0.0
 11
2.625267
 21
154.180402
 31
0.0
  0
LINE
  8
0
  6
CENTER
 62
     1
  5
19B
 10
-8.874733
 20
142.680402
 30
0.0
 11
-8.874733
 21
165.680402
 31
0.0
  0
LINE
  8
0
  6
CENTER
 62
     1
  5
19C
 10
18.625267
 20
154.180402
 30
0.0
 11
50.625267
 21
154.180402
 31
0.0
  0
LINE
  8
0
  6
CENTER
 62
     1
  5
19D
 10
34.625267
 20
138.180402
 30
0.0
 11
34.625267
 21
170.180402
 31
0.0
  0
LINE
  8
0
  6
CENTER
 62
     1
  5
19E
 10
410.61776
 20
128.880402
 30
0.0
 11
410.61776
 21
141.480402
 31
0.0
  0
LINE
  8
0
  6
CENTER
 62
     1
  5
19F
 10
410.61776
 20
166.880402
 30
0.0
 11
410.61776
 21
179.480402
 31
0.0
  0
LINE
  8
0
  6
CENTER
 62
     1
  5
1A0
 10
419.61776
 20
154.180402
 30
0.0
 11
431.61776
 21
154.180402
 31
0.0
  0
LINE
  8
0
  6
CENTER
 62
     1
  5
1A1
 10
425.61776
 20
148.180402
 30
0.0
 11
425.61776
 21
160.180402
 31
0.0
  0
LINE
  8
0
  6
CENTER
 62
     1
  5
1A2
 10
427.61776
 20
135.180402
 30
0.0
 11
439.61776
 21
135.180402
 31
0.0
  0
LINE
  8
0
  6
CENTER
 62
     1
  5
1A3
 10
433.61776
 20
129.180402
 30
0.0
 11
433.61776
 21
141.180402
 31
0.0
  0
LINE
  8
0
  6
CENTER
 62
     1
  5
1A4
 10
427.61776
 20
173.180402
 30
0.0
 11
439.61776
 21
173.180402
 31
0.0
  0
LINE
  8
0
  6
CENTER
 62
     1
  5
1A5
 10
433.61776
 20
167.180402
 30
0.0
 11
433.61776
 21
179.180402
 31
0.0
  0
LINE
  8
0
  6
CENTER
 62
     1
  5
1A6
 10
439.61776
 20
154.180402
 30
0.0
 11
465.61776
 21
154.180402
 31
0.0
  0
LINE
  8
0
  6
CENTER
 62
     1
  5
1A7
 10
452.61776
 20
141.180402
 30
0.0
 11
452.61776
 21
167.180402
 31
0.0
  0
LINE
  8
0
  6
CENTER
 62
     1
  5
1A8
 10
465.61776
 20
135.180402
 30
0.0
 11
477.61776
 21
135.180402
 31
0.0
  0
LINE
  8
0
  6
CENTER
 62
     1
  5
1A9
 10
471.61776
 20
129.180402
 30
0.0
 11
471.61776
 21
141.180402
 31
0.0
  0
LINE
  8
0
  6
CENTER
 62
     1
  5
1AA
 10
465.61776
 20
173.180402
 30
0.0
 11
477.61776
 21
173.180402
 31
0.0
  0
LINE
  8
0
  6
CENTER
 62
     1
  5
1AB
 10
471.61776
 20
167.180402
 30
0.0
 11
471.61776
 21
179.180402
 31
0.0
  0
LINE
  8
0
  6
CENTER
 62
     1
  5
1AC
 10
473.61776
 20
154.180402
 30
0.0
 11
485.61776
 21
154.180402
 31
0.0
  0
LINE
  8
0
  6
CENTER
 62
     1
  5
1AD
 10
479.61776
 20
148.180402
 30
0.0
 11
479.61776
 21
160.180402
 31
0.0
  0
LINE
  8
0
  6
CENTER
 62
     1
  5
1AE
 10
494.61776
 20
128.880402
 30
0.0
 11
494.61776
 21
141.480402
 31
0.0
  0
LINE
  8
0
  6
CENTER
 62
     1
  5
1AF
 10
488.31776
 20
173.180402
 30
0.0
 11
500.91776
 21
173.180402
 31
0.0
  0
LINE
  8
0
  6
CENTER
 62
     1
  5
1B0
 10
494.61776
 20
166.880402
 30
0.0
 11
494.61776
 21
179.480402
 31
0.0
  0
LINE
  8
0
  6
CENTER
 62
     1
  5
1B1
 10
404.31776
 20
173.180402
 30
0.0
 11
416.91776
 21
173.180402
 31
0.0
  0
LINE
  8
0
  6
CENTER
 62
     1
  5
1B2
 10
488.31776
 20
135.180402
 30
0.0
 11
500.91776
 21
135.180402
 31
0.0
  0
LINE
  8
0
  6
CENTER
 62
     1
  5
1B3
 10
404.31776
 20
135.180402
 30
0.0
 11
416.91776
 21
135.180402
 31
0.0
  0
LINE
  8
0
  6
CENTER
 62
     1
  5
1B4
 10
239.79916
 20
26.536402
 30
0.0
 11
249.93316
 21
26.536402
 31
0.0
  0
LINE
  8
0
  6
CENTER
 62
     1
  5
1B5
 10
244.86616
 20
21.469402
 30
0.0
 11
244.86616
 21
31.603402
 31
0.0
  0
LINE
  8
0
  6
CENTER
 62
     1
  5
1B6
 10
239.36616
 20
-13.463598
 30
0.0
 11
250.36616
 21
-13.463598
 31
0.0
  0
LINE
  8
0
  6
CENTER
 62
     1
  5
1B7
 10
244.86616
 20
-18.963598
 30
0.0
 11
244.86616
 21
-7.963598
 31
0.0
  0
LINE
  8
0
  6
CENTER
 62
     1
  5
1B8
 10
188.86616
 20
-53.963598
 30
0.0
 11
188.86616
 21
-19.963598
 31
0.0
  0
LINE
  8
0
  6
CENTER
 62
     1
  5
1B9
 10
167.36616
 20
173.180402
 30
0.0
 11
179.36616
 21
173.180402
 31
0.0
  0
LINE
  8
0
  6
CENTER
 62
     1
  5
1BA
 10
173.36616
 20
167.180402
 30
0.0
 11
173.36616
 21
179.180402
 31
0.0
  0
LINE
  8
0
  6
CENTER
 62
     1
  5
1BB
 10
186.36616
 20
173.180402
 30
0.0
 11
198.36616
 21
173.180402
 31
0.0
  0
LINE
  8
0
  6
CENTER
 62
     1
  5
1BC
 10
192.36616
 20
167.180402
 30
0.0
 11
192.36616
 21
179.180402
 31
0.0
  0
LINE
  8
0
  6
CENTER
 62
     1
  5
1BD
 10
205.36616
 20
173.180402
 30
0.0
 11
217.36616
 21
173.180402
 31
0.0
  0
LINE
  8
0
  6
CENTER
 62
     1
  5
1BE
 10
211.36616
 20
167.180402
 30
0.0
 11
211.36616
 21
179.180402
 31
0.0
  0
LINE
  8
0
  6
CENTER
 62
     1
  5
1BF
 10
205.36616
 20
135.180402
 30
0.0
 11
217.36616
 21
135.180402
 31
0.0
  0
LINE
  8
0
  6
CENTER
 62
     1
  5
1C0
 10
211.36616
 20
129.180402
 30
0.0
 11
211.36616
 21
141.180402
 31
0.0
  0
LINE
  8
0
  6
CENTER
 62
     1
  5
1C1
 10
186.36616
 20
135.180402
 30
0.0
 11
198.36616
 21
135.180402
 31
0.0
  0
LINE
  8
0
  6
CENTER
 62
     1
  5
1C2
 10
192.36616
 20
129.180402
 30
0.0
 11
192.36616
 21
141.180402
 31
0.0
  0
LINE
  8
0
  6
CENTER
 62
     1
  5
1C3
 10
167.36616
 20
135.180402
 30
0.0
 11
179.36616
 21
135.180402
 31
0.0
  0
LINE
  8
0
  6
CENTER
 62
     1
  5
1C4
 10
173.36616
 20
129.180402
 30
0.0
 11
173.36616
 21
141.180402
 31
0.0
  0
LINE
  8
0
  6
CENTER
 62
     1
  5
1C5
 10
186.36616
 20
341.942175
 30
0.0
 11
198.36616
 21
341.942175
 31
0.0
  0
LINE
  8
0
  6
CENTER
 62
     1
  5
1C6
 10
192.36616
 20
335.942175
 30
0.0
 11
192.36616
 21
347.942175
 31
0.0
  0
LINE
  8
0
  6
CENTER
 62
     1
  5
1C7
 10
205.90716
 20
326.942175
 30
0.0
 11
216.82516
 21
326.942175
 31
0.0
  0
LINE
  8
0
  6
CENTER
 62
     1
  5
1C8
 10
211.36616
 20
321.483175
 30
0.0
 11
211.36616
 21
332.401175
 31
0.0
  0
LINE
  8
0
  6
CENTER
 62
     1
  5
1C9
 10
167.36616
 20
326.942175
 30
0.0
 11
179.36616
 21
326.942175
 31
0.0
  0
LINE
  8
0
  6
CENTER
 62
     1
  5
1CA
 10
173.36616
 20
320.942175
 30
0.0
 11
173.36616
 21
332.942175
 31
0.0
  0
LINE
  8
0
  6
CENTER
 62
     1
  5
1CB
 10
167.90716
 20
257.942175
 30
0.0
 11
178.82516
 21
257.942175
 31
0.0
  0
LINE
  8
0
  6
CENTER
 62
     1
  5
1CC
 10
173.36616
 20
252.483175
 30
0.0
 11
173.36616
 21
263.401175
 31
0.0
  0
LINE
  8
0
  6
CENTER
 62
     1
  5
1CD
 10
205.36616
 20
257.942175
 30
0.0
 11
217.36616
 21
257.942175
 31
0.0
  0
LINE
  8
0
  6
CENTER
 62
     1
  5
1CE
 10
211.36616
 20
251.942175
 30
0.0
 11
211.36616
 21
263.942175
 31
0.0
  0
LINE
  8
0
  6
CENTER
 62
     1
  5
1CF
 10
186.36616
 20
242.942175
 30
0.0
 11
198.36616
 21
242.942175
 31
0.0
  0
LINE
  8
0
  6
CENTER
 62
     1
  5
1D0
 10
192.36616
 20
236.942175
 30
0.0
 11
192.36616
 21
248.942175
 31
0.0
  0
LINE
  8
0
  6
CENTER
 62
     1
  5
1D1
 10
134.36616
 20
335.942175
 30
0.0
 11
121.36616
 21
335.942175
 31
0.0
  0
LINE
  8
0
  6
CENTER
 62
     1
  5
1D2
 10
134.36616
 20
248.942175
 30
0.0
 11
121.36616
 21
248.942175
 31
0.0
  0
ENDSEC
  0
EOF
