  0
SECTION
  2
HEADER
  9
$ACADVER
  1
AC1009
  9
$DWGCODEPAGE
  3
ansi_1252
  9
$INSBASE
 10
0.0
 20
0.0
 30
0.0
  9
$EXTMIN
 10
-80.374733
 20
-64.963598
 30
0.0
  9
$EXTMAX
 10
524.11776
 20
360.942175
 30
5.0
  9
$LIMMIN
 10
-80.374733
 20
-64.963598
  9
$LIMMAX
 10
524.11776
 20
360.942175
  9
$ORTHOMODE
 70
     0
  9
$REGENMODE
 70
     1
  9
$FILLMODE
 70
     1
  9
$QTEXTMODE
 70
     0
  9
$MIRRTEXT
 70
     1
  9
$DRAGMODE
 70
     2
  9
$LTSCALE
 40
10.0
  9
$OSMODE
 70
     0
  9
$ATTMODE
 70
     1
  9
$TEXTSIZE
 40
0.2
  9
$TRACEWID
 40
0.05
  9
$TEXTSTYLE
  7
STANDARD
  9
$CLAYER
  8
0
  9
$CELTYPE
  6
CONTINUOUS
  9
$CECOLOR
 62
   256
  9
$DIMSCALE
 40
1.0
  9
$DIMASZ
 40
1.25
  9
$DIMEXO
 40
1.0
  9
$DIMDLI
 40
0.38
  9
$DIMRND
 40
0.0
  9
$DIMDLE
 40
0.0
  9
$DIMEXE
 40
0.75
  9
$DIMTP
 40
0.0
  9
$DIMTM
 40
0.0
  9
$DIMTXT
 40
2.5
  9
$DIMCEN
 40
0.09
  9
$DIMTSZ
 40
0.0
  9
$DIMTOL
 70
     0
  9
$DIMLIM
 70
     0
  9
$DIMTIH
 70
     0
  9
$DIMTOH
 70
     0
  9
$DIMSE1
 70
     0
  9
$DIMSE2
 70
     0
  9
$DIMTAD
 70
     1
  9
$DIMZIN
 70
     0
  9
$DIMBLK
  1

  9
$DIMASO
 70
     1
  9
$DIMSHO
 70
     1
  9
$DIMPOST
  1

  9
$DIMAPOST
  1

  9
$DIMALT
 70
     0
  9
$DIMALTD
 70
     2
  9
$DIMALTF
 40
25.4
  9
$DIMLFAC
 40
1.0
  9
$DIMTOFL
 70
     0
  9
$DIMTVP
 40
0.0
  9
$DIMTIX
 70
     0
  9
$DIMSOXD
 70
     0
  9
$DIMSAH
 70
     0
  9
$DIMBLK1
  1

  9
$DIMBLK2
  1

  9
$DIMSTYLE
  2
STANDARD
  9
$DIMCLRD
 70
     7
  9
$DIMCLRE
 70
     7
  9
$DIMCLRT
 70
     7
  9
$DIMTFAC
 40
0.8
  9
$DIMGAP
 40
1.25
  9
$LUNITS
 70
     2
  9
$LUPREC
 70
     4
  9
$AXISMODE
 70
     0
  9
$AXISUNIT
 10
0.0
 20
0.0
  9
$SKETCHINC
 40
0.1
  9
$FILLETRAD
 40
0.0
  9
$AUNITS
 70
     0
  9
$AUPREC
 70
     0
  9
$MENU
  1
acad
  9
$ELEVATION
 40
0.0
  9
$PELEVATION
 40
0.0
  9
$THICKNESS
 40
0.0
  9
$LIMCHECK
 70
     0
  9
$BLIPMODE
 70
     1
  9
$CHAMFERA
 40
0.0
  9
$CHAMFERB
 40
0.0
  9
$SKPOLY
 70
     0
  9
$TDCREATE
 40
2454335.429687500
  9
$TDUPDATE
 40
2454335.343599537
  9
$TDINDWG
 40
0.0000000000
  9
$TDUSRTIMER
 40
0.0000000000
  9
$USRTIMER
 70
     1
  9
$ANGBASE
 50
0.0
  9
$ANGDIR
 70
     0
  9
$PDMODE
 70
     0
  9
$PDSIZE
 40
0.0
  9
$PLINEWID
 40
0.0
  9
$COORDS
 70
     0
  9
$SPLFRAME
 70
     0
  9
$SPLINETYPE
 70
     6
  9
$SPLINESEGS
 70
     8
  9
$ATTDIA
 70
     0
  9
$ATTREQ
 70
     1
  9
$HANDLING
 70
     1
  9
$HANDSEED
  5
1DA
  9
$SURFTAB1
 70
     6
  9
$SURFTAB2
 70
     6
  9
$SURFTYPE
 70
     6
  9
$SURFU
 70
     6
  9
$SURFV
 70
     6
  9
$UCSNAME
  2

  9
$UCSORG
 10
0.0
 20
0.0
 30
0.0
  9
$UCSXDIR
 10
1.0
 20
0.0
 30
0.0
  9
$UCSYDIR
 10
0.0
 20
1.0
 30
0.0
  9
$PUCSNAME
  2

  9
$PUCSORG
 10
0.0
 20
0.0
 30
0.0
  9
$PUCSXDIR
 10
1.0
 20
0.0
 30
0.0
  9
$PUCSYDIR
 10
0.0
 20
1.0
 30
0.0
  9
$USERI1
 70
     0
  9
$USERI2
 70
     0
  9
$USERI3
 70
     0
  9
$USERI4
 70
     0
  9
$USERI5
 70
     0
  9
$USERR1
 40
0.0
  9
$USERR2
 40
0.0
  9
$USERR3
 40
0.0
  9
$USERR4
 40
0.0
  9
$USERR5
 40
0.0
  9
$WORLDVIEW
 70
     1
  9
$SHADEDGE
 70
     3
  9
$SHADEDIF
 70
    70
  9
$TILEMODE
 70
     1
  9
$MAXACTVP
 70
    16
  9
$PINSBASE
 10
0.0
 20
0.0
 30
0.0
  9
$PLIMCHECK
 70
     0
  9
$PEXTMIN
 10
1.000000E+20
 20
1.000000E+20
 30
1.000000E+20
  9
$PEXTMAX
 10
-1.000000E+20
 20
-1.000000E+20
 30
-1.000000E+20
  9
$PLIMMIN
 10
0.0
 20
0.0
  9
$PLIMMAX
 10
12.0
 20
9.0
  9
$UNITMODE
 70
     0
  9
$VISRETAIN
 70
     0
  9
$PLINEGEN
 70
     1
  9
$PSLTSCALE
 70
     0
  9
$TREEDEPTH
 70
  3020
  0
ENDSEC
  0
SECTION
  2
TABLES
  0
TABLE
  2
VPORT
 70
     1
  0
VPORT
  2
*ACTIVE
 70
     0
 10
0.0
 20
0.0
 11
1.0
 21
1.0
 12
6.591288
 22
4.579184
 13
0.0
 23
0.0
 14
1.0
 24
1.0
 15
0.0
 25
0.0
 16
0.0
 26
0.0
 36
1.0
 17
0.0
 27
0.0
 37
0.0
 40
9.158369
 41
0.688564
 42
50.0
 43
0.0
 44
0.0
 50
0.0
 51
0.0
 71
     0
 72
   100
 73
     1
 74
     1
 75
     0
 76
     0
 77
     0
 78
     0
  0
ENDTAB
  0
TABLE
  2
LTYPE
 70
     2
  0
LTYPE
  2
CONTINUOUS
 70
    64
  3
Solid line
 72
    65
 73
     0
 40
0.0
  0
LTYPE
  2
CENTER
 70
    64
  3
____ _ ____ _ ____ _ ____ _ ____ _ ____ _ ____
 72
    65
 73
     4
 40
2.0
 49
1.25
 49
-0.25
 49
0.25
 49
-0.25
  0
ENDTAB
  0
TABLE
  2
LAYER
 70
     1
  0
LAYER
  2
0
 70
     0
 62
     7
  6
CONTINUOUS
  0
ENDTAB
  0
TABLE
  2
STYLE
 70
     1
  0
STYLE
  2
STANDARD
 70
     0
 40
0.0
 41
1.0
 50
0.0
 71
     0
 42
0.0
  3
IsonormD
  4

  0
ENDTAB
  0
TABLE
  2
VIEW
 70
     0
  0
ENDTAB
  0
TABLE
  2
UCS
 70
     0
  0
ENDTAB
  0
TABLE
  2
APPID
 70
     2
  0
APPID
  2
ACAD
 70
     0
  0
APPID
  2
TopSolid_Draft
 70
     0
  0
ENDTAB
  0
TABLE
  2
DIMSTYLE
 70
     1
  0
DIMSTYLE
  2
STANDARD
 70
     0
  3

  4

  5

  6

  7

 40
1.0
 41
1.25
 42
1.0
 43
0.38
 44
0.75
 45
0.0
 46
0.0
 47
0.0
 48
0.0
 71
     0
 72
     0
 73
     0
 74
     0
 75
     0
 76
     0
 77
     1
 78
     0
140
2.5
141
0.09
142
0.0
143
25.4
144
1.0
145
0.0
146
0.8
147
1.25
170
     0
171
     2
172
     0
173
     0
174
     0
175
     0
176
     7
177
     7
178
     7
  0
ENDTAB
  0
ENDSEC
  0
SECTION
  2
BLOCKS
  0
BLOCK
  8
0
  5
25
  2
AID3
 70
     0
 10
0.0
 20
0.0
 30
0.0
  3
#draft view
  0
LINE
  8
0
  6
CONTINUOUS
 62
     7
  5
26
 10
341.56616
 20
139.430402
 30
0.0
 11
341.56616
 21
169.430402
 31
0.0
  0
LINE
  8
0
  6
CONTINUOUS
 62
     7
  5
27
 10
339.36616
 20
169.430402
 30
0.0
 11
339.36616
 21
154.430402
 31
0.0
  0
LINE
  8
0
  6
CONTINUOUS
 62
     7
  5
28
 10
339.36616
 20
154.430402
 30
0.0
 11
339.36616
 21
139.430402
 31
0.0
  0
LINE
  8
0
  6
CONTINUOUS
 62
     7
  5
29
 10
342.36616
 20
168.630402
 30
0.0
 11
342.36616
 21
140.230402
 31
0.0
  0
LINE
  8
0
  6
CONTINUOUS
 62
     7
  5
2A
 10
94.36616
 20
120.430402
 30
0.0
 11
113.36616
 21
120.430402
 31
0.0
  0
LINE
  8
0
  6
CONTINUOUS
 62
     7
  5
2B
 10
94.36616
 20
120.430402
 30
0.0
 11
94.36616
 21
188.430402
 31
0.0
  0
LINE
  8
0
  6
CONTINUOUS
 62
     7
  5
2C
 10
113.36616
 20
120.430402
 30
0.0
 11
113.36616
 21
188.430402
 31
0.0
  0
LINE
  8
0
  6
CONTINUOUS
 62
     7
  5
2D
 10
94.36616
 20
188.430402
 30
0.0
 11
113.36616
 21
188.430402
 31
0.0
  0
LINE
  8
0
  6
CONTINUOUS
 62
     7
  5
2E
 10
350.36616
 20
147.930402
 30
0.0
 11
350.36616
 21
154.430402
 31
0.0
  0
LINE
  8
0
  6
CONTINUOUS
 62
     7
  5
2F
 10
350.36616
 20
154.430402
 30
0.0
 11
350.36616
 21
160.930402
 31
0.0
  0
LINE
  8
0
  6
CONTINUOUS
 62
     7
  5
30
 10
119.86616
 20
164.930402
 30
0.0
 11
119.86616
 21
164.430402
 31
0.0
  0
LINE
  8
0
  6
CONTINUOUS
 62
     7
  5
31
 10
119.86616
 20
144.430402
 30
0.0
 11
119.86616
 21
143.930402
 31
0.0
  0
CIRCLE
  8
0
  6
CONTINUOUS
 62
     7
  5
32
 10
213.86616
 20
131.180402
 30
0.0
 40
3.3235
210
0.0
220
0.0
230
1.0
  0
CIRCLE
  8
0
  6
CONTINUOUS
 62
     7
  5
33
 10
213.86616
 20
131.180402
 30
0.0
 40
4.0
210
0.0
220
0.0
230
1.0
  0
CIRCLE
  8
0
  6
CONTINUOUS
 62
     7
  5
34
 10
213.86616
 20
177.680402
 30
0.0
 40
3.3235
210
0.0
220
0.0
230
1.0
  0
CIRCLE
  8
0
  6
CONTINUOUS
 62
     7
  5
35
 10
213.86616
 20
177.680402
 30
0.0
 40
4.0
210
0.0
220
0.0
230
1.0
  0
LINE
  8
0
  6
CONTINUOUS
 62
     7
  5
36
 10
203.36616
 20
190.430402
 30
0.0
 11
170.36616
 21
190.430402
 31
0.0
  0
CIRCLE
  8
0
  6
CONTINUOUS
 62
     7
  5
37
 10
167.36616
 20
177.680402
 30
0.0
 40
3.3235
210
0.0
220
0.0
230
1.0
  0
CIRCLE
  8
0
  6
CONTINUOUS
 62
     7
  5
38
 10
167.36616
 20
177.680402
 30
0.0
 40
4.0
210
0.0
220
0.0
230
1.0
  0
CIRCLE
  8
0
  6
CONTINUOUS
 62
     7
  5
39
 10
167.36616
 20
131.180402
 30
0.0
 40
3.3235
210
0.0
220
0.0
230
1.0
  0
CIRCLE
  8
0
  6
CONTINUOUS
 62
     7
  5
3A
 10
167.36616
 20
131.180402
 30
0.0
 40
4.0
210
0.0
220
0.0
230
1.0
  0
LINE
  8
0
  6
CONTINUOUS
 62
     7
  5
3B
 10
186.86616
 20
188.430402
 30
0.0
 11
261.36616
 21
188.430402
 31
0.0
  0
LINE
  8
0
  6
CONTINUOUS
 62
     7
  5
3C
 10
121.36616
 20
188.430402
 30
0.0
 11
186.86616
 21
188.430402
 31
0.0
  0
CIRCLE
  8
0
  6
CONTINUOUS
 62
     7
  5
3D
 10
190.61616
 20
131.180402
 30
0.0
 40
3.0
210
0.0
220
0.0
230
1.0
  0
LINE
  8
0
  6
CONTINUOUS
 62
     7
  5
3E
 10
121.36616
 20
188.430402
 30
0.0
 11
121.36616
 21
119.430402
 31
0.0
  0
LINE
  8
0
  6
CONTINUOUS
 62
     7
  5
3F
 10
261.36616
 20
188.430402
 30
0.0
 11
261.36616
 21
119.430402
 31
0.0
  0
CIRCLE
  8
0
  6
CONTINUOUS
 62
     7
  5
40
 10
190.61616
 20
177.680402
 30
0.0
 40
3.0
210
0.0
220
0.0
230
1.0
  0
LINE
  8
0
  6
CONTINUOUS
 62
     7
  5
41
 10
121.36616
 20
119.430402
 30
0.0
 11
261.36616
 21
119.430402
 31
0.0
  0
LINE
  8
0
  6
CONTINUOUS
 62
     7
  5
42
 10
191.815118
 20
128.430402
 30
0.0
 11
189.417202
 21
128.430402
 31
0.0
  0
LINE
  8
0
  6
CONTINUOUS
 62
     7
  5
43
 10
311.36616
 20
186.930402
 30
0.0
 11
261.36616
 21
186.930402
 31
0.0
  0
LINE
  8
0
  6
CONTINUOUS
 62
     7
  5
44
 10
311.36616
 20
121.930402
 30
0.0
 11
261.36616
 21
121.930402
 31
0.0
  0
LINE
  8
0
  6
CONTINUOUS
 62
     7
  5
45
 10
311.36616
 20
186.930402
 30
0.0
 11
311.36616
 21
164.430402
 31
0.0
  0
LINE
  8
0
  6
CONTINUOUS
 62
     7
  5
46
 10
311.36616
 20
144.430402
 30
0.0
 11
311.36616
 21
121.930402
 31
0.0
  0
LINE
  8
0
  6
CONTINUOUS
 62
     7
  5
47
 10
341.56616
 20
169.430402
 30
0.0
 11
339.36616
 21
169.430402
 31
0.0
  0
LINE
  8
0
  6
CONTINUOUS
 62
     7
  5
48
 10
339.36616
 20
139.430402
 30
0.0
 11
341.56616
 21
139.430402
 31
0.0
  0
LINE
  8
0
  6
CONTINUOUS
 62
     7
  5
49
 10
341.56616
 20
139.430402
 30
0.0
 11
342.36616
 21
140.230402
 31
0.0
  0
LINE
  8
0
  6
CONTINUOUS
 62
     7
  5
4A
 10
342.36616
 20
168.630402
 30
0.0
 11
341.56616
 21
169.430402
 31
0.0
  0
LINE
  8
0
  6
CONTINUOUS
 62
     7
  5
4B
 10
339.36616
 20
164.430402
 30
0.0
 11
261.36616
 21
164.430402
 31
0.0
  0
LINE
  8
0
  6
CONTINUOUS
 62
     7
  5
4C
 10
121.36616
 20
164.430402
 30
0.0
 11
113.36616
 21
164.430402
 31
0.0
  0
LINE
  8
0
  6
CONTINUOUS
 62
     7
  5
4D
 10
113.36616
 20
144.430402
 30
0.0
 11
121.36616
 21
144.430402
 31
0.0
  0
LINE
  8
0
  6
CONTINUOUS
 62
     7
  5
4E
 10
261.36616
 20
144.430402
 30
0.0
 11
339.36616
 21
144.430402
 31
0.0
  0
LINE
  8
0
  6
CONTINUOUS
 62
     7
  5
4F
 10
342.36616
 20
147.930402
 30
0.0
 11
350.36616
 21
147.930402
 31
0.0
  0
LINE
  8
0
  6
CONTINUOUS
 62
     7
  5
50
 10
350.36616
 20
160.930402
 30
0.0
 11
342.36616
 21
160.930402
 31
0.0
  0
LINE
  8
0
  6
CONTINUOUS
 62
     7
  5
51
 10
119.86616
 20
164.930402
 30
0.0
 11
113.36616
 21
164.930402
 31
0.0
  0
LINE
  8
0
  6
CONTINUOUS
 62
     7
  5
52
 10
113.36616
 20
143.930402
 30
0.0
 11
119.86616
 21
143.930402
 31
0.0
  0
LINE
  8
0
  6
CONTINUOUS
 62
     7
  5
53
 10
203.36616
 20
188.430402
 30
0.0
 11
203.36616
 21
190.430402
 31
0.0
  0
LINE
  8
0
  6
CONTINUOUS
 62
     7
  5
54
 10
170.36616
 20
190.430402
 30
0.0
 11
170.36616
 21
188.430402
 31
0.0
  0
ENDBLK
  8
0
  5
55
  0
BLOCK
  8
0
  5
58
  2
AID101
 70
     0
 10
0.0
 20
0.0
 30
0.0
  3
#auxiliary draft view
  0
LINE
  8
0
  6
CONTINUOUS
 62
     7
  5
59
 10
46.125267
 20
152.698351
 30
0.0
 11
43.125267
 21
150.966301
 31
0.0
  0
LINE
  8
0
  6
CONTINUOUS
 62
     7
  5
5A
 10
46.125267
 20
156.162453
 30
0.0
 11
46.125267
 21
152.698351
 31
0.0
  0
LINE
  8
0
  6
CONTINUOUS
 62
     7
  5
5B
 10
40.125267
 20
156.162453
 30
0.0
 11
43.125267
 21
157.894504
 31
0.0
  0
CIRCLE
  8
0
  6
CONTINUOUS
 62
     7
  5
5C
 10
43.125267
 20
154.430402
 30
0.0
 40
6.5
210
0.0
220
0.0
230
1.0
  0
LINE
  8
0
  6
CONTINUOUS
 62
     7
  5
5D
 10
43.125267
 20
157.894504
 30
0.0
 11
46.125267
 21
156.162453
 31
0.0
  0
LINE
  8
0
  6
CONTINUOUS
 62
     7
  5
5E
 10
43.125267
 20
150.966301
 30
0.0
 11
40.125267
 21
152.698351
 31
0.0
  0
LINE
  8
0
  6
CONTINUOUS
 62
     7
  5
5F
 10
40.125267
 20
152.698351
 30
0.0
 11
40.125267
 21
156.162453
 31
0.0
  0
LINE
  8
0
  6
CONTINUOUS
 62
     7
  5
60
 10
-57.874733
 20
152.698351
 30
0.0
 11
-60.874733
 21
150.966301
 31
0.0
  0
LINE
  8
0
  6
CONTINUOUS
 62
     7
  5
61
 10
-57.874733
 20
156.162453
 30
0.0
 11
-57.874733
 21
152.698351
 31
0.0
  0
LINE
  8
0
  6
CONTINUOUS
 62
     7
  5
62
 10
-63.874733
 20
156.162453
 30
0.0
 11
-60.874733
 21
157.894504
 31
0.0
  0
CIRCLE
  8
0
  6
CONTINUOUS
 62
     7
  5
63
 10
-60.874733
 20
154.430402
 30
0.0
 40
6.5
210
0.0
220
0.0
230
1.0
  0
LINE
  8
0
  6
CONTINUOUS
 62
     7
  5
64
 10
-60.874733
 20
157.894504
 30
0.0
 11
-57.874733
 21
156.162453
 31
0.0
  0
LINE
  8
0
  6
CONTINUOUS
 62
     7
  5
65
 10
-60.874733
 20
150.966301
 30
0.0
 11
-63.874733
 21
152.698351
 31
0.0
  0
LINE
  8
0
  6
CONTINUOUS
 62
     7
  5
66
 10
-63.874733
 20
152.698351
 30
0.0
 11
-63.874733
 21
156.162453
 31
0.0
  0
CIRCLE
  8
0
  6
CONTINUOUS
 62
     7
  5
67
 10
-60.874733
 20
154.430402
 30
0.0
 40
14.2
210
0.0
220
0.0
230
1.0
  0
CIRCLE
  8
0
  6
CONTINUOUS
 62
     7
  5
68
 10
-60.874733
 20
154.430402
 30
0.0
 40
15.0
210
0.0
220
0.0
230
1.0
  0
CIRCLE
  8
0
  6
CONTINUOUS
 62
     7
  5
69
 10
43.125267
 20
154.430402
 30
0.0
 40
14.2
210
0.0
220
0.0
230
1.0
  0
CIRCLE
  8
0
  6
CONTINUOUS
 62
     7
  5
6A
 10
43.125267
 20
154.430402
 30
0.0
 40
15.0
210
0.0
220
0.0
230
1.0
  0
CIRCLE
  8
0
  6
CONTINUOUS
 62
     7
  5
6B
 10
-8.874733
 20
154.430402
 30
0.0
 40
4.6
210
0.0
220
0.0
230
1.0
  0
CIRCLE
  8
0
  6
CONTINUOUS
 62
     7
  5
6C
 10
-8.874733
 20
154.430402
 30
0.0
 40
5.0
210
0.0
220
0.0
230
1.0
  0
CIRCLE
  8
0
  6
CONTINUOUS
 62
     7
  5
6D
 10
-8.874733
 20
154.430402
 30
0.0
 40
10.5
210
0.0
220
0.0
230
1.0
  0
ARC
  8
0
  6
CONTINUOUS
 62
     7
  5
6E
 10
-8.874733
 20
154.430402
 30
0.0
 40
24.1
 50
291.767532
 51
357.026893
210
0.0
220
0.0
230
1.0
  0
LINE
  8
0
  6
CONTINUOUS
 62
     7
  5
6F
 10
15.192828
 20
153.180402
 30
0.0
 11
25.925267
 21
153.180402
 31
0.0
  0
LINE
  8
0
  6
CONTINUOUS
 62
     7
  5
70
 10
-43.674733
 20
121.930402
 30
0.0
 11
25.925267
 21
121.930402
 31
0.0
  0
LINE
  8
0
  6
CONTINUOUS
 62
     7
  5
71
 10
25.925267
 20
155.680402
 30
0.0
 11
25.925267
 21
186.930402
 31
0.0
  0
LINE
  8
0
  6
CONTINUOUS
 62
     7
  5
72
 10
25.925267
 20
155.680402
 30
0.0
 11
15.192828
 21
155.680402
 31
0.0
  0
ARC
  8
0
  6
CONTINUOUS
 62
     7
  5
73
 10
-8.874733
 20
154.430402
 30
0.0
 40
24.1
 50
2.973107
 51
68.232468
210
0.0
220
0.0
230
0.9999999999999999
  0
LINE
  8
0
  6
CONTINUOUS
 62
     7
  5
74
 10
-7.574733
 20
182.430402
 30
0.0
 11
-10.174733
 21
182.430402
 31
0.0
  0
ARC
  8
0
  6
CONTINUOUS
 62
     7
  5
75
 10
-10.174733
 20
174.430402
 30
0.0
 40
8.0
 50
90.0
 51
162.680664
210
0.0
220
0.0
230
1.0
  0
ARC
  8
0
  6
CONTINUOUS
 62
     7
  5
76
 10
-8.874733
 20
154.430402
 30
0.0
 40
24.1
 50
111.767532
 51
248.232468
210
0.0
220
0.0
230
1.0
  0
LINE
  8
0
  6
CONTINUOUS
 62
     7
  5
77
 10
-7.574733
 20
126.430402
 30
0.0
 11
-10.174733
 21
126.430402
 31
0.0
  0
ARC
  8
0
  6
CONTINUOUS
 62
     7
  5
78
 10
-7.574733
 20
134.430402
 30
0.0
 40
8.0
 50
270.0
 51
342.680664
210
0.0
220
0.0
230
1.0
  0
ARC
  8
0
  6
CONTINUOUS
 62
     7
  5
79
 10
-10.174733
 20
134.430402
 30
0.0
 40
8.0
 50
197.319336
 51
270.0
210
0.0
220
0.0
230
1.0
  0
LINE
  8
0
  6
CONTINUOUS
 62
     7
  5
7A
 10
25.925267
 20
121.930402
 30
0.0
 11
25.925267
 21
153.180402
 31
0.0
  0
LINE
  8
0
  6
CONTINUOUS
 62
     7
  5
7B
 10
25.925267
 20
186.930402
 30
0.0
 11
-43.674733
 21
186.930402
 31
0.0
  0
ARC
  8
0
  6
CONTINUOUS
 62
     7
  5
7C
 10
-7.574733
 20
174.430402
 30
0.0
 40
8.0
 50
17.319336
 51
90.0
210
0.0
220
0.0
230
1.0
  0
LINE
  8
0
  6
CONTINUOUS
 62
     7
  5
7D
 10
-43.674733
 20
186.930402
 30
0.0
 11
-43.674733
 21
121.930402
 31
0.0
  0
LINE
  8
0
  6
CONTINUOUS
 62
     7
  5
7E
 10
-0.874733
 20
177.163858
 30
0.0
 11
-0.874733
 21
178.801901
 31
0.0
  0
ARC
  8
0
  6
CONTINUOUS
 62
     7
  5
7F
 10
-8.874733
 20
154.430402
 30
0.0
 40
24.1
 50
68.232468
 51
70.612812
210
0.0
220
0.0
230
0.9999999999999999
  0
LINE
  8
0
  6
CONTINUOUS
 62
     7
  5
80
 10
-0.874733
 20
130.058904
 30
0.0
 11
-0.874733
 21
131.696947
 31
0.0
  0
ARC
  8
0
  6
CONTINUOUS
 62
     7
  5
81
 10
-8.874733
 20
154.430402
 30
0.0
 40
24.1
 50
289.387188
 51
291.767532
210
0.0
220
0.0
230
1.0
  0
LINE
  8
0
  6
CONTINUOUS
 62
     7
  5
82
 10
-16.874733
 20
178.801901
 30
0.0
 11
-16.874733
 21
177.163858
 31
0.0
  0
ARC
  8
0
  6
CONTINUOUS
 62
     7
  5
83
 10
-8.874733
 20
154.430402
 30
0.0
 40
24.1
 50
109.387188
 51
111.767532
210
0.0
220
0.0
230
1.0
  0
LINE
  8
0
  6
CONTINUOUS
 62
     7
  5
84
 10
-16.874733
 20
131.696947
 30
0.0
 11
-16.874733
 21
130.058904
 31
0.0
  0
ARC
  8
0
  6
CONTINUOUS
 62
     7
  5
85
 10
-8.874733
 20
154.430402
 30
0.0
 40
24.1
 50
248.232468
 51
250.612812
210
0.0
220
0.0
230
1.0
  0
LINE
  8
0
  6
CONTINUOUS
 62
     7
  5
86
 10
26.325267
 20
188.430402
 30
0.0
 11
26.325267
 21
119.430402
 31
0.0
  0
LINE
  8
0
  6
CONTINUOUS
 62
     7
  5
87
 10
26.325267
 20
119.430402
 30
0.0
 11
59.625267
 21
119.430402
 31
0.0
  0
LINE
  8
0
  6
CONTINUOUS
 62
     7
  5
88
 10
59.625267
 20
188.430402
 30
0.0
 11
59.625267
 21
119.430402
 31
0.0
  0
LINE
  8
0
  6
CONTINUOUS
 62
     7
  5
89
 10
26.325267
 20
188.430402
 30
0.0
 11
59.625267
 21
188.430402
 31
0.0
  0
LINE
  8
0
  6
CONTINUOUS
 62
     7
  5
8A
 10
-77.374733
 20
188.430402
 30
0.0
 11
-77.374733
 21
119.430402
 31
0.0
  0
LINE
  8
0
  6
CONTINUOUS
 62
     7
  5
8B
 10
-44.074733
 20
188.430402
 30
0.0
 11
-44.074733
 21
119.430402
 31
0.0
  0
LINE
  8
0
  6
CONTINUOUS
 62
     7
  5
8C
 10
-77.374733
 20
119.430402
 30
0.0
 11
-44.074733
 21
119.430402
 31
0.0
  0
LINE
  8
0
  6
CONTINUOUS
 62
     7
  5
8D
 10
-77.374733
 20
188.430402
 30
0.0
 11
-44.074733
 21
188.430402
 31
0.0
  0
LINE
  8
0
  6
CONTINUOUS
 62
     7
  5
8E
 10
-44.374733
 20
190.430402
 30
0.0
 11
-60.874733
 21
190.430402
 31
0.0
  0
LINE
  8
0
  6
CONTINUOUS
 62
     7
  5
8F
 10
-60.874733
 20
190.430402
 30
0.0
 11
-77.374733
 21
190.430402
 31
0.0
  0
ARC
  8
0
  6
CONTINUOUS
 62
     7
  5
90
 10
-8.874733
 20
154.430402
 30
0.0
 40
27.5
 50
259.211081
 51
280.788919
210
0.0
220
0.0
230
1.0
  0
ARC
  8
0
  6
CONTINUOUS
 62
     7
  5
91
 10
-8.874733
 20
154.430402
 30
0.0
 40
27.5
 50
79.211081
 51
100.788919
210
0.0
220
0.0
230
1.0
  0
LINE
  8
0
  6
CONTINUOUS
 62
     7
  5
92
 10
-44.074733
 20
119.430402
 30
0.0
 11
26.325267
 21
119.430402
 31
0.0
  0
LINE
  8
0
  6
CONTINUOUS
 62
     7
  5
93
 10
-44.074733
 20
188.430402
 30
0.0
 11
26.325267
 21
188.430402
 31
0.0
  0
LINE
  8
0
  6
CONTINUOUS
 62
     7
  5
94
 10
16.625267
 20
155.680402
 30
0.0
 11
16.625267
 21
153.180402
 31
0.0
  0
LINE
  8
0
  6
CONTINUOUS
 62
     7
  5
95
 10
22.625267
 20
153.180402
 30
0.0
 11
22.625267
 21
155.680402
 31
0.0
  0
LINE
  8
0
  6
CONTINUOUS
 62
     7
  5
96
 10
-44.374733
 20
188.430402
 30
0.0
 11
-44.374733
 21
190.430402
 31
0.0
  0
LINE
  8
0
  6
CONTINUOUS
 62
     7
  5
97
 10
-77.374733
 20
190.430402
 30
0.0
 11
-77.374733
 21
188.430402
 31
0.0
  0
ENDBLK
  8
0
  5
98
  0
BLOCK
  8
0
  5
9B
  2
AID231
 70
     0
 10
0.0
 20
0.0
 30
0.0
  3
#auxiliary draft view
  0
LINE
  8
0
  6
CONTINUOUS
 62
     7
  5
9C
 10
94.36616
 20
225.442175
 30
0.0
 11
113.36616
 21
225.442175
 31
0.0
  0
LINE
  8
0
  6
CONTINUOUS
 62
     7
  5
9D
 10
94.36616
 20
225.442175
 30
0.0
 11
94.36616
 21
359.442175
 31
0.0
  0
LINE
  8
0
  6
CONTINUOUS
 62
     7
  5
9E
 10
94.36616
 20
359.442175
 30
0.0
 11
113.36616
 21
359.442175
 31
0.0
  0
LINE
  8
0
  6
CONTINUOUS
 62
     7
  5
9F
 10
113.36616
 20
225.442175
 30
0.0
 11
113.36616
 21
359.442175
 31
0.0
  0
LINE
  8
0
  6
CONTINUOUS
 62
     7
  5
A0
 10
341.56616
 20
225.442175
 30
0.0
 11
341.56616
 21
255.442175
 31
0.0
  0
LINE
  8
0
  6
CONTINUOUS
 62
     7
  5
A1
 10
339.36616
 20
255.442175
 30
0.0
 11
339.36616
 21
225.442175
 31
0.0
  0
LINE
  8
0
  6
CONTINUOUS
 62
     7
  5
A2
 10
342.36616
 20
358.642175
 30
0.0
 11
342.36616
 21
330.242175
 31
0.0
  0
LINE
  8
0
  6
CONTINUOUS
 62
     7
  5
A3
 10
341.56616
 20
329.442175
 30
0.0
 11
341.56616
 21
359.442175
 31
0.0
  0
LINE
  8
0
  6
CONTINUOUS
 62
     7
  5
A4
 10
342.36616
 20
254.642175
 30
0.0
 11
342.36616
 21
226.242175
 31
0.0
  0
LINE
  8
0
  6
CONTINUOUS
 62
     7
  5
A5
 10
339.36616
 20
359.442175
 30
0.0
 11
339.36616
 21
329.442175
 31
0.0
  0
LINE
  8
0
  6
CONTINUOUS
 62
     7
  5
A6
 10
119.86616
 20
302.942175
 30
0.0
 11
119.86616
 21
281.942175
 31
0.0
  0
LINE
  8
0
  6
CONTINUOUS
 62
     7
  5
A7
 10
350.36616
 20
337.942175
 30
0.0
 11
350.36616
 21
350.942175
 31
0.0
  0
LINE
  8
0
  6
CONTINUOUS
 62
     7
  5
A8
 10
350.36616
 20
233.942175
 30
0.0
 11
350.36616
 21
246.942175
 31
0.0
  0
LINE
  8
0
  6
CONTINUOUS
 62
     7
  5
A9
 10
131.46616
 20
287.842175
 30
0.0
 11
131.46616
 21
297.042175
 31
0.0
  0
LINE
  8
0
  6
CONTINUOUS
 62
     7
  5
AA
 10
131.06616
 20
287.442175
 30
0.0
 11
131.06616
 21
297.442175
 31
0.0
  0
CIRCLE
  8
0
  6
CONTINUOUS
 62
     7
  5
AB
 10
190.61616
 20
351.942175
 30
0.0
 40
3.0
210
0.0
220
0.0
230
1.0
  0
CIRCLE
  8
0
  6
CONTINUOUS
 62
     7
  5
AC
 10
190.61616
 20
232.942175
 30
0.0
 40
3.0
210
0.0
220
0.0
230
1.0
  0
CIRCLE
  8
0
  6
CONTINUOUS
 62
     7
  5
AD
 10
167.36616
 20
334.942175
 30
0.0
 40
4.0
210
0.0
220
0.0
230
1.0
  0
CIRCLE
  8
0
  6
CONTINUOUS
 62
     7
  5
AE
 10
213.86616
 20
334.942175
 30
0.0
 40
4.0
210
0.0
220
0.0
230
1.0
  0
CIRCLE
  8
0
  6
CONTINUOUS
 62
     7
  5
AF
 10
167.36616
 20
249.942175
 30
0.0
 40
4.0
210
0.0
220
0.0
230
1.0
  0
CIRCLE
  8
0
  6
CONTINUOUS
 62
     7
  5
B0
 10
213.86616
 20
249.942175
 30
0.0
 40
4.0
210
0.0
220
0.0
230
1.0
  0
LINE
  8
0
  6
CONTINUOUS
 62
     7
  5
B1
 10
121.36616
 20
325.192175
 30
0.0
 11
121.36616
 21
360.942175
 31
0.0
  0
LINE
  8
0
  6
CONTINUOUS
 62
     7
  5
B2
 10
121.36616
 20
360.942175
 30
0.0
 11
261.36616
 21
360.942175
 31
0.0
  0
LINE
  8
0
  6
CONTINUOUS
 62
     7
  5
B3
 10
261.36616
 20
360.942175
 30
0.0
 11
261.36616
 21
327.642175
 31
0.0
  0
LINE
  8
0
  6
CONTINUOUS
 62
     7
  5
B4
 10
121.36616
 20
259.692175
 30
0.0
 11
148.36616
 21
259.692175
 31
0.0
  0
ARC
  8
0
  6
CONTINUOUS
 62
     7
  5
B5
 10
148.36616
 20
262.692175
 30
0.0
 40
3.0
 50
270.0
 51
360.0
210
0.0
220
0.0
230
1.0
  0
LINE
  8
0
  6
CONTINUOUS
 62
     7
  5
B6
 10
151.36616
 20
262.692175
 30
0.0
 11
151.36616
 21
322.192175
 31
0.0
  0
ARC
  8
0
  6
CONTINUOUS
 62
     7
  5
B7
 10
148.36616
 20
322.192175
 30
0.0
 40
3.0
 50
360.0
 51
90.0
210
0.0
220
0.0
230
1.0
  0
LINE
  8
0
  6
CONTINUOUS
 62
     7
  5
B8
 10
148.36616
 20
325.192175
 30
0.0
 11
121.36616
 21
325.192175
 31
0.0
  0
LINE
  8
0
  6
CONTINUOUS
 62
     7
  5
B9
 10
261.36616
 20
327.642175
 30
0.0
 11
191.36616
 21
327.642175
 31
0.0
  0
LINE
  8
0
  6
CONTINUOUS
 62
     7
  5
BA
 10
191.36616
 20
327.642175
 30
0.0
 11
191.36616
 21
257.242175
 31
0.0
  0
LINE
  8
0
  6
CONTINUOUS
 62
     7
  5
BB
 10
191.36616
 20
257.242175
 30
0.0
 11
261.36616
 21
257.242175
 31
0.0
  0
LINE
  8
0
  6
CONTINUOUS
 62
     7
  5
BC
 10
261.36616
 20
257.242175
 30
0.0
 11
261.36616
 21
223.942175
 31
0.0
  0
LINE
  8
0
  6
CONTINUOUS
 62
     7
  5
BD
 10
261.36616
 20
223.942175
 30
0.0
 11
121.36616
 21
223.942175
 31
0.0
  0
LINE
  8
0
  6
CONTINUOUS
 62
     7
  5
BE
 10
121.36616
 20
223.942175
 30
0.0
 11
121.36616
 21
259.692175
 31
0.0
  0
CIRCLE
  8
0
  6
CONTINUOUS
 62
     7
  5
BF
 10
213.86616
 20
249.942175
 30
0.0
 40
3.3235
210
0.0
220
0.0
230
1.0
  0
CIRCLE
  8
0
  6
CONTINUOUS
 62
     7
  5
C0
 10
167.36616
 20
249.942175
 30
0.0
 40
3.3235
210
0.0
220
0.0
230
1.0
  0
CIRCLE
  8
0
  6
CONTINUOUS
 62
     7
  5
C1
 10
213.86616
 20
334.942175
 30
0.0
 40
3.3235
210
0.0
220
0.0
230
1.0
  0
CIRCLE
  8
0
  6
CONTINUOUS
 62
     7
  5
C2
 10
167.36616
 20
334.942175
 30
0.0
 40
3.3235
210
0.0
220
0.0
230
1.0
  0
ARC
  8
0
  6
CONTINUOUS
 62
     7
  5
C3
 10
214.86616
 20
292.442175
 30
0.0
 40
8.0
 50
90.0
 51
270.0
210
0.0
220
0.0
230
1.0
  0
LINE
  8
0
  6
CONTINUOUS
 62
     7
  5
C4
 10
287.86616
 20
300.442175
 30
0.0
 11
214.86616
 21
300.442175
 31
0.0
  0
LINE
  8
0
  6
CONTINUOUS
 62
     7
  5
C5
 10
311.36616
 20
327.242175
 30
0.0
 11
191.36616
 21
327.242175
 31
0.0
  0
LINE
  8
0
  6
CONTINUOUS
 62
     7
  5
C6
 10
311.36616
 20
327.242175
 30
0.0
 11
311.36616
 21
257.642175
 31
0.0
  0
LINE
  8
0
  6
CONTINUOUS
 62
     7
  5
C7
 10
311.36616
 20
257.642175
 30
0.0
 11
191.36616
 21
257.642175
 31
0.0
  0
ARC
  8
0
  6
CONTINUOUS
 62
     7
  5
C8
 10
287.86616
 20
292.442175
 30
0.0
 40
8.0
 50
270.0
 51
90.0
210
0.0
220
0.0
230
1.0
  0
LINE
  8
0
  6
CONTINUOUS
 62
     7
  5
C9
 10
214.86616
 20
284.442175
 30
0.0
 11
287.86616
 21
284.442175
 31
0.0
  0
LINE
  8
0
  6
CONTINUOUS
 62
     7
  5
CA
 10
143.36616
 20
275.692175
 30
0.0
 11
143.36616
 21
269.192175
 31
0.0
  0
LINE
  8
0
  6
CONTINUOUS
 62
     7
  5
CB
 10
143.36616
 20
269.192175
 30
0.0
 11
143.36616
 21
262.692175
 31
0.0
  0
LINE
  8
0
  6
CONTINUOUS
 62
     7
  5
CC
 10
143.36616
 20
322.192175
 30
0.0
 11
143.36616
 21
315.692175
 31
0.0
  0
LINE
  8
0
  6
CONTINUOUS
 62
     7
  5
CD
 10
143.36616
 20
315.692175
 30
0.0
 11
143.36616
 21
309.192175
 31
0.0
  0
LINE
  8
0
  6
CONTINUOUS
 62
     7
  5
CE
 10
341.56616
 20
255.442175
 30
0.0
 11
339.36616
 21
255.442175
 31
0.0
  0
LINE
  8
0
  6
CONTINUOUS
 62
     7
  5
CF
 10
339.36616
 20
225.442175
 30
0.0
 11
341.56616
 21
225.442175
 31
0.0
  0
LINE
  8
0
  6
CONTINUOUS
 62
     7
  5
D0
 10
341.56616
 20
329.442175
 30
0.0
 11
342.36616
 21
330.242175
 31
0.0
  0
LINE
  8
0
  6
CONTINUOUS
 62
     7
  5
D1
 10
342.36616
 20
358.642175
 30
0.0
 11
341.56616
 21
359.442175
 31
0.0
  0
LINE
  8
0
  6
CONTINUOUS
 62
     7
  5
D2
 10
341.56616
 20
225.442175
 30
0.0
 11
342.36616
 21
226.242175
 31
0.0
  0
LINE
  8
0
  6
CONTINUOUS
 62
     7
  5
D3
 10
342.36616
 20
254.642175
 30
0.0
 11
341.56616
 21
255.442175
 31
0.0
  0
LINE
  8
0
  6
CONTINUOUS
 62
     7
  5
D4
 10
341.56616
 20
359.442175
 30
0.0
 11
339.36616
 21
359.442175
 31
0.0
  0
LINE
  8
0
  6
CONTINUOUS
 62
     7
  5
D5
 10
339.36616
 20
329.442175
 30
0.0
 11
341.56616
 21
329.442175
 31
0.0
  0
LINE
  8
0
  6
CONTINUOUS
 62
     7
  5
D6
 10
119.86616
 20
302.942175
 30
0.0
 11
113.36616
 21
302.942175
 31
0.0
  0
LINE
  8
0
  6
CONTINUOUS
 62
     7
  5
D7
 10
113.36616
 20
281.942175
 30
0.0
 11
119.86616
 21
281.942175
 31
0.0
  0
LINE
  8
0
  6
CONTINUOUS
 62
     7
  5
D8
 10
339.36616
 20
354.442175
 30
0.0
 11
261.36616
 21
354.442175
 31
0.0
  0
LINE
  8
0
  6
CONTINUOUS
 62
     7
  5
D9
 10
121.36616
 20
354.442175
 30
0.0
 11
113.36616
 21
354.442175
 31
0.0
  0
LINE
  8
0
  6
CONTINUOUS
 62
     7
  5
DA
 10
113.36616
 20
334.442175
 30
0.0
 11
121.36616
 21
334.442175
 31
0.0
  0
LINE
  8
0
  6
CONTINUOUS
 62
     7
  5
DB
 10
261.36616
 20
334.442175
 30
0.0
 11
339.36616
 21
334.442175
 31
0.0
  0
LINE
  8
0
  6
CONTINUOUS
 62
     7
  5
DC
 10
339.36616
 20
250.442175
 30
0.0
 11
261.36616
 21
250.442175
 31
0.0
  0
LINE
  8
0
  6
CONTINUOUS
 62
     7
  5
DD
 10
121.36616
 20
250.442175
 30
0.0
 11
113.36616
 21
250.442175
 31
0.0
  0
LINE
  8
0
  6
CONTINUOUS
 62
     7
  5
DE
 10
113.36616
 20
230.442175
 30
0.0
 11
121.36616
 21
230.442175
 31
0.0
  0
LINE
  8
0
  6
CONTINUOUS
 62
     7
  5
DF
 10
261.36616
 20
230.442175
 30
0.0
 11
339.36616
 21
230.442175
 31
0.0
  0
LINE
  8
0
  6
CONTINUOUS
 62
     7
  5
E0
 10
342.36616
 20
337.942175
 30
0.0
 11
350.36616
 21
337.942175
 31
0.0
  0
LINE
  8
0
  6
CONTINUOUS
 62
     7
  5
E1
 10
350.36616
 20
350.942175
 30
0.0
 11
342.36616
 21
350.942175
 31
0.0
  0
LINE
  8
0
  6
CONTINUOUS
 62
     7
  5
E2
 10
342.36616
 20
233.942175
 30
0.0
 11
350.36616
 21
233.942175
 31
0.0
  0
LINE
  8
0
  6
CONTINUOUS
 62
     7
  5
E3
 10
350.36616
 20
246.942175
 30
0.0
 11
342.36616
 21
246.942175
 31
0.0
  0
LINE
  8
0
  6
CONTINUOUS
 62
     7
  5
E4
 10
131.06616
 20
287.442175
 30
0.0
 11
131.46616
 21
287.842175
 31
0.0
  0
LINE
  8
0
  6
CONTINUOUS
 62
     7
  5
E5
 10
131.46616
 20
297.042175
 30
0.0
 11
131.06616
 21
297.442175
 31
0.0
  0
LINE
  8
0
  6
CONTINUOUS
 62
     7
  5
E6
 10
131.06616
 20
297.442175
 30
0.0
 11
119.86616
 21
297.442175
 31
0.0
  0
LINE
  8
0
  6
CONTINUOUS
 62
     7
  5
E7
 10
119.86616
 20
287.442175
 30
0.0
 11
131.06616
 21
287.442175
 31
0.0
  0
LINE
  8
0
  6
CONTINUOUS
 62
     7
  5
E8
 10
151.36616
 20
275.692175
 30
0.0
 11
143.36616
 21
275.692175
 31
0.0
  0
LINE
  8
0
  6
CONTINUOUS
 62
     7
  5
E9
 10
143.36616
 20
262.692175
 30
0.0
 11
151.36616
 21
262.692175
 31
0.0
  0
LINE
  8
0
  6
CONTINUOUS
 62
     7
  5
EA
 10
151.36616
 20
322.192175
 30
0.0
 11
143.36616
 21
322.192175
 31
0.0
  0
LINE
  8
0
  6
CONTINUOUS
 62
     7
  5
EB
 10
143.36616
 20
309.192175
 30
0.0
 11
151.36616
 21
309.192175
 31
0.0
  0
ENDBLK
  8
0
  5
EC
  0
BLOCK
  8
0
  5
EF
  2
AID395
 70
     0
 10
0.0
 20
0.0
 30
0.0
  3
#auxiliary draft view
  0
LINE
  8
0
  6
CONTINUOUS
 62
     7
  5
F0
 10
94.36616
 20
-60.463598
 30
0.0
 11
113.36616
 21
-60.463598
 31
0.0
  0
LINE
  8
0
  6
CONTINUOUS
 62
     7
  5
F1
 10
94.36616
 20
-60.463598
 30
0.0
 11
94.36616
 21
73.536402
 31
0.0
  0
LINE
  8
0
  6
CONTINUOUS
 62
     7
  5
F2
 10
94.36616
 20
73.536402
 30
0.0
 11
113.36616
 21
73.536402
 31
0.0
  0
LINE
  8
0
  6
CONTINUOUS
 62
     7
  5
F3
 10
113.36616
 20
-60.463598
 30
0.0
 11
113.36616
 21
73.536402
 31
0.0
  0
LINE
  8
0
  6
CONTINUOUS
 62
     7
  5
F4
 10
341.56616
 20
-60.463598
 30
0.0
 11
341.56616
 21
-45.463598
 31
0.0
  0
LINE
  8
0
  6
CONTINUOUS
 62
     7
  5
F5
 10
339.36616
 20
-30.463598
 30
0.0
 11
339.36616
 21
-60.463598
 31
0.0
  0
LINE
  8
0
  6
CONTINUOUS
 62
     7
  5
F6
 10
341.56616
 20
-45.463598
 30
0.0
 11
341.56616
 21
-30.463598
 31
0.0
  0
LINE
  8
0
  6
CONTINUOUS
 62
     7
  5
F7
 10
342.36616
 20
-31.263598
 30
0.0
 11
342.36616
 21
-45.463598
 31
0.0
  0
LINE
  8
0
  6
CONTINUOUS
 62
     7
  5
F8
 10
342.36616
 20
-45.463598
 30
0.0
 11
342.36616
 21
-59.663598
 31
0.0
  0
LINE
  8
0
  6
CONTINUOUS
 62
     7
  5
F9
 10
341.56616
 20
43.536402
 30
0.0
 11
341.56616
 21
58.536402
 31
0.0
  0
LINE
  8
0
  6
CONTINUOUS
 62
     7
  5
FA
 10
339.36616
 20
73.536402
 30
0.0
 11
339.36616
 21
43.536402
 31
0.0
  0
LINE
  8
0
  6
CONTINUOUS
 62
     7
  5
FB
 10
341.56616
 20
58.536402
 30
0.0
 11
341.56616
 21
73.536402
 31
0.0
  0
LINE
  8
0
  6
CONTINUOUS
 62
     7
  5
FC
 10
342.36616
 20
72.736402
 30
0.0
 11
342.36616
 21
58.536402
 31
0.0
  0
LINE
  8
0
  6
CONTINUOUS
 62
     7
  5
FD
 10
342.36616
 20
58.536402
 30
0.0
 11
342.36616
 21
44.336402
 31
0.0
  0
LINE
  8
0
  6
CONTINUOUS
 62
     7
  5
FE
 10
119.86616
 20
17.036402
 30
0.0
 11
119.86616
 21
-3.963598
 31
0.0
  0
LINE
  8
0
  6
CONTINUOUS
 62
     7
  5
FF
 10
350.36616
 20
-51.963598
 30
0.0
 11
350.36616
 21
-38.963598
 31
0.0
  0
LINE
  8
0
  6
CONTINUOUS
 62
     7
  5
100
 10
350.36616
 20
52.036402
 30
0.0
 11
350.36616
 21
65.036402
 31
0.0
  0
LINE
  8
0
  6
CONTINUOUS
 62
     7
  5
101
 10
131.46616
 20
1.936402
 30
0.0
 11
131.46616
 21
11.136402
 31
0.0
  0
LINE
  8
0
  6
CONTINUOUS
 62
     7
  5
102
 10
131.06616
 20
1.536402
 30
0.0
 11
131.06616
 21
11.536402
 31
0.0
  0
CIRCLE
  8
0
  6
CONTINUOUS
 62
     7
  5
103
 10
186.86616
 20
-45.463598
 30
0.0
 40
16.5
210
0.0
220
0.0
230
1.0
  0
LINE
  8
0
  6
CONTINUOUS
 62
     7
  5
104
 10
121.36616
 20
-26.213598
 30
0.0
 11
121.36616
 21
-61.963598
 31
0.0
  0
LINE
  8
0
  6
CONTINUOUS
 62
     7
  5
105
 10
148.36616
 20
-26.213598
 30
0.0
 11
121.36616
 21
-26.213598
 31
0.0
  0
ARC
  8
0
  6
CONTINUOUS
 62
     7
  5
106
 10
148.36616
 20
-23.213598
 30
0.0
 40
3.0
 50
270.0
 51
360.0
210
0.0
220
0.0
230
1.0
  0
LINE
  8
0
  6
CONTINUOUS
 62
     7
  5
107
 10
151.36616
 20
36.286402
 30
0.0
 11
151.36616
 21
-23.213598
 31
0.0
  0
ARC
  8
0
  6
CONTINUOUS
 62
     7
  5
108
 10
148.36616
 20
36.286402
 30
0.0
 40
3.0
 50
360.0
 51
90.0
210
0.0
220
0.0
230
1.0
  0
LINE
  8
0
  6
CONTINUOUS
 62
     7
  5
109
 10
121.36616
 20
39.286402
 30
0.0
 11
148.36616
 21
39.286402
 31
0.0
  0
LINE
  8
0
  6
CONTINUOUS
 62
     7
  5
10A
 10
121.36616
 20
75.036402
 30
0.0
 11
121.36616
 21
39.286402
 31
0.0
  0
LINE
  8
0
  6
CONTINUOUS
 62
     7
  5
10B
 10
261.36616
 20
75.036402
 30
0.0
 11
121.36616
 21
75.036402
 31
0.0
  0
LINE
  8
0
  6
CONTINUOUS
 62
     7
  5
10C
 10
261.36616
 20
41.736402
 30
0.0
 11
261.36616
 21
75.036402
 31
0.0
  0
LINE
  8
0
  6
CONTINUOUS
 62
     7
  5
10D
 10
191.36616
 20
41.736402
 30
0.0
 11
261.36616
 21
41.736402
 31
0.0
  0
LINE
  8
0
  6
CONTINUOUS
 62
     7
  5
10E
 10
191.36616
 20
-28.663598
 30
0.0
 11
191.36616
 21
41.736402
 31
0.0
  0
LINE
  8
0
  6
CONTINUOUS
 62
     7
  5
10F
 10
261.36616
 20
-28.663598
 30
0.0
 11
191.36616
 21
-28.663598
 31
0.0
  0
LINE
  8
0
  6
CONTINUOUS
 62
     7
  5
110
 10
186.86616
 20
-61.963598
 30
0.0
 11
261.36616
 21
-61.963598
 31
0.0
  0
LINE
  8
0
  6
CONTINUOUS
 62
     7
  5
111
 10
121.36616
 20
-61.963598
 30
0.0
 11
186.86616
 21
-61.963598
 31
0.0
  0
LINE
  8
0
  6
CONTINUOUS
 62
     7
  5
112
 10
261.36616
 20
-61.963598
 30
0.0
 11
261.36616
 21
-28.663598
 31
0.0
  0
CIRCLE
  8
0
  6
CONTINUOUS
 62
     7
  5
113
 10
276.36616
 20
-18.463598
 30
0.0
 40
2.459
210
0.0
220
0.0
230
1.0
  0
CIRCLE
  8
0
  6
CONTINUOUS
 62
     7
  5
114
 10
276.36616
 20
-18.463598
 30
0.0
 40
3.0
210
0.0
220
0.0
230
1.0
  0
LINE
  8
0
  6
CONTINUOUS
 62
     7
  5
115
 10
214.86616
 20
14.536402
 30
0.0
 11
287.86616
 21
14.536402
 31
0.0
  0
CIRCLE
  8
0
  6
CONTINUOUS
 62
     7
  5
116
 10
226.36616
 20
-18.463598
 30
0.0
 40
3.0
210
0.0
220
0.0
230
1.0
  0
CIRCLE
  8
0
  6
CONTINUOUS
 62
     7
  5
117
 10
226.36616
 20
31.536402
 30
0.0
 40
3.0
210
0.0
220
0.0
230
1.0
  0
CIRCLE
  8
0
  6
CONTINUOUS
 62
     7
  5
118
 10
276.36616
 20
31.536402
 30
0.0
 40
3.0
210
0.0
220
0.0
230
1.0
  0
LINE
  8
0
  6
CONTINUOUS
 62
     7
  5
119
 10
311.36616
 20
-28.263598
 30
0.0
 11
191.36616
 21
-28.263598
 31
0.0
  0
CIRCLE
  8
0
  6
CONTINUOUS
 62
     7
  5
11A
 10
296.36616
 20
35.036402
 30
0.0
 40
5.5
210
0.0
220
0.0
230
1.0
  0
LINE
  8
0
  6
CONTINUOUS
 62
     7
  5
11B
 10
287.86616
 20
-1.463598
 30
0.0
 11
214.86616
 21
-1.463598
 31
0.0
  0
CIRCLE
  8
0
  6
CONTINUOUS
 62
     7
  5
11C
 10
206.36616
 20
35.036402
 30
0.0
 40
5.5
210
0.0
220
0.0
230
1.0
  0
ARC
  8
0
  6
CONTINUOUS
 62
     7
  5
11D
 10
287.86616
 20
6.536402
 30
0.0
 40
8.0
 50
270.0
 51
90.0
210
0.0
220
0.0
230
1.0
  0
ARC
  8
0
  6
CONTINUOUS
 62
     7
  5
11E
 10
214.86616
 20
6.536402
 30
0.0
 40
8.0
 50
90.0
 51
270.0
210
0.0
220
0.0
230
1.0
  0
LINE
  8
0
  6
CONTINUOUS
 62
     7
  5
11F
 10
311.36616
 20
41.336402
 30
0.0
 11
191.36616
 21
41.336402
 31
0.0
  0
CIRCLE
  8
0
  6
CONTINUOUS
 62
     7
  5
120
 10
251.36616
 20
35.036402
 30
0.0
 40
5.5
210
0.0
220
0.0
230
1.0
  0
LINE
  8
0
  6
CONTINUOUS
 62
     7
  5
121
 10
311.36616
 20
41.336402
 30
0.0
 11
311.36616
 21
-28.263598
 31
0.0
  0
CIRCLE
  8
0
  6
CONTINUOUS
 62
     7
  5
122
 10
226.36616
 20
31.536402
 30
0.0
 40
2.459
210
0.0
220
0.0
230
1.0
  0
CIRCLE
  8
0
  6
CONTINUOUS
 62
     7
  5
123
 10
226.36616
 20
-18.463598
 30
0.0
 40
2.459
210
0.0
220
0.0
230
1.0
  0
CIRCLE
  8
0
  6
CONTINUOUS
 62
     7
  5
124
 10
276.36616
 20
31.536402
 30
0.0
 40
2.459
210
0.0
220
0.0
230
1.0
  0
LINE
  8
0
  6
CONTINUOUS
 62
     7
  5
125
 10
143.36616
 20
-10.213598
 30
0.0
 11
143.36616
 21
-23.213598
 31
0.0
  0
LINE
  8
0
  6
CONTINUOUS
 62
     7
  5
126
 10
208.86616
 20
36.479778
 30
0.0
 11
208.86616
 21
33.593027
 31
0.0
  0
LINE
  8
0
  6
CONTINUOUS
 62
     7
  5
127
 10
206.36616
 20
37.923154
 30
0.0
 11
208.86616
 21
36.479778
 31
0.0
  0
CIRCLE
  8
0
  6
CONTINUOUS
 62
     7
  5
128
 10
206.36616
 20
35.036402
 30
0.0
 40
5.0
210
0.0
220
0.0
230
1.0
  0
LINE
  8
0
  6
CONTINUOUS
 62
     7
  5
129
 10
203.86616
 20
33.593027
 30
0.0
 11
203.86616
 21
36.479778
 31
0.0
  0
LINE
  8
0
  6
CONTINUOUS
 62
     7
  5
12A
 10
208.86616
 20
33.593027
 30
0.0
 11
206.36616
 21
32.149651
 31
0.0
  0
LINE
  8
0
  6
CONTINUOUS
 62
     7
  5
12B
 10
203.86616
 20
36.479778
 30
0.0
 11
206.36616
 21
37.923154
 31
0.0
  0
LINE
  8
0
  6
CONTINUOUS
 62
     7
  5
12C
 10
206.36616
 20
32.149651
 30
0.0
 11
203.86616
 21
33.593027
 31
0.0
  0
CIRCLE
  8
0
  6
CONTINUOUS
 62
     7
  5
12D
 10
251.36616
 20
35.036402
 30
0.0
 40
5.0
210
0.0
220
0.0
230
1.0
  0
LINE
  8
0
  6
CONTINUOUS
 62
     7
  5
12E
 10
253.86616
 20
33.593027
 30
0.0
 11
251.36616
 21
32.149651
 31
0.0
  0
LINE
  8
0
  6
CONTINUOUS
 62
     7
  5
12F
 10
248.86616
 20
33.593027
 30
0.0
 11
248.86616
 21
36.479778
 31
0.0
  0
LINE
  8
0
  6
CONTINUOUS
 62
     7
  5
130
 10
251.36616
 20
37.923154
 30
0.0
 11
253.86616
 21
36.479778
 31
0.0
  0
LINE
  8
0
  6
CONTINUOUS
 62
     7
  5
131
 10
251.36616
 20
32.149651
 30
0.0
 11
248.86616
 21
33.593027
 31
0.0
  0
LINE
  8
0
  6
CONTINUOUS
 62
     7
  5
132
 10
248.86616
 20
36.479778
 30
0.0
 11
251.36616
 21
37.923154
 31
0.0
  0
LINE
  8
0
  6
CONTINUOUS
 62
     7
  5
133
 10
253.86616
 20
36.479778
 30
0.0
 11
253.86616
 21
33.593027
 31
0.0
  0
LINE
  8
0
  6
CONTINUOUS
 62
     7
  5
134
 10
298.86616
 20
36.479778
 30
0.0
 11
298.86616
 21
33.593027
 31
0.0
  0
LINE
  8
0
  6
CONTINUOUS
 62
     7
  5
135
 10
296.36616
 20
32.149651
 30
0.0
 11
293.86616
 21
33.593027
 31
0.0
  0
CIRCLE
  8
0
  6
CONTINUOUS
 62
     7
  5
136
 10
296.36616
 20
35.036402
 30
0.0
 40
5.0
210
0.0
220
0.0
230
1.0
  0
LINE
  8
0
  6
CONTINUOUS
 62
     7
  5
137
 10
296.36616
 20
37.923154
 30
0.0
 11
298.86616
 21
36.479778
 31
0.0
  0
LINE
  8
0
  6
CONTINUOUS
 62
     7
  5
138
 10
293.86616
 20
36.479778
 30
0.0
 11
296.36616
 21
37.923154
 31
0.0
  0
LINE
  8
0
  6
CONTINUOUS
 62
     7
  5
139
 10
293.86616
 20
33.593027
 30
0.0
 11
293.86616
 21
36.479778
 31
0.0
  0
LINE
  8
0
  6
CONTINUOUS
 62
     7
  5
13A
 10
298.86616
 20
33.593027
 30
0.0
 11
296.36616
 21
32.149651
 31
0.0
  0
LINE
  8
0
  6
CONTINUOUS
 62
     7
  5
13B
 10
143.36616
 20
36.286402
 30
0.0
 11
143.36616
 21
23.286402
 31
0.0
  0
LINE
  8
0
  6
CONTINUOUS
 62
     7
  5
13C
 10
341.56616
 20
-30.463598
 30
0.0
 11
339.36616
 21
-30.463598
 31
0.0
  0
LINE
  8
0
  6
CONTINUOUS
 62
     7
  5
13D
 10
339.36616
 20
-60.463598
 30
0.0
 11
341.56616
 21
-60.463598
 31
0.0
  0
LINE
  8
0
  6
CONTINUOUS
 62
     7
  5
13E
 10
341.56616
 20
-60.463598
 30
0.0
 11
342.36616
 21
-59.663598
 31
0.0
  0
LINE
  8
0
  6
CONTINUOUS
 62
     7
  5
13F
 10
342.36616
 20
-31.263598
 30
0.0
 11
341.56616
 21
-30.463598
 31
0.0
  0
LINE
  8
0
  6
CONTINUOUS
 62
     7
  5
140
 10
341.56616
 20
73.536402
 30
0.0
 11
339.36616
 21
73.536402
 31
0.0
  0
LINE
  8
0
  6
CONTINUOUS
 62
     7
  5
141
 10
339.36616
 20
43.536402
 30
0.0
 11
341.56616
 21
43.536402
 31
0.0
  0
LINE
  8
0
  6
CONTINUOUS
 62
     7
  5
142
 10
341.56616
 20
43.536402
 30
0.0
 11
342.36616
 21
44.336402
 31
0.0
  0
LINE
  8
0
  6
CONTINUOUS
 62
     7
  5
143
 10
342.36616
 20
72.736402
 30
0.0
 11
341.56616
 21
73.536402
 31
0.0
  0
LINE
  8
0
  6
CONTINUOUS
 62
     7
  5
144
 10
119.86616
 20
17.036402
 30
0.0
 11
113.36616
 21
17.036402
 31
0.0
  0
LINE
  8
0
  6
CONTINUOUS
 62
     7
  5
145
 10
113.36616
 20
-3.963598
 30
0.0
 11
119.86616
 21
-3.963598
 31
0.0
  0
LINE
  8
0
  6
CONTINUOUS
 62
     7
  5
146
 10
339.36616
 20
-35.463598
 30
0.0
 11
261.36616
 21
-35.463598
 31
0.0
  0
LINE
  8
0
  6
CONTINUOUS
 62
     7
  5
147
 10
121.36616
 20
-35.463598
 30
0.0
 11
113.36616
 21
-35.463598
 31
0.0
  0
LINE
  8
0
  6
CONTINUOUS
 62
     7
  5
148
 10
113.36616
 20
-55.463598
 30
0.0
 11
121.36616
 21
-55.463598
 31
0.0
  0
LINE
  8
0
  6
CONTINUOUS
 62
     7
  5
149
 10
261.36616
 20
-55.463598
 30
0.0
 11
339.36616
 21
-55.463598
 31
0.0
  0
LINE
  8
0
  6
CONTINUOUS
 62
     7
  5
14A
 10
339.36616
 20
68.536402
 30
0.0
 11
261.36616
 21
68.536402
 31
0.0
  0
LINE
  8
0
  6
CONTINUOUS
 62
     7
  5
14B
 10
121.36616
 20
68.536402
 30
0.0
 11
113.36616
 21
68.536402
 31
0.0
  0
LINE
  8
0
  6
CONTINUOUS
 62
     7
  5
14C
 10
113.36616
 20
48.536402
 30
0.0
 11
121.36616
 21
48.536402
 31
0.0
  0
LINE
  8
0
  6
CONTINUOUS
 62
     7
  5
14D
 10
261.36616
 20
48.536402
 30
0.0
 11
339.36616
 21
48.536402
 31
0.0
  0
LINE
  8
0
  6
CONTINUOUS
 62
     7
  5
14E
 10
342.36616
 20
-51.963598
 30
0.0
 11
350.36616
 21
-51.963598
 31
0.0
  0
LINE
  8
0
  6
CONTINUOUS
 62
     7
  5
14F
 10
350.36616
 20
-38.963598
 30
0.0
 11
342.36616
 21
-38.963598
 31
0.0
  0
LINE
  8
0
  6
CONTINUOUS
 62
     7
  5
150
 10
342.36616
 20
52.036402
 30
0.0
 11
350.36616
 21
52.036402
 31
0.0
  0
LINE
  8
0
  6
CONTINUOUS
 62
     7
  5
151
 10
350.36616
 20
65.036402
 30
0.0
 11
342.36616
 21
65.036402
 31
0.0
  0
LINE
  8
0
  6
CONTINUOUS
 62
     7
  5
152
 10
131.06616
 20
1.536402
 30
0.0
 11
131.46616
 21
1.936402
 31
0.0
  0
LINE
  8
0
  6
CONTINUOUS
 62
     7
  5
153
 10
131.46616
 20
11.136402
 30
0.0
 11
131.06616
 21
11.536402
 31
0.0
  0
LINE
  8
0
  6
CONTINUOUS
 62
     7
  5
154
 10
131.06616
 20
11.536402
 30
0.0
 11
119.86616
 21
11.536402
 31
0.0
  0
LINE
  8
0
  6
CONTINUOUS
 62
     7
  5
155
 10
119.86616
 20
1.536402
 30
0.0
 11
131.06616
 21
1.536402
 31
0.0
  0
LINE
  8
0
  6
CONTINUOUS
 62
     7
  5
156
 10
151.36616
 20
-10.213598
 30
0.0
 11
143.36616
 21
-10.213598
 31
0.0
  0
LINE
  8
0
  6
CONTINUOUS
 62
     7
  5
157
 10
143.36616
 20
-23.213598
 30
0.0
 11
151.36616
 21
-23.213598
 31
0.0
  0
LINE
  8
0
  6
CONTINUOUS
 62
     7
  5
158
 10
151.36616
 20
36.286402
 30
0.0
 11
143.36616
 21
36.286402
 31
0.0
  0
LINE
  8
0
  6
CONTINUOUS
 62
     7
  5
159
 10
143.36616
 20
23.286402
 30
0.0
 11
151.36616
 21
23.286402
 31
0.0
  0
ENDBLK
  8
0
  5
15A
  0
BLOCK
  8
0
  5
15D
  2
AID611
 70
     0
 10
0.0
 20
0.0
 30
0.0
  3
#auxiliary draft view
  0
CIRCLE
  8
0
  6
CONTINUOUS
 62
     7
  5
15E
 10
452.61776
 20
154.430402
 30
0.0
 40
13.0
210
0.0
220
0.0
230
1.0
  0
CIRCLE
  8
0
  6
CONTINUOUS
 62
     7
  5
15F
 10
429.36776
 20
177.680402
 30
0.0
 40
4.0
210
0.0
220
0.0
230
1.0
  0
CIRCLE
  8
0
  6
CONTINUOUS
 62
     7
  5
160
 10
475.86776
 20
177.680402
 30
0.0
 40
4.0
210
0.0
220
0.0
230
1.0
  0
CIRCLE
  8
0
  6
CONTINUOUS
 62
     7
  5
161
 10
429.36776
 20
131.180402
 30
0.0
 40
4.0
210
0.0
220
0.0
230
1.0
  0
CIRCLE
  8
0
  6
CONTINUOUS
 62
     7
  5
162
 10
475.86776
 20
131.180402
 30
0.0
 40
4.0
210
0.0
220
0.0
230
1.0
  0
CIRCLE
  8
0
  6
CONTINUOUS
 62
     7
  5
163
 10
416.61776
 20
154.430402
 30
0.0
 40
3.0
210
0.0
220
0.0
230
1.0
  0
CIRCLE
  8
0
  6
CONTINUOUS
 62
     7
  5
164
 10
488.61776
 20
154.430402
 30
0.0
 40
3.0
210
0.0
220
0.0
230
1.0
  0
CIRCLE
  8
0
  6
CONTINUOUS
 62
     7
  5
165
 10
402.61776
 20
177.680402
 30
0.0
 40
4.5
210
0.0
220
0.0
230
1.0
  0
CIRCLE
  8
0
  6
CONTINUOUS
 62
     7
  5
166
 10
502.61776
 20
177.680402
 30
0.0
 40
4.5
210
0.0
220
0.0
230
1.0
  0
CIRCLE
  8
0
  6
CONTINUOUS
 62
     7
  5
167
 10
402.61776
 20
131.180402
 30
0.0
 40
4.5
210
0.0
220
0.0
230
1.0
  0
CIRCLE
  8
0
  6
CONTINUOUS
 62
     7
  5
168
 10
502.61776
 20
131.180402
 30
0.0
 40
4.5
210
0.0
220
0.0
230
1.0
  0
LINE
  8
0
  6
CONTINUOUS
 62
     7
  5
169
 10
519.61776
 20
188.430402
 30
0.0
 11
385.61776
 21
188.430402
 31
0.0
  0
LINE
  8
0
  6
CONTINUOUS
 62
     7
  5
16A
 10
519.61776
 20
120.430402
 30
0.0
 11
519.61776
 21
188.430402
 31
0.0
  0
LINE
  8
0
  6
CONTINUOUS
 62
     7
  5
16B
 10
385.61776
 20
120.430402
 30
0.0
 11
519.61776
 21
120.430402
 31
0.0
  0
LINE
  8
0
  6
CONTINUOUS
 62
     7
  5
16C
 10
385.61776
 20
188.430402
 30
0.0
 11
385.61776
 21
120.430402
 31
0.0
  0
CIRCLE
  8
0
  6
CONTINUOUS
 62
     7
  5
16D
 10
429.36776
 20
177.680402
 30
0.0
 40
3.3235
210
0.0
220
0.0
230
1.0
  0
CIRCLE
  8
0
  6
CONTINUOUS
 62
     7
  5
16E
 10
429.36776
 20
131.180402
 30
0.0
 40
3.3235
210
0.0
220
0.0
230
1.0
  0
CIRCLE
  8
0
  6
CONTINUOUS
 62
     7
  5
16F
 10
475.86776
 20
131.180402
 30
0.0
 40
3.3235
210
0.0
220
0.0
230
1.0
  0
CIRCLE
  8
0
  6
CONTINUOUS
 62
     7
  5
170
 10
475.86776
 20
177.680402
 30
0.0
 40
3.3235
210
0.0
220
0.0
230
1.0
  0
CIRCLE
  8
0
  6
CONTINUOUS
 62
     7
  5
171
 10
452.61776
 20
154.430402
 30
0.0
 40
4.5
210
0.0
220
0.0
230
1.0
  0
CIRCLE
  8
0
  6
CONTINUOUS
 62
     7
  5
172
 10
452.61776
 20
154.430402
 30
0.0
 40
8.75
210
0.0
220
0.0
230
1.0
  0
LINE
  8
0
  6
CONTINUOUS
 62
     7
  5
173
 10
455.61776
 20
156.162453
 30
0.0
 11
452.61776
 21
157.894504
 31
0.0
  0
LINE
  8
0
  6
CONTINUOUS
 62
     7
  5
174
 10
452.61776
 20
157.894504
 30
0.0
 11
449.61776
 21
156.162453
 31
0.0
  0
LINE
  8
0
  6
CONTINUOUS
 62
     7
  5
175
 10
449.61776
 20
152.698351
 30
0.0
 11
452.61776
 21
150.966301
 31
0.0
  0
LINE
  8
0
  6
CONTINUOUS
 62
     7
  5
176
 10
452.61776
 20
150.966301
 30
0.0
 11
455.61776
 21
152.698351
 31
0.0
  0
LINE
  8
0
  6
CONTINUOUS
 62
     7
  5
177
 10
455.61776
 20
152.698351
 30
0.0
 11
455.61776
 21
156.162453
 31
0.0
  0
LINE
  8
0
  6
CONTINUOUS
 62
     7
  5
178
 10
449.61776
 20
156.162453
 30
0.0
 11
449.61776
 21
152.698351
 31
0.0
  0
CIRCLE
  8
0
  6
CONTINUOUS
 62
     7
  5
179
 10
452.61776
 20
154.430402
 30
0.0
 40
10.5
210
0.0
220
0.0
230
1.0
  0
LINE
  8
0
  6
CONTINUOUS
 62
     7
  5
17A
 10
485.36776
 20
120.430402
 30
0.0
 11
485.36776
 21
119.430402
 31
0.0
  0
LINE
  8
0
  6
CONTINUOUS
 62
     7
  5
17B
 10
521.11776
 20
188.430402
 30
0.0
 11
521.11776
 21
119.430402
 31
0.0
  0
LINE
  8
0
  6
CONTINUOUS
 62
     7
  5
17C
 10
485.36776
 20
119.430402
 30
0.0
 11
521.11776
 21
119.430402
 31
0.0
  0
LINE
  8
0
  6
CONTINUOUS
 62
     7
  5
17D
 10
519.61776
 20
188.430402
 30
0.0
 11
521.11776
 21
188.430402
 31
0.0
  0
LINE
  8
0
  6
CONTINUOUS
 62
     7
  5
17E
 10
384.11776
 20
188.430402
 30
0.0
 11
384.11776
 21
119.430402
 31
0.0
  0
LINE
  8
0
  6
CONTINUOUS
 62
     7
  5
17F
 10
419.86776
 20
120.430402
 30
0.0
 11
419.86776
 21
119.430402
 31
0.0
  0
LINE
  8
0
  6
CONTINUOUS
 62
     7
  5
180
 10
384.11776
 20
119.430402
 30
0.0
 11
419.86776
 21
119.430402
 31
0.0
  0
LINE
  8
0
  6
CONTINUOUS
 62
     7
  5
181
 10
384.11776
 20
188.430402
 30
0.0
 11
385.61776
 21
188.430402
 31
0.0
  0
LINE
  8
0
  6
CONTINUOUS
 62
     9
  5
182
 10
482.36776
 20
119.430402
 30
0.0
 11
482.36776
 21
120.430402
 31
0.0
  0
LINE
  8
0
  6
CONTINUOUS
 62
     7
  5
183
 10
482.36776
 20
119.430402
 30
0.0
 11
485.36776
 21
119.430402
 31
0.0
  0
LINE
  8
0
  6
CONTINUOUS
 62
     9
  5
184
 10
422.86776
 20
120.430402
 30
0.0
 11
422.86776
 21
119.430402
 31
0.0
  0
LINE
  8
0
  6
CONTINUOUS
 62
     7
  5
185
 10
419.86776
 20
119.430402
 30
0.0
 11
422.86776
 21
119.430402
 31
0.0
  0
LINE
  8
0
  6
CONTINUOUS
 62
     7
  5
186
 10
422.86776
 20
119.430402
 30
0.0
 11
482.36776
 21
119.430402
 31
0.0
  0
LINE
  8
0
  6
CONTINUOUS
 62
     7
  5
187
 10
521.11776
 20
190.430402
 30
0.0
 11
488.11776
 21
190.430402
 31
0.0
  0
LINE
  8
0
  6
CONTINUOUS
 62
     7
  5
188
 10
521.11776
 20
188.430402
 30
0.0
 11
521.11776
 21
190.430402
 31
0.0
  0
LINE
  8
0
  6
CONTINUOUS
 62
     7
  5
189
 10
488.11776
 20
190.430402
 30
0.0
 11
488.11776
 21
188.430402
 31
0.0
  0
ENDBLK
  8
0
  5
18A
  0
ENDSEC
  0
SECTION
  2
ENTITIES
  0
INSERT
  8
0
  5
56
  2
AID3
 10
0.0
 20
0.0
 30
0.0
  0
INSERT
  8
0
  5
99
  2
AID101
 10
0.0
 20
0.0
 30
0.0
  0
INSERT
  8
0
  5
ED
  2
AID231
 10
0.0
 20
0.0
 30
0.0
  0
INSERT
  8
0
  5
15B
  2
AID395
 10
0.0
 20
0.0
 30
0.0
  0
INSERT
  8
0
  5
18B
  2
AID611
 10
0.0
 20
0.0
 30
0.0
  0
TEXT
  8
0
 62
     7
  5
18C
 10
-36.374733
 20
52.430402
 30
0.0
 40
5.5
  1
Représenté course 70 mm
210
0.0
220
0.0
230
1.0
  0
TEXT
  8
0
 62
     7
  5
18D
 10
-36.374733
 20
34.930402
 30
0.0
 40
5.5
  1
Represented stroke 70 mm
210
0.0
220
0.0
230
1.0
  0
TEXT
  8
0
 62
     7
  5
18E
 10
-36.374733
 20
17.430402
 30
0.0
 40
5.5
  1
In Hub 70 mm vorgestellt
210
0.0
220
0.0
230
1.0
  0
LINE
  8
0
  6
CENTER
 62
     1
  5
190
 10
73.46616
 20
292.442175
 30
0.0
 11
312.86616
 21
292.442175
 31
0.0
  0
LINE
  8
0
  6
CENTER
 62
     1
  5
191
 10
95.36616
 20
154.430402
 30
0.0
 11
354.56616
 21
154.430402
 31
0.0
  0
LINE
  8
0
  6
CENTER
 62
     1
  5
192
 10
90.36616
 20
6.536402
 30
0.0
 11
312.86616
 21
6.536402
 31
0.0
  0
LINE
  8
0
  6
CENTER
 62
     1
  5
193
 10
410.11776
 20
139.630402
 30
0.0
 11
410.11776
 21
131.830402
 31
0.0
  0
LINE
  8
0
  6
CENTER
 62
     1
  5
194
 10
395.11776
 20
131.180402
 30
0.0
 11
410.11776
 21
131.180402
 31
0.0
  0
LINE
  8
0
  6
CENTER
 62
     1
  5
195
 10
402.61776
 20
123.680402
 30
0.0
 11
402.61776
 21
138.680402
 31
0.0
  0
LINE
  8
0
  6
CENTER
 62
     1
  5
196
 10
395.11776
 20
177.680402
 30
0.0
 11
410.11776
 21
177.680402
 31
0.0
  0
LINE
  8
0
  6
CENTER
 62
     1
  5
197
 10
402.61776
 20
170.180402
 30
0.0
 11
402.61776
 21
185.180402
 31
0.0
  0
LINE
  8
0
  6
CENTER
 62
     1
  5
198
 10
410.61776
 20
154.430402
 30
0.0
 11
422.61776
 21
154.430402
 31
0.0
  0
LINE
  8
0
  6
CENTER
 62
     1
  5
199
 10
416.61776
 20
148.430402
 30
0.0
 11
416.61776
 21
160.430402
 31
0.0
  0
LINE
  8
0
  6
CENTER
 62
     1
  5
19A
 10
422.36776
 20
131.180402
 30
0.0
 11
436.36776
 21
131.180402
 31
0.0
  0
LINE
  8
0
  6
CENTER
 62
     1
  5
19B
 10
429.36776
 20
124.180402
 30
0.0
 11
429.36776
 21
138.180402
 31
0.0
  0
LINE
  8
0
  6
CENTER
 62
     1
  5
19C
 10
422.36776
 20
177.680402
 30
0.0
 11
436.36776
 21
177.680402
 31
0.0
  0
LINE
  8
0
  6
CENTER
 62
     1
  5
19D
 10
429.36776
 20
170.680402
 30
0.0
 11
429.36776
 21
184.680402
 31
0.0
  0
LINE
  8
0
  6
CENTER
 62
     1
  5
19E
 10
436.61776
 20
154.430402
 30
0.0
 11
468.61776
 21
154.430402
 31
0.0
  0
LINE
  8
0
  6
CENTER
 62
     1
  5
19F
 10
452.61776
 20
138.430402
 30
0.0
 11
452.61776
 21
170.430402
 31
0.0
  0
LINE
  8
0
  6
CENTER
 62
     1
  5
1A0
 10
468.86776
 20
131.180402
 30
0.0
 11
482.86776
 21
131.180402
 31
0.0
  0
LINE
  8
0
  6
CENTER
 62
     1
  5
1A1
 10
475.86776
 20
124.180402
 30
0.0
 11
475.86776
 21
138.180402
 31
0.0
  0
LINE
  8
0
  6
CENTER
 62
     1
  5
1A2
 10
468.86776
 20
177.680402
 30
0.0
 11
482.86776
 21
177.680402
 31
0.0
  0
LINE
  8
0
  6
CENTER
 62
     1
  5
1A3
 10
475.86776
 20
170.680402
 30
0.0
 11
475.86776
 21
184.680402
 31
0.0
  0
LINE
  8
0
  6
CENTER
 62
     1
  5
1A4
 10
482.61776
 20
154.430402
 30
0.0
 11
494.61776
 21
154.430402
 31
0.0
  0
LINE
  8
0
  6
CENTER
 62
     1
  5
1A5
 10
488.61776
 20
148.430402
 30
0.0
 11
488.61776
 21
160.430402
 31
0.0
  0
LINE
  8
0
  6
CENTER
 62
     1
  5
1A6
 10
495.11776
 20
131.180402
 30
0.0
 11
510.11776
 21
131.180402
 31
0.0
  0
LINE
  8
0
  6
CENTER
 62
     1
  5
1A7
 10
502.61776
 20
123.680402
 30
0.0
 11
502.61776
 21
138.680402
 31
0.0
  0
LINE
  8
0
  6
CENTER
 62
     1
  5
1A8
 10
495.11776
 20
177.680402
 30
0.0
 11
510.11776
 21
177.680402
 31
0.0
  0
LINE
  8
0
  6
CENTER
 62
     1
  5
1A9
 10
502.61776
 20
170.180402
 30
0.0
 11
502.61776
 21
185.180402
 31
0.0
  0
LINE
  8
0
  6
CENTER
 62
     1
  5
1AA
 10
-60.874733
 20
136.430402
 30
0.0
 11
-60.874733
 21
172.430402
 31
0.0
  0
LINE
  8
0
  6
CENTER
 62
     1
  5
1AB
 10
-8.874733
 20
110.930402
 30
0.0
 11
-8.874733
 21
197.930402
 31
0.0
  0
LINE
  8
0
  6
CENTER
 62
     1
  5
1AC
 10
43.125267
 20
136.430402
 30
0.0
 11
43.125267
 21
172.430402
 31
0.0
  0
LINE
  8
0
  6
CENTER
 62
     1
  5
1AD
 10
-78.874733
 20
154.430402
 30
0.0
 11
61.125267
 21
154.430402
 31
0.0
  0
LINE
  8
0
  6
CENTER
 62
     1
  5
1AE
 10
160.36616
 20
334.942175
 30
0.0
 11
174.36616
 21
334.942175
 31
0.0
  0
LINE
  8
0
  6
CENTER
 62
     1
  5
1AF
 10
167.36616
 20
327.942175
 30
0.0
 11
167.36616
 21
341.942175
 31
0.0
  0
LINE
  8
0
  6
CENTER
 62
     1
  5
1B0
 10
184.61616
 20
351.942175
 30
0.0
 11
196.61616
 21
351.942175
 31
0.0
  0
LINE
  8
0
  6
CENTER
 62
     1
  5
1B1
 10
190.61616
 20
345.942175
 30
0.0
 11
190.61616
 21
357.942175
 31
0.0
  0
LINE
  8
0
  6
CENTER
 62
     1
  5
1B2
 10
206.86616
 20
334.942175
 30
0.0
 11
220.86616
 21
334.942175
 31
0.0
  0
LINE
  8
0
  6
CENTER
 62
     1
  5
1B3
 10
213.86616
 20
327.942175
 30
0.0
 11
213.86616
 21
341.942175
 31
0.0
  0
LINE
  8
0
  6
CENTER
 62
     1
  5
1B4
 10
206.86616
 20
249.942175
 30
0.0
 11
220.86616
 21
249.942175
 31
0.0
  0
LINE
  8
0
  6
CENTER
 62
     1
  5
1B5
 10
213.86616
 20
242.942175
 30
0.0
 11
213.86616
 21
256.942175
 31
0.0
  0
LINE
  8
0
  6
CENTER
 62
     1
  5
1B6
 10
160.36616
 20
249.942175
 30
0.0
 11
174.36616
 21
249.942175
 31
0.0
  0
LINE
  8
0
  6
CENTER
 62
     1
  5
1B7
 10
167.36616
 20
242.942175
 30
0.0
 11
167.36616
 21
256.942175
 31
0.0
  0
LINE
  8
0
  6
CENTER
 62
     1
  5
1B8
 10
184.61616
 20
232.942175
 30
0.0
 11
196.61616
 21
232.942175
 31
0.0
  0
LINE
  8
0
  6
CENTER
 62
     1
  5
1B9
 10
190.61616
 20
226.942175
 30
0.0
 11
190.61616
 21
238.942175
 31
0.0
  0
LINE
  8
0
  6
CENTER
 62
     1
  5
1BA
 10
352.36616
 20
344.442175
 30
0.0
 11
258.36616
 21
344.442175
 31
0.0
  0
LINE
  8
0
  6
CENTER
 62
     1
  5
1BB
 10
352.36616
 20
240.442175
 30
0.0
 11
258.36616
 21
240.442175
 31
0.0
  0
LINE
  8
0
  6
CENTER
 62
     1
  5
1BC
 10
110.36616
 20
240.442175
 30
0.0
 11
124.36616
 21
240.442175
 31
0.0
  0
LINE
  8
0
  6
CENTER
 62
     1
  5
1BD
 10
110.36616
 20
344.442175
 30
0.0
 11
124.36616
 21
344.442175
 31
0.0
  0
LINE
  8
0
  6
CENTER
 62
     1
  5
1BE
 10
161.04266
 20
177.680402
 30
0.0
 11
173.68966
 21
177.680402
 31
0.0
  0
LINE
  8
0
  6
CENTER
 62
     1
  5
1BF
 10
167.36616
 20
171.356902
 30
0.0
 11
167.36616
 21
184.003902
 31
0.0
  0
LINE
  8
0
  6
CENTER
 62
     1
  5
1C0
 10
184.61616
 20
177.680402
 30
0.0
 11
196.61616
 21
177.680402
 31
0.0
  0
LINE
  8
0
  6
CENTER
 62
     1
  5
1C1
 10
190.61616
 20
171.680402
 30
0.0
 11
190.61616
 21
183.680402
 31
0.0
  0
LINE
  8
0
  6
CENTER
 62
     1
  5
1C2
 10
206.86616
 20
177.680402
 30
0.0
 11
220.86616
 21
177.680402
 31
0.0
  0
LINE
  8
0
  6
CENTER
 62
     1
  5
1C3
 10
213.86616
 20
170.680402
 30
0.0
 11
213.86616
 21
184.680402
 31
0.0
  0
LINE
  8
0
  6
CENTER
 62
     1
  5
1C4
 10
207.54266
 20
131.180402
 30
0.0
 11
220.18966
 21
131.180402
 31
0.0
  0
LINE
  8
0
  6
CENTER
 62
     1
  5
1C5
 10
213.86616
 20
124.856902
 30
0.0
 11
213.86616
 21
137.503902
 31
0.0
  0
LINE
  8
0
  6
CENTER
 62
     1
  5
1C6
 10
184.61616
 20
131.180402
 30
0.0
 11
196.61616
 21
131.180402
 31
0.0
  0
LINE
  8
0
  6
CENTER
 62
     1
  5
1C7
 10
190.61616
 20
125.180402
 30
0.0
 11
190.61616
 21
137.180402
 31
0.0
  0
LINE
  8
0
  6
CENTER
 62
     1
  5
1C8
 10
161.04266
 20
131.180402
 30
0.0
 11
173.68966
 21
131.180402
 31
0.0
  0
LINE
  8
0
  6
CENTER
 62
     1
  5
1C9
 10
167.36616
 20
124.856902
 30
0.0
 11
167.36616
 21
137.503902
 31
0.0
  0
LINE
  8
0
  6
CENTER
 62
     1
  5
1CA
 10
220.36616
 20
31.536402
 30
0.0
 11
232.36616
 21
31.536402
 31
0.0
  0
LINE
  8
0
  6
CENTER
 62
     1
  5
1CB
 10
226.36616
 20
25.536402
 30
0.0
 11
226.36616
 21
37.536402
 31
0.0
  0
LINE
  8
0
  6
CENTER
 62
     1
  5
1CC
 10
220.90716
 20
-18.463598
 30
0.0
 11
231.82516
 21
-18.463598
 31
0.0
  0
LINE
  8
0
  6
CENTER
 62
     1
  5
1CD
 10
226.36616
 20
-23.922598
 30
0.0
 11
226.36616
 21
-13.004598
 31
0.0
  0
LINE
  8
0
  6
CENTER
 62
     1
  5
1CE
 10
270.90716
 20
-18.463598
 30
0.0
 11
281.82516
 21
-18.463598
 31
0.0
  0
LINE
  8
0
  6
CENTER
 62
     1
  5
1CF
 10
276.36616
 20
-23.922598
 30
0.0
 11
276.36616
 21
-13.004598
 31
0.0
  0
LINE
  8
0
  6
CENTER
 62
     1
  5
1D0
 10
270.36616
 20
31.536402
 30
0.0
 11
282.36616
 21
31.536402
 31
0.0
  0
LINE
  8
0
  6
CENTER
 62
     1
  5
1D1
 10
276.36616
 20
25.536402
 30
0.0
 11
276.36616
 21
37.536402
 31
0.0
  0
LINE
  8
0
  6
CENTER
 62
     1
  5
1D2
 10
167.36616
 20
-45.463598
 30
0.0
 11
206.36616
 21
-45.463598
 31
0.0
  0
LINE
  8
0
  6
CENTER
 62
     1
  5
1D3
 10
186.86616
 20
-64.963598
 30
0.0
 11
186.86616
 21
-25.963598
 31
0.0
  0
LINE
  8
0
  6
CENTER
 62
     1
  5
1D4
 10
352.36616
 20
58.536402
 30
0.0
 11
258.36616
 21
58.536402
 31
0.0
  0
LINE
  8
0
  6
CENTER
 62
     1
  5
1D5
 10
352.36616
 20
-45.463598
 30
0.0
 11
258.36616
 21
-45.463598
 31
0.0
  0
LINE
  8
0
  6
CENTER
 62
     1
  5
1D6
 10
124.36616
 20
58.536402
 30
0.0
 11
110.36616
 21
58.536402
 31
0.0
  0
LINE
  8
0
  6
CENTER
 62
     1
  5
1D7
 10
124.36616
 20
-45.463598
 30
0.0
 11
110.36616
 21
-45.463598
 31
0.0
  0
ENDSEC
  0
EOF
