  0
SECTION
  2
HEADER
  9
$ACADVER
  1
AC1009
  9
$DWGCODEPAGE
  3
ansi_1252
  9
$INSBASE
 10
0.0
 20
0.0
 30
0.0
  9
$EXTMIN
 10
-200.874733
 20
-147.963598
 30
0.0
  9
$EXTMAX
 10
642.11776
 20
453.942175
 30
5.0
  9
$LIMMIN
 10
-200.874733
 20
-147.963598
  9
$LIMMAX
 10
642.11776
 20
453.942175
  9
$ORTHOMODE
 70
     0
  9
$REGENMODE
 70
     1
  9
$FILLMODE
 70
     1
  9
$QTEXTMODE
 70
     0
  9
$MIRRTEXT
 70
     1
  9
$DRAGMODE
 70
     2
  9
$LTSCALE
 40
10.0
  9
$OSMODE
 70
     0
  9
$ATTMODE
 70
     1
  9
$TEXTSIZE
 40
0.2
  9
$TRACEWID
 40
0.05
  9
$TEXTSTYLE
  7
STANDARD
  9
$CLAYER
  8
0
  9
$CELTYPE
  6
CONTINUOUS
  9
$CECOLOR
 62
   256
  9
$DIMSCALE
 40
1.0
  9
$DIMASZ
 40
1.25
  9
$DIMEXO
 40
1.0
  9
$DIMDLI
 40
0.38
  9
$DIMRND
 40
0.0
  9
$DIMDLE
 40
0.0
  9
$DIMEXE
 40
0.75
  9
$DIMTP
 40
0.0
  9
$DIMTM
 40
0.0
  9
$DIMTXT
 40
2.5
  9
$DIMCEN
 40
0.09
  9
$DIMTSZ
 40
0.0
  9
$DIMTOL
 70
     0
  9
$DIMLIM
 70
     0
  9
$DIMTIH
 70
     0
  9
$DIMTOH
 70
     0
  9
$DIMSE1
 70
     0
  9
$DIMSE2
 70
     0
  9
$DIMTAD
 70
     1
  9
$DIMZIN
 70
     0
  9
$DIMBLK
  1

  9
$DIMASO
 70
     1
  9
$DIMSHO
 70
     1
  9
$DIMPOST
  1

  9
$DIMAPOST
  1

  9
$DIMALT
 70
     0
  9
$DIMALTD
 70
     2
  9
$DIMALTF
 40
25.4
  9
$DIMLFAC
 40
1.0
  9
$DIMTOFL
 70
     0
  9
$DIMTVP
 40
0.0
  9
$DIMTIX
 70
     0
  9
$DIMSOXD
 70
     0
  9
$DIMSAH
 70
     0
  9
$DIMBLK1
  1

  9
$DIMBLK2
  1

  9
$DIMSTYLE
  2
STANDARD
  9
$DIMCLRD
 70
     7
  9
$DIMCLRE
 70
     7
  9
$DIMCLRT
 70
     7
  9
$DIMTFAC
 40
0.8
  9
$DIMGAP
 40
1.25
  9
$LUNITS
 70
     2
  9
$LUPREC
 70
     4
  9
$AXISMODE
 70
     0
  9
$AXISUNIT
 10
0.0
 20
0.0
  9
$SKETCHINC
 40
0.1
  9
$FILLETRAD
 40
0.0
  9
$AUNITS
 70
     0
  9
$AUPREC
 70
     0
  9
$MENU
  1
acad
  9
$ELEVATION
 40
0.0
  9
$PELEVATION
 40
0.0
  9
$THICKNESS
 40
0.0
  9
$LIMCHECK
 70
     0
  9
$BLIPMODE
 70
     1
  9
$CHAMFERA
 40
0.0
  9
$CHAMFERB
 40
0.0
  9
$SKPOLY
 70
     0
  9
$TDCREATE
 40
2454335.436030093
  9
$TDUPDATE
 40
2454335.352430556
  9
$TDINDWG
 40
0.0000000000
  9
$TDUSRTIMER
 40
0.0000000000
  9
$USRTIMER
 70
     1
  9
$ANGBASE
 50
0.0
  9
$ANGDIR
 70
     0
  9
$PDMODE
 70
     0
  9
$PDSIZE
 40
0.0
  9
$PLINEWID
 40
0.0
  9
$COORDS
 70
     0
  9
$SPLFRAME
 70
     0
  9
$SPLINETYPE
 70
     6
  9
$SPLINESEGS
 70
     8
  9
$ATTDIA
 70
     0
  9
$ATTREQ
 70
     1
  9
$HANDLING
 70
     1
  9
$HANDSEED
  5
1DD
  9
$SURFTAB1
 70
     6
  9
$SURFTAB2
 70
     6
  9
$SURFTYPE
 70
     6
  9
$SURFU
 70
     6
  9
$SURFV
 70
     6
  9
$UCSNAME
  2

  9
$UCSORG
 10
0.0
 20
0.0
 30
0.0
  9
$UCSXDIR
 10
1.0
 20
0.0
 30
0.0
  9
$UCSYDIR
 10
0.0
 20
1.0
 30
0.0
  9
$PUCSNAME
  2

  9
$PUCSORG
 10
0.0
 20
0.0
 30
0.0
  9
$PUCSXDIR
 10
1.0
 20
0.0
 30
0.0
  9
$PUCSYDIR
 10
0.0
 20
1.0
 30
0.0
  9
$USERI1
 70
     0
  9
$USERI2
 70
     0
  9
$USERI3
 70
     0
  9
$USERI4
 70
     0
  9
$USERI5
 70
     0
  9
$USERR1
 40
0.0
  9
$USERR2
 40
0.0
  9
$USERR3
 40
0.0
  9
$USERR4
 40
0.0
  9
$USERR5
 40
0.0
  9
$WORLDVIEW
 70
     1
  9
$SHADEDGE
 70
     3
  9
$SHADEDIF
 70
    70
  9
$TILEMODE
 70
     1
  9
$MAXACTVP
 70
    16
  9
$PINSBASE
 10
0.0
 20
0.0
 30
0.0
  9
$PLIMCHECK
 70
     0
  9
$PEXTMIN
 10
1.000000E+20
 20
1.000000E+20
 30
1.000000E+20
  9
$PEXTMAX
 10
-1.000000E+20
 20
-1.000000E+20
 30
-1.000000E+20
  9
$PLIMMIN
 10
0.0
 20
0.0
  9
$PLIMMAX
 10
12.0
 20
9.0
  9
$UNITMODE
 70
     0
  9
$VISRETAIN
 70
     0
  9
$PLINEGEN
 70
     1
  9
$PSLTSCALE
 70
     0
  9
$TREEDEPTH
 70
  3020
  0
ENDSEC
  0
SECTION
  2
TABLES
  0
TABLE
  2
VPORT
 70
     1
  0
VPORT
  2
*ACTIVE
 70
     0
 10
0.0
 20
0.0
 11
1.0
 21
1.0
 12
6.591288
 22
4.579184
 13
0.0
 23
0.0
 14
1.0
 24
1.0
 15
0.0
 25
0.0
 16
0.0
 26
0.0
 36
1.0
 17
0.0
 27
0.0
 37
0.0
 40
9.158369
 41
0.688564
 42
50.0
 43
0.0
 44
0.0
 50
0.0
 51
0.0
 71
     0
 72
   100
 73
     1
 74
     1
 75
     0
 76
     0
 77
     0
 78
     0
  0
ENDTAB
  0
TABLE
  2
LTYPE
 70
     2
  0
LTYPE
  2
CONTINUOUS
 70
    64
  3
Solid line
 72
    65
 73
     0
 40
0.0
  0
LTYPE
  2
CENTER
 70
    64
  3
____ _ ____ _ ____ _ ____ _ ____ _ ____ _ ____
 72
    65
 73
     4
 40
2.0
 49
1.25
 49
-0.25
 49
0.25
 49
-0.25
  0
ENDTAB
  0
TABLE
  2
LAYER
 70
     1
  0
LAYER
  2
0
 70
     0
 62
     7
  6
CONTINUOUS
  0
ENDTAB
  0
TABLE
  2
STYLE
 70
     1
  0
STYLE
  2
STANDARD
 70
     0
 40
0.0
 41
1.0
 50
0.0
 71
     0
 42
0.0
  3
IsonormD
  4

  0
ENDTAB
  0
TABLE
  2
VIEW
 70
     0
  0
ENDTAB
  0
TABLE
  2
UCS
 70
     0
  0
ENDTAB
  0
TABLE
  2
APPID
 70
     2
  0
APPID
  2
ACAD
 70
     0
  0
APPID
  2
TopSolid_Draft
 70
     0
  0
ENDTAB
  0
TABLE
  2
DIMSTYLE
 70
     1
  0
DIMSTYLE
  2
STANDARD
 70
     0
  3

  4

  5

  6

  7

 40
1.0
 41
1.25
 42
1.0
 43
0.38
 44
0.75
 45
0.0
 46
0.0
 47
0.0
 48
0.0
 71
     0
 72
     0
 73
     0
 74
     0
 75
     0
 76
     0
 77
     1
 78
     0
140
2.5
141
0.09
142
0.0
143
25.4
144
1.0
145
0.0
146
0.8
147
1.25
170
     0
171
     2
172
     0
173
     0
174
     0
175
     0
176
     7
177
     7
178
     7
  0
ENDTAB
  0
ENDSEC
  0
SECTION
  2
BLOCKS
  0
BLOCK
  8
0
  5
25
  2
AID3
 70
     0
 10
0.0
 20
0.0
 30
0.0
  3
#draft view
  0
LINE
  8
0
  6
CONTINUOUS
 62
     7
  5
26
 10
65.36616
 20
193.680402
 30
0.0
 11
94.36616
 21
193.680402
 31
0.0
  0
LINE
  8
0
  6
CONTINUOUS
 62
     7
  5
27
 10
94.36616
 20
113.680402
 30
0.0
 11
94.36616
 21
193.680402
 31
0.0
  0
LINE
  8
0
  6
CONTINUOUS
 62
     7
  5
28
 10
65.36616
 20
113.680402
 30
0.0
 11
65.36616
 21
193.680402
 31
0.0
  0
LINE
  8
0
  6
CONTINUOUS
 62
     7
  5
29
 10
65.36616
 20
113.680402
 30
0.0
 11
94.36616
 21
113.680402
 31
0.0
  0
LINE
  8
0
  6
CONTINUOUS
 62
     7
  5
2A
 10
368.36616
 20
134.680402
 30
0.0
 11
368.36616
 21
172.680402
 31
0.0
  0
LINE
  8
0
  6
CONTINUOUS
 62
     7
  5
2B
 10
366.36616
 20
172.680402
 30
0.0
 11
366.36616
 21
134.680402
 31
0.0
  0
LINE
  8
0
  6
CONTINUOUS
 62
     7
  5
2C
 10
369.36616
 20
171.680402
 30
0.0
 11
369.36616
 21
153.680402
 31
0.0
  0
LINE
  8
0
  6
CONTINUOUS
 62
     7
  5
2D
 10
369.36616
 20
153.680402
 30
0.0
 11
369.36616
 21
135.680402
 31
0.0
  0
LINE
  8
0
  6
CONTINUOUS
 62
     7
  5
2E
 10
379.36616
 20
145.680402
 30
0.0
 11
379.36616
 21
161.680402
 31
0.0
  0
CIRCLE
  8
0
  6
CONTINUOUS
 62
     7
  5
2F
 10
150.36616
 20
125.430402
 30
0.0
 40
6.0
210
0.0
220
0.0
230
1.0
  0
CIRCLE
  8
0
  6
CONTINUOUS
 62
     7
  5
30
 10
222.36616
 20
125.430402
 30
0.0
 40
6.0
210
0.0
220
0.0
230
1.0
  0
CIRCLE
  8
0
  6
CONTINUOUS
 62
     7
  5
31
 10
222.36616
 20
181.930402
 30
0.0
 40
6.0
210
0.0
220
0.0
230
1.0
  0
CIRCLE
  8
0
  6
CONTINUOUS
 62
     7
  5
32
 10
150.36616
 20
181.930402
 30
0.0
 40
6.0
210
0.0
220
0.0
230
1.0
  0
LINE
  8
0
  6
CONTINUOUS
 62
     7
  5
33
 10
102.36616
 20
196.180402
 30
0.0
 11
102.36616
 21
111.180402
 31
0.0
  0
LINE
  8
0
  6
CONTINUOUS
 62
     7
  5
34
 10
271.36616
 20
111.180402
 30
0.0
 11
102.36616
 21
111.180402
 31
0.0
  0
CIRCLE
  8
0
  6
CONTINUOUS
 62
     7
  5
35
 10
186.36616
 20
181.930402
 30
0.0
 40
5.0
210
0.0
220
0.0
230
1.0
  0
CIRCLE
  8
0
  6
CONTINUOUS
 62
     7
  5
36
 10
186.36616
 20
125.430402
 30
0.0
 40
5.0
210
0.0
220
0.0
230
1.0
  0
LINE
  8
0
  6
CONTINUOUS
 62
     7
  5
37
 10
271.36616
 20
196.180402
 30
0.0
 11
102.36616
 21
196.180402
 31
0.0
  0
LINE
  8
0
  6
CONTINUOUS
 62
     7
  5
38
 10
271.36616
 20
196.180402
 30
0.0
 11
271.36616
 21
111.180402
 31
0.0
  0
CIRCLE
  8
0
  6
CONTINUOUS
 62
     7
  5
39
 10
222.36616
 20
125.430402
 30
0.0
 40
5.053
210
0.0
220
0.0
230
1.0
  0
CIRCLE
  8
0
  6
CONTINUOUS
 62
     7
  5
3A
 10
150.36616
 20
181.930402
 30
0.0
 40
5.053
210
0.0
220
0.0
230
1.0
  0
CIRCLE
  8
0
  6
CONTINUOUS
 62
     7
  5
3B
 10
222.36616
 20
181.930402
 30
0.0
 40
5.053
210
0.0
220
0.0
230
1.0
  0
CIRCLE
  8
0
  6
CONTINUOUS
 62
     7
  5
3C
 10
150.36616
 20
125.430402
 30
0.0
 40
5.053
210
0.0
220
0.0
230
1.0
  0
LINE
  8
0
  6
CONTINUOUS
 62
     7
  5
3D
 10
197.36616
 20
198.680402
 30
0.0
 11
155.36616
 21
198.680402
 31
0.0
  0
LINE
  8
0
  6
CONTINUOUS
 62
     7
  5
3E
 10
296.36616
 20
186.180402
 30
0.0
 11
271.36616
 21
186.180402
 31
0.0
  0
LINE
  8
0
  6
CONTINUOUS
 62
     7
  5
3F
 10
296.36616
 20
186.180402
 30
0.0
 11
296.36616
 21
166.180402
 31
0.0
  0
LINE
  8
0
  6
CONTINUOUS
 62
     7
  5
40
 10
296.36616
 20
141.180402
 30
0.0
 11
296.36616
 21
121.180402
 31
0.0
  0
LINE
  8
0
  6
CONTINUOUS
 62
     7
  5
41
 10
296.36616
 20
121.180402
 30
0.0
 11
271.36616
 21
121.180402
 31
0.0
  0
LINE
  8
0
  6
CONTINUOUS
 62
     7
  5
42
 10
368.36616
 20
172.680402
 30
0.0
 11
366.36616
 21
172.680402
 31
0.0
  0
LINE
  8
0
  6
CONTINUOUS
 62
     7
  5
43
 10
366.36616
 20
134.680402
 30
0.0
 11
368.36616
 21
134.680402
 31
0.0
  0
LINE
  8
0
  6
CONTINUOUS
 62
     7
  5
44
 10
368.36616
 20
134.680402
 30
0.0
 11
369.36616
 21
135.680402
 31
0.0
  0
LINE
  8
0
  6
CONTINUOUS
 62
     7
  5
45
 10
369.36616
 20
171.680402
 30
0.0
 11
368.36616
 21
172.680402
 31
0.0
  0
LINE
  8
0
  6
CONTINUOUS
 62
     7
  5
46
 10
366.36616
 20
166.180402
 30
0.0
 11
271.36616
 21
166.180402
 31
0.0
  0
LINE
  8
0
  6
CONTINUOUS
 62
     7
  5
47
 10
102.36616
 20
166.180402
 30
0.0
 11
94.36616
 21
166.180402
 31
0.0
  0
LINE
  8
0
  6
CONTINUOUS
 62
     7
  5
48
 10
94.36616
 20
141.180402
 30
0.0
 11
102.36616
 21
141.180402
 31
0.0
  0
LINE
  8
0
  6
CONTINUOUS
 62
     7
  5
49
 10
271.36616
 20
141.180402
 30
0.0
 11
366.36616
 21
141.180402
 31
0.0
  0
LINE
  8
0
  6
CONTINUOUS
 62
     7
  5
4A
 10
369.36616
 20
145.680402
 30
0.0
 11
379.36616
 21
145.680402
 31
0.0
  0
LINE
  8
0
  6
CONTINUOUS
 62
     7
  5
4B
 10
379.36616
 20
161.680402
 30
0.0
 11
369.36616
 21
161.680402
 31
0.0
  0
LINE
  8
0
  6
CONTINUOUS
 62
     7
  5
4C
 10
197.36616
 20
196.180402
 30
0.0
 11
197.36616
 21
198.680402
 31
0.0
  0
LINE
  8
0
  6
CONTINUOUS
 62
     7
  5
4D
 10
155.36616
 20
198.680402
 30
0.0
 11
155.36616
 21
196.180402
 31
0.0
  0
ENDBLK
  8
0
  5
4E
  0
BLOCK
  8
0
  5
51
  2
AID101
 70
     0
 10
0.0
 20
0.0
 30
0.0
  3
#auxiliary draft view
  0
LINE
  8
0
  6
CONTINUOUS
 62
     7
  5
52
 10
-177.184134
 20
149.680402
 30
0.0
 11
-179.493535
 21
153.680402
 31
0.0
  0
LINE
  8
0
  6
CONTINUOUS
 62
     7
  5
53
 10
-172.565332
 20
149.680402
 30
0.0
 11
-177.184134
 21
149.680402
 31
0.0
  0
LINE
  8
0
  6
CONTINUOUS
 62
     7
  5
54
 10
-170.255931
 20
153.680402
 30
0.0
 11
-172.565332
 21
149.680402
 31
0.0
  0
LINE
  8
0
  6
CONTINUOUS
 62
     7
  5
55
 10
-177.184134
 20
157.680402
 30
0.0
 11
-172.565332
 21
157.680402
 31
0.0
  0
LINE
  8
0
  6
CONTINUOUS
 62
     7
  5
56
 10
-179.493535
 20
153.680402
 30
0.0
 11
-177.184134
 21
157.680402
 31
0.0
  0
CIRCLE
  8
0
  6
CONTINUOUS
 62
     7
  5
57
 10
-174.874733
 20
153.680402
 30
0.0
 40
8.0
210
0.0
220
0.0
230
1.0
  0
LINE
  8
0
  6
CONTINUOUS
 62
     7
  5
58
 10
-172.565332
 20
157.680402
 30
0.0
 11
-170.255931
 21
153.680402
 31
0.0
  0
LINE
  8
0
  6
CONTINUOUS
 62
     7
  5
59
 10
-38.255931
 20
153.680402
 30
0.0
 11
-40.565332
 21
149.680402
 31
0.0
  0
LINE
  8
0
  6
CONTINUOUS
 62
     7
  5
5A
 10
-45.184134
 20
157.680402
 30
0.0
 11
-40.565332
 21
157.680402
 31
0.0
  0
LINE
  8
0
  6
CONTINUOUS
 62
     7
  5
5B
 10
-47.493535
 20
153.680402
 30
0.0
 11
-45.184134
 21
157.680402
 31
0.0
  0
LINE
  8
0
  6
CONTINUOUS
 62
     7
  5
5C
 10
-45.184134
 20
149.680402
 30
0.0
 11
-47.493535
 21
153.680402
 31
0.0
  0
LINE
  8
0
  6
CONTINUOUS
 62
     7
  5
5D
 10
-40.565332
 20
149.680402
 30
0.0
 11
-45.184134
 21
149.680402
 31
0.0
  0
CIRCLE
  8
0
  6
CONTINUOUS
 62
     7
  5
5E
 10
-42.874733
 20
153.680402
 30
0.0
 40
8.0
210
0.0
220
0.0
230
1.0
  0
LINE
  8
0
  6
CONTINUOUS
 62
     7
  5
5F
 10
-40.565332
 20
157.680402
 30
0.0
 11
-38.255931
 21
153.680402
 31
0.0
  0
CIRCLE
  8
0
  6
CONTINUOUS
 62
     7
  5
60
 10
-42.874733
 20
153.680402
 30
0.0
 40
18.0
210
0.0
220
0.0
230
1.0
  0
CIRCLE
  8
0
  6
CONTINUOUS
 62
     7
  5
61
 10
-42.874733
 20
153.680402
 30
0.0
 40
19.0
210
0.0
220
0.0
230
1.0
  0
CIRCLE
  8
0
  6
CONTINUOUS
 62
     7
  5
62
 10
-174.874733
 20
153.680402
 30
0.0
 40
18.0
210
0.0
220
0.0
230
1.0
  0
CIRCLE
  8
0
  6
CONTINUOUS
 62
     7
  5
63
 10
-174.874733
 20
153.680402
 30
0.0
 40
19.0
210
0.0
220
0.0
230
1.0
  0
CIRCLE
  8
0
  6
CONTINUOUS
 62
     7
  5
64
 10
-108.874733
 20
153.680402
 30
0.0
 40
4.6
210
0.0
220
0.0
230
1.0
  0
CIRCLE
  8
0
  6
CONTINUOUS
 62
     7
  5
65
 10
-108.874733
 20
153.680402
 30
0.0
 40
5.0
210
0.0
220
0.0
230
1.0
  0
CIRCLE
  8
0
  6
CONTINUOUS
 62
     7
  5
66
 10
-108.874733
 20
153.680402
 30
0.0
 40
10.5
210
0.0
220
0.0
230
1.0
  0
LINE
  8
0
  6
CONTINUOUS
 62
     7
  5
67
 10
-74.074733
 20
154.930402
 30
0.0
 11
-84.807172
 21
154.930402
 31
0.0
  0
ARC
  8
0
  6
CONTINUOUS
 62
     7
  5
68
 10
-108.874733
 20
153.680402
 30
0.0
 40
24.1
 50
2.973107
 51
68.232468
210
0.0
220
0.0
230
0.9999999999999999
  0
ARC
  8
0
  6
CONTINUOUS
 62
     7
  5
69
 10
-107.574733
 20
173.680402
 30
0.0
 40
8.0
 50
17.319336
 51
90.0
210
0.0
220
0.0
230
1.0
  0
LINE
  8
0
  6
CONTINUOUS
 62
     7
  5
6A
 10
-107.574733
 20
181.680402
 30
0.0
 11
-110.174733
 21
181.680402
 31
0.0
  0
ARC
  8
0
  6
CONTINUOUS
 62
     7
  5
6B
 10
-108.874733
 20
153.680402
 30
0.0
 40
24.1
 50
111.767532
 51
248.232468
210
0.0
220
0.0
230
1.0
  0
ARC
  8
0
  6
CONTINUOUS
 62
     7
  5
6C
 10
-110.174733
 20
133.680402
 30
0.0
 40
8.0
 50
197.319336
 51
270.0
210
0.0
220
0.0
230
1.0
  0
LINE
  8
0
  6
CONTINUOUS
 62
     7
  5
6D
 10
-143.674733
 20
186.180402
 30
0.0
 11
-143.674733
 21
121.180402
 31
0.0
  0
LINE
  8
0
  6
CONTINUOUS
 62
     7
  5
6E
 10
-74.074733
 20
121.180402
 30
0.0
 11
-74.074733
 21
152.430402
 31
0.0
  0
LINE
  8
0
  6
CONTINUOUS
 62
     7
  5
6F
 10
-74.074733
 20
154.930402
 30
0.0
 11
-74.074733
 21
186.180402
 31
0.0
  0
LINE
  8
0
  6
CONTINUOUS
 62
     7
  5
70
 10
-84.807172
 20
152.430402
 30
0.0
 11
-74.074733
 21
152.430402
 31
0.0
  0
ARC
  8
0
  6
CONTINUOUS
 62
     7
  5
71
 10
-110.174733
 20
173.680402
 30
0.0
 40
8.0
 50
90.0
 51
162.680664
210
0.0
220
0.0
230
1.0
  0
ARC
  8
0
  6
CONTINUOUS
 62
     7
  5
72
 10
-107.574733
 20
133.680402
 30
0.0
 40
8.0
 50
270.0
 51
342.680664
210
0.0
220
0.0
230
1.0
  0
LINE
  8
0
  6
CONTINUOUS
 62
     7
  5
73
 10
-107.574733
 20
125.680402
 30
0.0
 11
-110.174733
 21
125.680402
 31
0.0
  0
LINE
  8
0
  6
CONTINUOUS
 62
     7
  5
74
 10
-143.674733
 20
121.180402
 30
0.0
 11
-74.074733
 21
121.180402
 31
0.0
  0
LINE
  8
0
  6
CONTINUOUS
 62
     7
  5
75
 10
-74.074733
 20
186.180402
 30
0.0
 11
-143.674733
 21
186.180402
 31
0.0
  0
ARC
  8
0
  6
CONTINUOUS
 62
     7
  5
76
 10
-108.874733
 20
153.680402
 30
0.0
 40
24.1
 50
291.767532
 51
357.026893
210
0.0
220
0.0
230
1.0
  0
LINE
  8
0
  6
CONTINUOUS
 62
     7
  5
77
 10
-100.874733
 20
129.308904
 30
0.0
 11
-100.874733
 21
130.946947
 31
0.0
  0
ARC
  8
0
  6
CONTINUOUS
 62
     7
  5
78
 10
-108.874733
 20
153.680402
 30
0.0
 40
24.1
 50
289.387188
 51
291.767532
210
0.0
220
0.0
230
1.0
  0
LINE
  8
0
  6
CONTINUOUS
 62
     7
  5
79
 10
-116.874733
 20
130.946947
 30
0.0
 11
-116.874733
 21
129.308904
 31
0.0
  0
ARC
  8
0
  6
CONTINUOUS
 62
     7
  5
7A
 10
-108.874733
 20
153.680402
 30
0.0
 40
24.1
 50
248.232468
 51
250.612812
210
0.0
220
0.0
230
1.0
  0
LINE
  8
0
  6
CONTINUOUS
 62
     7
  5
7B
 10
-116.874733
 20
178.051901
 30
0.0
 11
-116.874733
 21
176.413858
 31
0.0
  0
ARC
  8
0
  6
CONTINUOUS
 62
     7
  5
7C
 10
-108.874733
 20
153.680402
 30
0.0
 40
24.1
 50
109.387188
 51
111.767532
210
0.0
220
0.0
230
1.0
  0
LINE
  8
0
  6
CONTINUOUS
 62
     7
  5
7D
 10
-100.874733
 20
176.413858
 30
0.0
 11
-100.874733
 21
178.051901
 31
0.0
  0
ARC
  8
0
  6
CONTINUOUS
 62
     7
  5
7E
 10
-108.874733
 20
153.680402
 30
0.0
 40
24.1
 50
68.232468
 51
70.612812
210
0.0
220
0.0
230
1.0
  0
LINE
  8
0
  6
CONTINUOUS
 62
     7
  5
7F
 10
-19.874733
 20
196.180402
 30
0.0
 11
-19.874733
 21
111.180402
 31
0.0
  0
LINE
  8
0
  6
CONTINUOUS
 62
     7
  5
80
 10
-65.874733
 20
196.180402
 30
0.0
 11
-65.874733
 21
111.180402
 31
0.0
  0
LINE
  8
0
  6
CONTINUOUS
 62
     7
  5
81
 10
-19.874733
 20
111.180402
 30
0.0
 11
-65.874733
 21
111.180402
 31
0.0
  0
LINE
  8
0
  6
CONTINUOUS
 62
     7
  5
82
 10
-19.874733
 20
196.180402
 30
0.0
 11
-65.874733
 21
196.180402
 31
0.0
  0
LINE
  8
0
  6
CONTINUOUS
 62
     7
  5
83
 10
-197.874733
 20
196.180402
 30
0.0
 11
-197.874733
 21
111.180402
 31
0.0
  0
LINE
  8
0
  6
CONTINUOUS
 62
     7
  5
84
 10
-151.874733
 20
196.180402
 30
0.0
 11
-151.874733
 21
111.180402
 31
0.0
  0
LINE
  8
0
  6
CONTINUOUS
 62
     7
  5
85
 10
-151.874733
 20
111.180402
 30
0.0
 11
-197.874733
 21
111.180402
 31
0.0
  0
LINE
  8
0
  6
CONTINUOUS
 62
     7
  5
86
 10
-151.874733
 20
196.180402
 30
0.0
 11
-197.874733
 21
196.180402
 31
0.0
  0
LINE
  8
0
  6
CONTINUOUS
 62
     7
  5
87
 10
-153.874733
 20
198.680402
 30
0.0
 11
-174.874733
 21
198.680402
 31
0.0
  0
LINE
  8
0
  6
CONTINUOUS
 62
     7
  5
88
 10
-174.874733
 20
198.680402
 30
0.0
 11
-195.874733
 21
198.680402
 31
0.0
  0
LINE
  8
0
  6
CONTINUOUS
 62
     7
  5
89
 10
-65.874733
 20
111.180402
 30
0.0
 11
-151.874733
 21
111.180402
 31
0.0
  0
LINE
  8
0
  6
CONTINUOUS
 62
     7
  5
8A
 10
-65.874733
 20
196.180402
 30
0.0
 11
-151.874733
 21
196.180402
 31
0.0
  0
ARC
  8
0
  6
CONTINUOUS
 62
     7
  5
8B
 10
-108.874733
 20
153.680402
 30
0.0
 40
27.5
 50
79.211081
 51
100.788919
210
0.0
220
0.0
230
1.0
  0
ARC
  8
0
  6
CONTINUOUS
 62
     7
  5
8C
 10
-108.874733
 20
153.680402
 30
0.0
 40
27.5
 50
259.211081
 51
280.788919
210
0.0
220
0.0
230
1.0
  0
LINE
  8
0
  6
CONTINUOUS
 62
     7
  5
8D
 10
-83.374733
 20
154.930402
 30
0.0
 11
-83.374733
 21
152.430402
 31
0.0
  0
LINE
  8
0
  6
CONTINUOUS
 62
     7
  5
8E
 10
-77.374733
 20
152.430402
 30
0.0
 11
-77.374733
 21
154.930402
 31
0.0
  0
LINE
  8
0
  6
CONTINUOUS
 62
     7
  5
8F
 10
-153.874733
 20
196.180402
 30
0.0
 11
-153.874733
 21
198.680402
 31
0.0
  0
LINE
  8
0
  6
CONTINUOUS
 62
     7
  5
90
 10
-195.874733
 20
198.680402
 30
0.0
 11
-195.874733
 21
196.180402
 31
0.0
  0
ENDBLK
  8
0
  5
91
  0
BLOCK
  8
0
  5
94
  2
AID231
 70
     0
 10
0.0
 20
0.0
 30
0.0
  3
#auxiliary draft view
  0
LINE
  8
0
  6
CONTINUOUS
 62
     7
  5
95
 10
65.36616
 20
278.942175
 30
0.0
 11
94.36616
 21
278.942175
 31
0.0
  0
LINE
  8
0
  6
CONTINUOUS
 62
     7
  5
96
 10
94.36616
 20
278.942175
 30
0.0
 11
94.36616
 21
450.942175
 31
0.0
  0
LINE
  8
0
  6
CONTINUOUS
 62
     7
  5
97
 10
65.36616
 20
278.942175
 30
0.0
 11
65.36616
 21
450.942175
 31
0.0
  0
LINE
  8
0
  6
CONTINUOUS
 62
     7
  5
98
 10
65.36616
 20
450.942175
 30
0.0
 11
94.36616
 21
450.942175
 31
0.0
  0
LINE
  8
0
  6
CONTINUOUS
 62
     7
  5
99
 10
368.36616
 20
411.942175
 30
0.0
 11
368.36616
 21
449.942175
 31
0.0
  0
LINE
  8
0
  6
CONTINUOUS
 62
     7
  5
9A
 10
369.36616
 20
448.942175
 30
0.0
 11
369.36616
 21
412.942175
 31
0.0
  0
LINE
  8
0
  6
CONTINUOUS
 62
     7
  5
9B
 10
368.36616
 20
279.942175
 30
0.0
 11
368.36616
 21
317.942175
 31
0.0
  0
LINE
  8
0
  6
CONTINUOUS
 62
     7
  5
9C
 10
366.36616
 20
317.942175
 30
0.0
 11
366.36616
 21
279.942175
 31
0.0
  0
LINE
  8
0
  6
CONTINUOUS
 62
     7
  5
9D
 10
369.36616
 20
316.942175
 30
0.0
 11
369.36616
 21
280.942175
 31
0.0
  0
LINE
  8
0
  6
CONTINUOUS
 62
     7
  5
9E
 10
366.36616
 20
449.942175
 30
0.0
 11
366.36616
 21
411.942175
 31
0.0
  0
LINE
  8
0
  6
CONTINUOUS
 62
     7
  5
9F
 10
100.86616
 20
375.442175
 30
0.0
 11
100.86616
 21
354.442175
 31
0.0
  0
LINE
  8
0
  6
CONTINUOUS
 62
     7
  5
A0
 10
379.36616
 20
290.942175
 30
0.0
 11
379.36616
 21
306.942175
 31
0.0
  0
LINE
  8
0
  6
CONTINUOUS
 62
     7
  5
A1
 10
379.36616
 20
422.942175
 30
0.0
 11
379.36616
 21
438.942175
 31
0.0
  0
LINE
  8
0
  6
CONTINUOUS
 62
     7
  5
A2
 10
111.46616
 20
359.942175
 30
0.0
 11
111.46616
 21
369.942175
 31
0.0
  0
LINE
  8
0
  6
CONTINUOUS
 62
     7
  5
A3
 10
111.86616
 20
360.342175
 30
0.0
 11
111.86616
 21
369.542175
 31
0.0
  0
CIRCLE
  8
0
  6
CONTINUOUS
 62
     7
  5
A4
 10
222.36616
 20
429.942175
 30
0.0
 40
5.053
210
0.0
220
0.0
230
1.0
  0
CIRCLE
  8
0
  6
CONTINUOUS
 62
     7
  5
A5
 10
222.36616
 20
429.942175
 30
0.0
 40
6.0
210
0.0
220
0.0
230
1.0
  0
CIRCLE
  8
0
  6
CONTINUOUS
 62
     7
  5
A6
 10
222.36616
 20
299.942175
 30
0.0
 40
5.053
210
0.0
220
0.0
230
1.0
  0
CIRCLE
  8
0
  6
CONTINUOUS
 62
     7
  5
A7
 10
222.36616
 20
299.942175
 30
0.0
 40
6.0
210
0.0
220
0.0
230
1.0
  0
CIRCLE
  8
0
  6
CONTINUOUS
 62
     7
  5
A8
 10
150.36616
 20
429.942175
 30
0.0
 40
6.0
210
0.0
220
0.0
230
1.0
  0
CIRCLE
  8
0
  6
CONTINUOUS
 62
     7
  5
A9
 10
150.36616
 20
299.942175
 30
0.0
 40
6.0
210
0.0
220
0.0
230
1.0
  0
CIRCLE
  8
0
  6
CONTINUOUS
 62
     7
  5
AA
 10
186.36616
 20
429.942175
 30
0.0
 40
5.0
210
0.0
220
0.0
230
1.0
  0
CIRCLE
  8
0
  6
CONTINUOUS
 62
     7
  5
AB
 10
186.36616
 20
299.942175
 30
0.0
 40
5.0
210
0.0
220
0.0
230
1.0
  0
LINE
  8
0
  6
CONTINUOUS
 62
     7
  5
AC
 10
271.36616
 20
453.942175
 30
0.0
 11
102.36616
 21
453.942175
 31
0.0
  0
LINE
  8
0
  6
CONTINUOUS
 62
     7
  5
AD
 10
271.36616
 20
407.942175
 30
0.0
 11
271.36616
 21
453.942175
 31
0.0
  0
LINE
  8
0
  6
CONTINUOUS
 62
     7
  5
AE
 10
176.36616
 20
321.942175
 30
0.0
 11
176.36616
 21
407.942175
 31
0.0
  0
LINE
  8
0
  6
CONTINUOUS
 62
     7
  5
AF
 10
271.36616
 20
275.942175
 30
0.0
 11
271.36616
 21
321.942175
 31
0.0
  0
LINE
  8
0
  6
CONTINUOUS
 62
     7
  5
B0
 10
102.36616
 20
275.942175
 30
0.0
 11
271.36616
 21
275.942175
 31
0.0
  0
LINE
  8
0
  6
CONTINUOUS
 62
     7
  5
B1
 10
102.36616
 20
324.692175
 30
0.0
 11
102.36616
 21
275.942175
 31
0.0
  0
LINE
  8
0
  6
CONTINUOUS
 62
     7
  5
B2
 10
132.86616
 20
324.692175
 30
0.0
 11
102.36616
 21
324.692175
 31
0.0
  0
ARC
  8
0
  6
CONTINUOUS
 62
     7
  5
B3
 10
132.86616
 20
327.692175
 30
0.0
 40
3.0
 50
270.0
 51
360.0
210
0.0
220
0.0
230
1.0
  0
LINE
  8
0
  6
CONTINUOUS
 62
     7
  5
B4
 10
135.86616
 20
402.192175
 30
0.0
 11
135.86616
 21
327.692175
 31
0.0
  0
ARC
  8
0
  6
CONTINUOUS
 62
     7
  5
B5
 10
132.86616
 20
402.192175
 30
0.0
 40
3.0
 50
360.0
 51
90.0
210
0.0
220
0.0
230
1.0
  0
LINE
  8
0
  6
CONTINUOUS
 62
     7
  5
B6
 10
102.36616
 20
405.192175
 30
0.0
 11
132.86616
 21
405.192175
 31
0.0
  0
LINE
  8
0
  6
CONTINUOUS
 62
     7
  5
B7
 10
102.36616
 20
453.942175
 30
0.0
 11
102.36616
 21
405.192175
 31
0.0
  0
LINE
  8
0
  6
CONTINUOUS
 62
     7
  5
B8
 10
271.36616
 20
321.942175
 30
0.0
 11
176.36616
 21
321.942175
 31
0.0
  0
LINE
  8
0
  6
CONTINUOUS
 62
     7
  5
B9
 10
176.36616
 20
407.942175
 30
0.0
 11
271.36616
 21
407.942175
 31
0.0
  0
CIRCLE
  8
0
  6
CONTINUOUS
 62
     7
  5
BA
 10
150.36616
 20
299.942175
 30
0.0
 40
5.053
210
0.0
220
0.0
230
1.0
  0
CIRCLE
  8
0
  6
CONTINUOUS
 62
     7
  5
BB
 10
150.36616
 20
429.942175
 30
0.0
 40
5.053
210
0.0
220
0.0
230
1.0
  0
ARC
  8
0
  6
CONTINUOUS
 62
     7
  5
BC
 10
199.86616
 20
364.942175
 30
0.0
 40
8.0
 50
90.0
 51
270.0
210
0.0
220
0.0
230
1.0
  0
LINE
  8
0
  6
CONTINUOUS
 62
     7
  5
BD
 10
199.86616
 20
356.942175
 30
0.0
 11
272.86616
 21
356.942175
 31
0.0
  0
ARC
  8
0
  6
CONTINUOUS
 62
     7
  5
BE
 10
272.86616
 20
364.942175
 30
0.0
 40
8.0
 50
270.0
 51
90.0
210
0.0
220
0.0
230
1.0
  0
LINE
  8
0
  6
CONTINUOUS
 62
     7
  5
BF
 10
272.86616
 20
372.942175
 30
0.0
 11
199.86616
 21
372.942175
 31
0.0
  0
LINE
  8
0
  6
CONTINUOUS
 62
     7
  5
C0
 10
296.36616
 20
399.742175
 30
0.0
 11
176.36616
 21
399.742175
 31
0.0
  0
LINE
  8
0
  6
CONTINUOUS
 62
     7
  5
C1
 10
296.36616
 20
399.742175
 30
0.0
 11
296.36616
 21
330.142175
 31
0.0
  0
LINE
  8
0
  6
CONTINUOUS
 62
     7
  5
C2
 10
296.36616
 20
330.142175
 30
0.0
 11
176.36616
 21
330.142175
 31
0.0
  0
LINE
  8
0
  6
CONTINUOUS
 62
     7
  5
C3
 10
127.86616
 20
394.692175
 30
0.0
 11
127.86616
 21
381.692175
 31
0.0
  0
LINE
  8
0
  6
CONTINUOUS
 62
     7
  5
C4
 10
127.86616
 20
348.192175
 30
0.0
 11
127.86616
 21
335.192175
 31
0.0
  0
LINE
  8
0
  6
CONTINUOUS
 62
     7
  5
C5
 10
368.36616
 20
411.942175
 30
0.0
 11
369.36616
 21
412.942175
 31
0.0
  0
LINE
  8
0
  6
CONTINUOUS
 62
     7
  5
C6
 10
369.36616
 20
448.942175
 30
0.0
 11
368.36616
 21
449.942175
 31
0.0
  0
LINE
  8
0
  6
CONTINUOUS
 62
     7
  5
C7
 10
368.36616
 20
317.942175
 30
0.0
 11
366.36616
 21
317.942175
 31
0.0
  0
LINE
  8
0
  6
CONTINUOUS
 62
     7
  5
C8
 10
366.36616
 20
279.942175
 30
0.0
 11
368.36616
 21
279.942175
 31
0.0
  0
LINE
  8
0
  6
CONTINUOUS
 62
     7
  5
C9
 10
368.36616
 20
279.942175
 30
0.0
 11
369.36616
 21
280.942175
 31
0.0
  0
LINE
  8
0
  6
CONTINUOUS
 62
     7
  5
CA
 10
369.36616
 20
316.942175
 30
0.0
 11
368.36616
 21
317.942175
 31
0.0
  0
LINE
  8
0
  6
CONTINUOUS
 62
     7
  5
CB
 10
368.36616
 20
449.942175
 30
0.0
 11
366.36616
 21
449.942175
 31
0.0
  0
LINE
  8
0
  6
CONTINUOUS
 62
     7
  5
CC
 10
366.36616
 20
411.942175
 30
0.0
 11
368.36616
 21
411.942175
 31
0.0
  0
LINE
  8
0
  6
CONTINUOUS
 62
     7
  5
CD
 10
366.36616
 20
443.442175
 30
0.0
 11
271.36616
 21
443.442175
 31
0.0
  0
LINE
  8
0
  6
CONTINUOUS
 62
     7
  5
CE
 10
102.36616
 20
443.442175
 30
0.0
 11
94.36616
 21
443.442175
 31
0.0
  0
LINE
  8
0
  6
CONTINUOUS
 62
     7
  5
CF
 10
94.36616
 20
418.442175
 30
0.0
 11
102.36616
 21
418.442175
 31
0.0
  0
LINE
  8
0
  6
CONTINUOUS
 62
     7
  5
D0
 10
271.36616
 20
418.442175
 30
0.0
 11
366.36616
 21
418.442175
 31
0.0
  0
LINE
  8
0
  6
CONTINUOUS
 62
     7
  5
D1
 10
366.36616
 20
311.442175
 30
0.0
 11
271.36616
 21
311.442175
 31
0.0
  0
LINE
  8
0
  6
CONTINUOUS
 62
     7
  5
D2
 10
102.36616
 20
311.442175
 30
0.0
 11
94.36616
 21
311.442175
 31
0.0
  0
LINE
  8
0
  6
CONTINUOUS
 62
     7
  5
D3
 10
94.36616
 20
286.442175
 30
0.0
 11
102.36616
 21
286.442175
 31
0.0
  0
LINE
  8
0
  6
CONTINUOUS
 62
     7
  5
D4
 10
271.36616
 20
286.442175
 30
0.0
 11
366.36616
 21
286.442175
 31
0.0
  0
LINE
  8
0
  6
CONTINUOUS
 62
     7
  5
D5
 10
100.86616
 20
375.442175
 30
0.0
 11
94.36616
 21
375.442175
 31
0.0
  0
LINE
  8
0
  6
CONTINUOUS
 62
     7
  5
D6
 10
94.36616
 20
354.442175
 30
0.0
 11
100.86616
 21
354.442175
 31
0.0
  0
LINE
  8
0
  6
CONTINUOUS
 62
     7
  5
D7
 10
369.36616
 20
290.942175
 30
0.0
 11
379.36616
 21
290.942175
 31
0.0
  0
LINE
  8
0
  6
CONTINUOUS
 62
     7
  5
D8
 10
379.36616
 20
306.942175
 30
0.0
 11
369.36616
 21
306.942175
 31
0.0
  0
LINE
  8
0
  6
CONTINUOUS
 62
     7
  5
D9
 10
369.36616
 20
422.942175
 30
0.0
 11
379.36616
 21
422.942175
 31
0.0
  0
LINE
  8
0
  6
CONTINUOUS
 62
     7
  5
DA
 10
379.36616
 20
438.942175
 30
0.0
 11
369.36616
 21
438.942175
 31
0.0
  0
LINE
  8
0
  6
CONTINUOUS
 62
     7
  5
DB
 10
111.46616
 20
369.942175
 30
0.0
 11
100.86616
 21
369.942175
 31
0.0
  0
LINE
  8
0
  6
CONTINUOUS
 62
     7
  5
DC
 10
100.86616
 20
359.942175
 30
0.0
 11
111.46616
 21
359.942175
 31
0.0
  0
LINE
  8
0
  6
CONTINUOUS
 62
     7
  5
DD
 10
111.46616
 20
359.942175
 30
0.0
 11
111.86616
 21
360.342175
 31
0.0
  0
LINE
  8
0
  6
CONTINUOUS
 62
     7
  5
DE
 10
111.86616
 20
369.542175
 30
0.0
 11
111.46616
 21
369.942175
 31
0.0
  0
LINE
  8
0
  6
CONTINUOUS
 62
     7
  5
DF
 10
135.86616
 20
394.692175
 30
0.0
 11
127.86616
 21
394.692175
 31
0.0
  0
LINE
  8
0
  6
CONTINUOUS
 62
     7
  5
E0
 10
127.86616
 20
381.692175
 30
0.0
 11
135.86616
 21
381.692175
 31
0.0
  0
LINE
  8
0
  6
CONTINUOUS
 62
     7
  5
E1
 10
135.86616
 20
348.192175
 30
0.0
 11
127.86616
 21
348.192175
 31
0.0
  0
LINE
  8
0
  6
CONTINUOUS
 62
     7
  5
E2
 10
127.86616
 20
335.192175
 30
0.0
 11
135.86616
 21
335.192175
 31
0.0
  0
ENDBLK
  8
0
  5
E3
  0
BLOCK
  8
0
  5
E6
  2
AID391
 70
     0
 10
0.0
 20
0.0
 30
0.0
  3
#auxiliary draft view
  0
LINE
  8
0
  6
CONTINUOUS
 62
     7
  5
E7
 10
65.36616
 20
30.036402
 30
0.0
 11
94.36616
 21
30.036402
 31
0.0
  0
LINE
  8
0
  6
CONTINUOUS
 62
     7
  5
E8
 10
94.36616
 20
-141.963598
 30
0.0
 11
94.36616
 21
30.036402
 31
0.0
  0
LINE
  8
0
  6
CONTINUOUS
 62
     7
  5
E9
 10
65.36616
 20
-141.963598
 30
0.0
 11
65.36616
 21
30.036402
 31
0.0
  0
LINE
  8
0
  6
CONTINUOUS
 62
     7
  5
EA
 10
65.36616
 20
-141.963598
 30
0.0
 11
94.36616
 21
-141.963598
 31
0.0
  0
LINE
  8
0
  6
CONTINUOUS
 62
     7
  5
EB
 10
368.36616
 20
-140.963598
 30
0.0
 11
368.36616
 21
-121.963598
 31
0.0
  0
LINE
  8
0
  6
CONTINUOUS
 62
     7
  5
EC
 10
366.36616
 20
-102.963598
 30
0.0
 11
366.36616
 21
-121.963598
 31
0.0
  0
LINE
  8
0
  6
CONTINUOUS
 62
     7
  5
ED
 10
368.36616
 20
-121.963598
 30
0.0
 11
368.36616
 21
-102.963598
 31
0.0
  0
LINE
  8
0
  6
CONTINUOUS
 62
     7
  5
EE
 10
366.36616
 20
-121.963598
 30
0.0
 11
366.36616
 21
-140.963598
 31
0.0
  0
LINE
  8
0
  6
CONTINUOUS
 62
     7
  5
EF
 10
369.36616
 20
-103.963598
 30
0.0
 11
369.36616
 21
-139.963598
 31
0.0
  0
LINE
  8
0
  6
CONTINUOUS
 62
     7
  5
F0
 10
368.36616
 20
-8.963598
 30
0.0
 11
368.36616
 21
10.036402
 31
0.0
  0
LINE
  8
0
  6
CONTINUOUS
 62
     7
  5
F1
 10
366.36616
 20
29.036402
 30
0.0
 11
366.36616
 21
10.036402
 31
0.0
  0
LINE
  8
0
  6
CONTINUOUS
 62
     7
  5
F2
 10
368.36616
 20
10.036402
 30
0.0
 11
368.36616
 21
29.036402
 31
0.0
  0
LINE
  8
0
  6
CONTINUOUS
 62
     7
  5
F3
 10
366.36616
 20
10.036402
 30
0.0
 11
366.36616
 21
-8.963598
 31
0.0
  0
LINE
  8
0
  6
CONTINUOUS
 62
     7
  5
F4
 10
369.36616
 20
28.036402
 30
0.0
 11
369.36616
 21
-7.963598
 31
0.0
  0
LINE
  8
0
  6
CONTINUOUS
 62
     7
  5
F5
 10
100.86616
 20
-45.463598
 30
0.0
 11
100.86616
 21
-66.463598
 31
0.0
  0
LINE
  8
0
  6
CONTINUOUS
 62
     7
  5
F6
 10
379.36616
 20
-129.963598
 30
0.0
 11
379.36616
 21
-121.963598
 31
0.0
  0
LINE
  8
0
  6
CONTINUOUS
 62
     7
  5
F7
 10
379.36616
 20
-121.963598
 30
0.0
 11
379.36616
 21
-113.963598
 31
0.0
  0
LINE
  8
0
  6
CONTINUOUS
 62
     7
  5
F8
 10
379.36616
 20
2.036402
 30
0.0
 11
379.36616
 21
10.036402
 31
0.0
  0
LINE
  8
0
  6
CONTINUOUS
 62
     7
  5
F9
 10
379.36616
 20
10.036402
 30
0.0
 11
379.36616
 21
18.036402
 31
0.0
  0
LINE
  8
0
  6
CONTINUOUS
 62
     7
  5
FA
 10
111.46616
 20
-60.963598
 30
0.0
 11
111.46616
 21
-50.963598
 31
0.0
  0
LINE
  8
0
  6
CONTINUOUS
 62
     7
  5
FB
 10
111.86616
 20
-60.563598
 30
0.0
 11
111.86616
 21
-51.363598
 31
0.0
  0
CIRCLE
  8
0
  6
CONTINUOUS
 62
     7
  5
FC
 10
176.36616
 20
-121.963598
 30
0.0
 40
21.0
210
0.0
220
0.0
230
1.0
  0
LINE
  8
0
  6
CONTINUOUS
 62
     7
  5
FD
 10
102.36616
 20
-96.213598
 30
0.0
 11
132.86616
 21
-96.213598
 31
0.0
  0
ARC
  8
0
  6
CONTINUOUS
 62
     7
  5
FE
 10
132.86616
 20
-93.213598
 30
0.0
 40
3.0
 50
270.0
 51
360.0
210
0.0
220
0.0
230
1.0
  0
LINE
  8
0
  6
CONTINUOUS
 62
     7
  5
FF
 10
135.86616
 20
-93.213598
 30
0.0
 11
135.86616
 21
-18.713598
 31
0.0
  0
ARC
  8
0
  6
CONTINUOUS
 62
     7
  5
100
 10
132.86616
 20
-18.713598
 30
0.0
 40
3.0
 50
360.0
 51
90.0
210
0.0
220
0.0
230
1.0
  0
LINE
  8
0
  6
CONTINUOUS
 62
     7
  5
101
 10
132.86616
 20
-15.713598
 30
0.0
 11
102.36616
 21
-15.713598
 31
0.0
  0
LINE
  8
0
  6
CONTINUOUS
 62
     7
  5
102
 10
102.36616
 20
-15.713598
 30
0.0
 11
102.36616
 21
33.036402
 31
0.0
  0
LINE
  8
0
  6
CONTINUOUS
 62
     7
  5
103
 10
102.36616
 20
33.036402
 30
0.0
 11
271.36616
 21
33.036402
 31
0.0
  0
LINE
  8
0
  6
CONTINUOUS
 62
     7
  5
104
 10
271.36616
 20
33.036402
 30
0.0
 11
271.36616
 21
-12.963598
 31
0.0
  0
LINE
  8
0
  6
CONTINUOUS
 62
     7
  5
105
 10
271.36616
 20
-12.963598
 30
0.0
 11
176.36616
 21
-12.963598
 31
0.0
  0
LINE
  8
0
  6
CONTINUOUS
 62
     7
  5
106
 10
176.36616
 20
-12.963598
 30
0.0
 11
176.36616
 21
-98.963598
 31
0.0
  0
LINE
  8
0
  6
CONTINUOUS
 62
     7
  5
107
 10
176.36616
 20
-98.963598
 30
0.0
 11
271.36616
 21
-98.963598
 31
0.0
  0
LINE
  8
0
  6
CONTINUOUS
 62
     7
  5
108
 10
271.36616
 20
-144.963598
 30
0.0
 11
102.36616
 21
-144.963598
 31
0.0
  0
LINE
  8
0
  6
CONTINUOUS
 62
     7
  5
109
 10
271.36616
 20
-98.963598
 30
0.0
 11
271.36616
 21
-144.963598
 31
0.0
  0
LINE
  8
0
  6
CONTINUOUS
 62
     7
  5
10A
 10
102.36616
 20
-144.963598
 30
0.0
 11
102.36616
 21
-96.213598
 31
0.0
  0
ARC
  8
0
  6
CONTINUOUS
 62
     7
  5
10B
 10
199.86616
 20
-55.963598
 30
0.0
 40
8.0
 50
90.0
 51
270.0
210
0.0
220
0.0
230
1.0
  0
LINE
  8
0
  6
CONTINUOUS
 62
     7
  5
10C
 10
272.86616
 20
-63.963598
 30
0.0
 11
199.86616
 21
-63.963598
 31
0.0
  0
ARC
  8
0
  6
CONTINUOUS
 62
     7
  5
10D
 10
272.86616
 20
-55.963598
 30
0.0
 40
8.0
 50
270.0
 51
90.0
210
0.0
220
0.0
230
1.0
  0
LINE
  8
0
  6
CONTINUOUS
 62
     7
  5
10E
 10
199.86616
 20
-47.963598
 30
0.0
 11
272.86616
 21
-47.963598
 31
0.0
  0
CIRCLE
  8
0
  6
CONTINUOUS
 62
     7
  5
10F
 10
281.36616
 20
-27.463598
 30
0.0
 40
5.5
210
0.0
220
0.0
230
1.0
  0
CIRCLE
  8
0
  6
CONTINUOUS
 62
     7
  5
110
 10
236.36616
 20
-27.463598
 30
0.0
 40
5.5
210
0.0
220
0.0
230
1.0
  0
CIRCLE
  8
0
  6
CONTINUOUS
 62
     7
  5
111
 10
191.36616
 20
-27.463598
 30
0.0
 40
5.5
210
0.0
220
0.0
230
1.0
  0
CIRCLE
  8
0
  6
CONTINUOUS
 62
     7
  5
112
 10
261.36616
 20
-80.963598
 30
0.0
 40
3.0
210
0.0
220
0.0
230
1.0
  0
CIRCLE
  8
0
  6
CONTINUOUS
 62
     7
  5
113
 10
211.36616
 20
-80.963598
 30
0.0
 40
3.0
210
0.0
220
0.0
230
1.0
  0
CIRCLE
  8
0
  6
CONTINUOUS
 62
     7
  5
114
 10
211.36616
 20
-30.963598
 30
0.0
 40
3.0
210
0.0
220
0.0
230
1.0
  0
CIRCLE
  8
0
  6
CONTINUOUS
 62
     7
  5
115
 10
261.36616
 20
-30.963598
 30
0.0
 40
3.0
210
0.0
220
0.0
230
1.0
  0
LINE
  8
0
  6
CONTINUOUS
 62
     7
  5
116
 10
296.36616
 20
-21.163598
 30
0.0
 11
176.36616
 21
-21.163598
 31
0.0
  0
LINE
  8
0
  6
CONTINUOUS
 62
     7
  5
117
 10
296.36616
 20
-90.763598
 30
0.0
 11
176.36616
 21
-90.763598
 31
0.0
  0
LINE
  8
0
  6
CONTINUOUS
 62
     7
  5
118
 10
296.36616
 20
-21.163598
 30
0.0
 11
296.36616
 21
-90.763598
 31
0.0
  0
CIRCLE
  8
0
  6
CONTINUOUS
 62
     7
  5
119
 10
211.36616
 20
-30.963598
 30
0.0
 40
2.459
210
0.0
220
0.0
230
1.0
  0
CIRCLE
  8
0
  6
CONTINUOUS
 62
     7
  5
11A
 10
261.36616
 20
-30.963598
 30
0.0
 40
2.459
210
0.0
220
0.0
230
1.0
  0
CIRCLE
  8
0
  6
CONTINUOUS
 62
     7
  5
11B
 10
211.36616
 20
-80.963598
 30
0.0
 40
2.459
210
0.0
220
0.0
230
1.0
  0
CIRCLE
  8
0
  6
CONTINUOUS
 62
     7
  5
11C
 10
261.36616
 20
-80.963598
 30
0.0
 40
2.459
210
0.0
220
0.0
230
1.0
  0
LINE
  8
0
  6
CONTINUOUS
 62
     7
  5
11D
 10
127.86616
 20
-72.713598
 30
0.0
 11
127.86616
 21
-85.713598
 31
0.0
  0
LINE
  8
0
  6
CONTINUOUS
 62
     7
  5
11E
 10
278.86616
 20
-26.020222
 30
0.0
 11
281.36616
 21
-24.576846
 31
0.0
  0
LINE
  8
0
  6
CONTINUOUS
 62
     7
  5
11F
 10
278.86616
 20
-28.906973
 30
0.0
 11
278.86616
 21
-26.020222
 31
0.0
  0
LINE
  8
0
  6
CONTINUOUS
 62
     7
  5
120
 10
281.36616
 20
-30.350349
 30
0.0
 11
278.86616
 21
-28.906973
 31
0.0
  0
LINE
  8
0
  6
CONTINUOUS
 62
     7
  5
121
 10
283.86616
 20
-26.020222
 30
0.0
 11
283.86616
 21
-28.906973
 31
0.0
  0
LINE
  8
0
  6
CONTINUOUS
 62
     7
  5
122
 10
281.36616
 20
-24.576846
 30
0.0
 11
283.86616
 21
-26.020222
 31
0.0
  0
CIRCLE
  8
0
  6
CONTINUOUS
 62
     7
  5
123
 10
281.36616
 20
-27.463598
 30
0.0
 40
5.0
210
0.0
220
0.0
230
1.0
  0
LINE
  8
0
  6
CONTINUOUS
 62
     7
  5
124
 10
283.86616
 20
-28.906973
 30
0.0
 11
281.36616
 21
-30.350349
 31
0.0
  0
LINE
  8
0
  6
CONTINUOUS
 62
     7
  5
125
 10
188.86616
 20
-26.020222
 30
0.0
 11
191.36616
 21
-24.576846
 31
0.0
  0
LINE
  8
0
  6
CONTINUOUS
 62
     7
  5
126
 10
188.86616
 20
-28.906973
 30
0.0
 11
188.86616
 21
-26.020222
 31
0.0
  0
LINE
  8
0
  6
CONTINUOUS
 62
     7
  5
127
 10
191.36616
 20
-30.350349
 30
0.0
 11
188.86616
 21
-28.906973
 31
0.0
  0
LINE
  8
0
  6
CONTINUOUS
 62
     7
  5
128
 10
193.86616
 20
-28.906973
 30
0.0
 11
191.36616
 21
-30.350349
 31
0.0
  0
LINE
  8
0
  6
CONTINUOUS
 62
     7
  5
129
 10
193.86616
 20
-26.020222
 30
0.0
 11
193.86616
 21
-28.906973
 31
0.0
  0
LINE
  8
0
  6
CONTINUOUS
 62
     7
  5
12A
 10
191.36616
 20
-24.576846
 30
0.0
 11
193.86616
 21
-26.020222
 31
0.0
  0
CIRCLE
  8
0
  6
CONTINUOUS
 62
     7
  5
12B
 10
191.36616
 20
-27.463598
 30
0.0
 40
5.0
210
0.0
220
0.0
230
1.0
  0
LINE
  8
0
  6
CONTINUOUS
 62
     7
  5
12C
 10
236.36616
 20
-30.350349
 30
0.0
 11
233.86616
 21
-28.906973
 31
0.0
  0
LINE
  8
0
  6
CONTINUOUS
 62
     7
  5
12D
 10
238.86616
 20
-28.906973
 30
0.0
 11
236.36616
 21
-30.350349
 31
0.0
  0
LINE
  8
0
  6
CONTINUOUS
 62
     7
  5
12E
 10
233.86616
 20
-28.906973
 30
0.0
 11
233.86616
 21
-26.020222
 31
0.0
  0
LINE
  8
0
  6
CONTINUOUS
 62
     7
  5
12F
 10
238.86616
 20
-26.020222
 30
0.0
 11
238.86616
 21
-28.906973
 31
0.0
  0
CIRCLE
  8
0
  6
CONTINUOUS
 62
     7
  5
130
 10
236.36616
 20
-27.463598
 30
0.0
 40
5.0
210
0.0
220
0.0
230
1.0
  0
LINE
  8
0
  6
CONTINUOUS
 62
     7
  5
131
 10
236.36616
 20
-24.576846
 30
0.0
 11
238.86616
 21
-26.020222
 31
0.0
  0
LINE
  8
0
  6
CONTINUOUS
 62
     7
  5
132
 10
233.86616
 20
-26.020222
 30
0.0
 11
236.36616
 21
-24.576846
 31
0.0
  0
LINE
  8
0
  6
CONTINUOUS
 62
     7
  5
133
 10
127.86616
 20
-26.213598
 30
0.0
 11
127.86616
 21
-39.213598
 31
0.0
  0
LINE
  8
0
  6
CONTINUOUS
 62
     7
  5
134
 10
368.36616
 20
-102.963598
 30
0.0
 11
366.36616
 21
-102.963598
 31
0.0
  0
LINE
  8
0
  6
CONTINUOUS
 62
     7
  5
135
 10
366.36616
 20
-140.963598
 30
0.0
 11
368.36616
 21
-140.963598
 31
0.0
  0
LINE
  8
0
  6
CONTINUOUS
 62
     7
  5
136
 10
368.36616
 20
-140.963598
 30
0.0
 11
369.36616
 21
-139.963598
 31
0.0
  0
LINE
  8
0
  6
CONTINUOUS
 62
     7
  5
137
 10
369.36616
 20
-103.963598
 30
0.0
 11
368.36616
 21
-102.963598
 31
0.0
  0
LINE
  8
0
  6
CONTINUOUS
 62
     7
  5
138
 10
368.36616
 20
29.036402
 30
0.0
 11
366.36616
 21
29.036402
 31
0.0
  0
LINE
  8
0
  6
CONTINUOUS
 62
     7
  5
139
 10
366.36616
 20
-8.963598
 30
0.0
 11
368.36616
 21
-8.963598
 31
0.0
  0
LINE
  8
0
  6
CONTINUOUS
 62
     7
  5
13A
 10
368.36616
 20
-8.963598
 30
0.0
 11
369.36616
 21
-7.963598
 31
0.0
  0
LINE
  8
0
  6
CONTINUOUS
 62
     7
  5
13B
 10
369.36616
 20
28.036402
 30
0.0
 11
368.36616
 21
29.036402
 31
0.0
  0
LINE
  8
0
  6
CONTINUOUS
 62
     7
  5
13C
 10
366.36616
 20
-109.463598
 30
0.0
 11
271.36616
 21
-109.463598
 31
0.0
  0
LINE
  8
0
  6
CONTINUOUS
 62
     7
  5
13D
 10
102.36616
 20
-109.463598
 30
0.0
 11
94.36616
 21
-109.463598
 31
0.0
  0
LINE
  8
0
  6
CONTINUOUS
 62
     7
  5
13E
 10
94.36616
 20
-134.463598
 30
0.0
 11
102.36616
 21
-134.463598
 31
0.0
  0
LINE
  8
0
  6
CONTINUOUS
 62
     7
  5
13F
 10
271.36616
 20
-134.463598
 30
0.0
 11
366.36616
 21
-134.463598
 31
0.0
  0
LINE
  8
0
  6
CONTINUOUS
 62
     7
  5
140
 10
366.36616
 20
22.536402
 30
0.0
 11
271.36616
 21
22.536402
 31
0.0
  0
LINE
  8
0
  6
CONTINUOUS
 62
     7
  5
141
 10
102.36616
 20
22.536402
 30
0.0
 11
94.36616
 21
22.536402
 31
0.0
  0
LINE
  8
0
  6
CONTINUOUS
 62
     7
  5
142
 10
94.36616
 20
-2.463598
 30
0.0
 11
102.36616
 21
-2.463598
 31
0.0
  0
LINE
  8
0
  6
CONTINUOUS
 62
     7
  5
143
 10
271.36616
 20
-2.463598
 30
0.0
 11
366.36616
 21
-2.463598
 31
0.0
  0
LINE
  8
0
  6
CONTINUOUS
 62
     7
  5
144
 10
100.86616
 20
-45.463598
 30
0.0
 11
94.36616
 21
-45.463598
 31
0.0
  0
LINE
  8
0
  6
CONTINUOUS
 62
     7
  5
145
 10
94.36616
 20
-66.463598
 30
0.0
 11
100.86616
 21
-66.463598
 31
0.0
  0
LINE
  8
0
  6
CONTINUOUS
 62
     7
  5
146
 10
369.36616
 20
-129.963598
 30
0.0
 11
379.36616
 21
-129.963598
 31
0.0
  0
LINE
  8
0
  6
CONTINUOUS
 62
     7
  5
147
 10
379.36616
 20
-113.963598
 30
0.0
 11
369.36616
 21
-113.963598
 31
0.0
  0
LINE
  8
0
  6
CONTINUOUS
 62
     7
  5
148
 10
369.36616
 20
2.036402
 30
0.0
 11
379.36616
 21
2.036402
 31
0.0
  0
LINE
  8
0
  6
CONTINUOUS
 62
     7
  5
149
 10
379.36616
 20
18.036402
 30
0.0
 11
369.36616
 21
18.036402
 31
0.0
  0
LINE
  8
0
  6
CONTINUOUS
 62
     7
  5
14A
 10
111.46616
 20
-50.963598
 30
0.0
 11
100.86616
 21
-50.963598
 31
0.0
  0
LINE
  8
0
  6
CONTINUOUS
 62
     7
  5
14B
 10
100.86616
 20
-60.963598
 30
0.0
 11
111.46616
 21
-60.963598
 31
0.0
  0
LINE
  8
0
  6
CONTINUOUS
 62
     7
  5
14C
 10
111.46616
 20
-60.963598
 30
0.0
 11
111.86616
 21
-60.563598
 31
0.0
  0
LINE
  8
0
  6
CONTINUOUS
 62
     7
  5
14D
 10
111.86616
 20
-51.363598
 30
0.0
 11
111.46616
 21
-50.963598
 31
0.0
  0
LINE
  8
0
  6
CONTINUOUS
 62
     7
  5
14E
 10
135.86616
 20
-72.713598
 30
0.0
 11
127.86616
 21
-72.713598
 31
0.0
  0
LINE
  8
0
  6
CONTINUOUS
 62
     7
  5
14F
 10
127.86616
 20
-85.713598
 30
0.0
 11
135.86616
 21
-85.713598
 31
0.0
  0
LINE
  8
0
  6
CONTINUOUS
 62
     7
  5
150
 10
135.86616
 20
-26.213598
 30
0.0
 11
127.86616
 21
-26.213598
 31
0.0
  0
LINE
  8
0
  6
CONTINUOUS
 62
     7
  5
151
 10
127.86616
 20
-39.213598
 30
0.0
 11
135.86616
 21
-39.213598
 31
0.0
  0
ENDBLK
  8
0
  5
152
  0
BLOCK
  8
0
  5
155
  2
AID609
 70
     0
 10
0.0
 20
0.0
 30
0.0
  3
#auxiliary draft view
  0
CIRCLE
  8
0
  6
CONTINUOUS
 62
     7
  5
156
 10
509.11776
 20
153.680402
 30
0.0
 40
4.0
210
0.0
220
0.0
230
1.0
  0
CIRCLE
  8
0
  6
CONTINUOUS
 62
     7
  5
157
 10
591.11776
 20
153.680402
 30
0.0
 40
4.0
210
0.0
220
0.0
230
1.0
  0
CIRCLE
  8
0
  6
CONTINUOUS
 62
     7
  5
158
 10
497.61776
 20
181.930402
 30
0.0
 40
5.5
210
0.0
220
0.0
230
1.0
  0
CIRCLE
  8
0
  6
CONTINUOUS
 62
     7
  5
159
 10
602.61776
 20
181.930402
 30
0.0
 40
5.5
210
0.0
220
0.0
230
1.0
  0
CIRCLE
  8
0
  6
CONTINUOUS
 62
     7
  5
15A
 10
497.61776
 20
125.430402
 30
0.0
 40
5.5
210
0.0
220
0.0
230
1.0
  0
CIRCLE
  8
0
  6
CONTINUOUS
 62
     7
  5
15B
 10
521.86776
 20
181.930402
 30
0.0
 40
5.0
210
0.0
220
0.0
230
1.0
  0
CIRCLE
  8
0
  6
CONTINUOUS
 62
     7
  5
15C
 10
578.36776
 20
181.930402
 30
0.0
 40
5.0
210
0.0
220
0.0
230
1.0
  0
CIRCLE
  8
0
  6
CONTINUOUS
 62
     7
  5
15D
 10
521.86776
 20
125.430402
 30
0.0
 40
5.0
210
0.0
220
0.0
230
1.0
  0
CIRCLE
  8
0
  6
CONTINUOUS
 62
     7
  5
15E
 10
578.36776
 20
125.430402
 30
0.0
 40
5.0
210
0.0
220
0.0
230
1.0
  0
CIRCLE
  8
0
  6
CONTINUOUS
 62
     7
  5
15F
 10
550.11776
 20
153.680402
 30
0.0
 40
13.0
210
0.0
220
0.0
230
1.0
  0
LINE
  8
0
  6
CONTINUOUS
 62
     7
  5
160
 10
464.11776
 20
193.680402
 30
0.0
 11
464.11776
 21
113.680402
 31
0.0
  0
LINE
  8
0
  6
CONTINUOUS
 62
     7
  5
161
 10
636.11776
 20
193.680402
 30
0.0
 11
464.11776
 21
193.680402
 31
0.0
  0
CIRCLE
  8
0
  6
CONTINUOUS
 62
     7
  5
162
 10
602.61776
 20
125.430402
 30
0.0
 40
5.5
210
0.0
220
0.0
230
1.0
  0
LINE
  8
0
  6
CONTINUOUS
 62
     7
  5
163
 10
636.11776
 20
113.680402
 30
0.0
 11
636.11776
 21
193.680402
 31
0.0
  0
LINE
  8
0
  6
CONTINUOUS
 62
     7
  5
164
 10
464.11776
 20
113.680402
 30
0.0
 11
636.11776
 21
113.680402
 31
0.0
  0
CIRCLE
  8
0
  6
CONTINUOUS
 62
     7
  5
165
 10
521.86776
 20
181.930402
 30
0.0
 40
4.188
210
0.0
220
0.0
230
1.0
  0
CIRCLE
  8
0
  6
CONTINUOUS
 62
     7
  5
166
 10
521.86776
 20
125.430402
 30
0.0
 40
4.188
210
0.0
220
0.0
230
1.0
  0
CIRCLE
  8
0
  6
CONTINUOUS
 62
     7
  5
167
 10
578.36776
 20
125.430402
 30
0.0
 40
4.188
210
0.0
220
0.0
230
1.0
  0
CIRCLE
  8
0
  6
CONTINUOUS
 62
     7
  5
168
 10
578.36776
 20
181.930402
 30
0.0
 40
4.188
210
0.0
220
0.0
230
1.0
  0
CIRCLE
  8
0
  6
CONTINUOUS
 62
     7
  5
169
 10
550.11776
 20
153.680402
 30
0.0
 40
4.5
210
0.0
220
0.0
230
1.0
  0
CIRCLE
  8
0
  6
CONTINUOUS
 62
     7
  5
16A
 10
550.11776
 20
153.680402
 30
0.0
 40
8.75
210
0.0
220
0.0
230
1.0
  0
LINE
  8
0
  6
CONTINUOUS
 62
     7
  5
16B
 10
547.11776
 20
151.948351
 30
0.0
 11
550.11776
 21
150.216301
 31
0.0
  0
LINE
  8
0
  6
CONTINUOUS
 62
     7
  5
16C
 10
553.11776
 20
155.412453
 30
0.0
 11
550.11776
 21
157.144504
 31
0.0
  0
LINE
  8
0
  6
CONTINUOUS
 62
     7
  5
16D
 10
550.11776
 20
150.216301
 30
0.0
 11
553.11776
 21
151.948351
 31
0.0
  0
LINE
  8
0
  6
CONTINUOUS
 62
     7
  5
16E
 10
550.11776
 20
157.144504
 30
0.0
 11
547.11776
 21
155.412453
 31
0.0
  0
LINE
  8
0
  6
CONTINUOUS
 62
     7
  5
16F
 10
553.11776
 20
151.948351
 30
0.0
 11
553.11776
 21
155.412453
 31
0.0
  0
LINE
  8
0
  6
CONTINUOUS
 62
     7
  5
170
 10
547.11776
 20
155.412453
 30
0.0
 11
547.11776
 21
151.948351
 31
0.0
  0
CIRCLE
  8
0
  6
CONTINUOUS
 62
     7
  5
171
 10
550.11776
 20
153.680402
 30
0.0
 40
10.5
210
0.0
220
0.0
230
1.0
  0
LINE
  8
0
  6
CONTINUOUS
 62
     7
  5
172
 10
590.36776
 20
196.180402
 30
0.0
 11
590.36776
 21
193.680402
 31
0.0
  0
LINE
  8
0
  6
CONTINUOUS
 62
     7
  5
173
 10
590.36776
 20
113.680402
 30
0.0
 11
590.36776
 21
111.180402
 31
0.0
  0
LINE
  8
0
  6
CONTINUOUS
 62
     7
  5
174
 10
639.11776
 20
196.180402
 30
0.0
 11
590.36776
 21
196.180402
 31
0.0
  0
LINE
  8
0
  6
CONTINUOUS
 62
     7
  5
175
 10
639.11776
 20
196.180402
 30
0.0
 11
639.11776
 21
111.180402
 31
0.0
  0
LINE
  8
0
  6
CONTINUOUS
 62
     7
  5
176
 10
639.11776
 20
111.180402
 30
0.0
 11
590.36776
 21
111.180402
 31
0.0
  0
LINE
  8
0
  6
CONTINUOUS
 62
     7
  5
177
 10
461.11776
 20
196.180402
 30
0.0
 11
461.11776
 21
111.180402
 31
0.0
  0
LINE
  8
0
  6
CONTINUOUS
 62
     7
  5
178
 10
509.86776
 20
196.180402
 30
0.0
 11
509.86776
 21
193.680402
 31
0.0
  0
LINE
  8
0
  6
CONTINUOUS
 62
     7
  5
179
 10
509.86776
 20
113.680402
 30
0.0
 11
509.86776
 21
111.180402
 31
0.0
  0
LINE
  8
0
  6
CONTINUOUS
 62
     7
  5
17A
 10
509.86776
 20
111.180402
 30
0.0
 11
461.11776
 21
111.180402
 31
0.0
  0
LINE
  8
0
  6
CONTINUOUS
 62
     7
  5
17B
 10
509.86776
 20
196.180402
 30
0.0
 11
461.11776
 21
196.180402
 31
0.0
  0
LINE
  8
0
  6
CONTINUOUS
 62
     9
  5
17C
 10
587.36776
 20
111.180402
 30
0.0
 11
587.36776
 21
113.680402
 31
0.0
  0
LINE
  8
0
  6
CONTINUOUS
 62
     9
  5
17D
 10
587.36776
 20
193.680402
 30
0.0
 11
587.36776
 21
196.180402
 31
0.0
  0
LINE
  8
0
  6
CONTINUOUS
 62
     7
  5
17E
 10
587.36776
 20
111.180402
 30
0.0
 11
590.36776
 21
111.180402
 31
0.0
  0
LINE
  8
0
  6
CONTINUOUS
 62
     7
  5
17F
 10
590.36776
 20
196.180402
 30
0.0
 11
587.36776
 21
196.180402
 31
0.0
  0
LINE
  8
0
  6
CONTINUOUS
 62
     9
  5
180
 10
512.86776
 20
196.180402
 30
0.0
 11
512.86776
 21
193.680402
 31
0.0
  0
LINE
  8
0
  6
CONTINUOUS
 62
     9
  5
181
 10
512.86776
 20
113.680402
 30
0.0
 11
512.86776
 21
111.180402
 31
0.0
  0
LINE
  8
0
  6
CONTINUOUS
 62
     7
  5
182
 10
509.86776
 20
111.180402
 30
0.0
 11
512.86776
 21
111.180402
 31
0.0
  0
LINE
  8
0
  6
CONTINUOUS
 62
     7
  5
183
 10
512.86776
 20
196.180402
 30
0.0
 11
509.86776
 21
196.180402
 31
0.0
  0
LINE
  8
0
  6
CONTINUOUS
 62
     7
  5
184
 10
587.36776
 20
111.180402
 30
0.0
 11
512.86776
 21
111.180402
 31
0.0
  0
LINE
  8
0
  6
CONTINUOUS
 62
     7
  5
185
 10
587.36776
 20
196.180402
 30
0.0
 11
512.86776
 21
196.180402
 31
0.0
  0
LINE
  8
0
  6
CONTINUOUS
 62
     7
  5
186
 10
637.11776
 20
198.680402
 30
0.0
 11
595.11776
 21
198.680402
 31
0.0
  0
LINE
  8
0
  6
CONTINUOUS
 62
     7
  5
187
 10
637.11776
 20
196.180402
 30
0.0
 11
637.11776
 21
198.680402
 31
0.0
  0
LINE
  8
0
  6
CONTINUOUS
 62
     7
  5
188
 10
595.11776
 20
198.680402
 30
0.0
 11
595.11776
 21
196.180402
 31
0.0
  0
ENDBLK
  8
0
  5
189
  0
ENDSEC
  0
SECTION
  2
ENTITIES
  0
INSERT
  8
0
  5
4F
  2
AID3
 10
0.0
 20
0.0
 30
0.0
  0
INSERT
  8
0
  5
92
  2
AID101
 10
0.0
 20
0.0
 30
0.0
  0
INSERT
  8
0
  5
E4
  2
AID231
 10
0.0
 20
0.0
 30
0.0
  0
INSERT
  8
0
  5
153
  2
AID391
 10
0.0
 20
0.0
 30
0.0
  0
INSERT
  8
0
  5
18A
  2
AID609
 10
0.0
 20
0.0
 30
0.0
  0
TEXT
  8
0
 62
     7
  5
18B
 10
-136.374733
 20
52.430402
 30
0.0
 40
5.5
  1
Représenté course 70 mm
210
0.0
220
0.0
230
1.0
  0
TEXT
  8
0
 62
     7
  5
18C
 10
-136.374733
 20
34.930402
 30
0.0
 40
5.5
  1
Represented stroke 70 mm
210
0.0
220
0.0
230
1.0
  0
TEXT
  8
0
 62
     7
  5
18D
 10
-136.374733
 20
17.430402
 30
0.0
 40
5.5
  1
In Hub 70 mm vorgestellt
210
0.0
220
0.0
230
1.0
  0
LINE
  8
0
  6
CENTER
 62
     1
  5
18F
 10
72.86616
 20
364.942175
 30
0.0
 11
304.86616
 21
364.942175
 31
0.0
  0
LINE
  8
0
  6
CENTER
 62
     1
  5
190
 10
61.36616
 20
153.680402
 30
0.0
 11
392.36616
 21
153.680402
 31
0.0
  0
LINE
  8
0
  6
CENTER
 62
     1
  5
191
 10
142.31316
 20
429.942175
 30
0.0
 11
158.41916
 21
429.942175
 31
0.0
  0
LINE
  8
0
  6
CENTER
 62
     1
  5
192
 10
150.36616
 20
421.889175
 30
0.0
 11
150.36616
 21
437.995175
 31
0.0
  0
LINE
  8
0
  6
CENTER
 62
     1
  5
193
 10
178.36616
 20
429.942175
 30
0.0
 11
194.36616
 21
429.942175
 31
0.0
  0
LINE
  8
0
  6
CENTER
 62
     1
  5
194
 10
186.36616
 20
421.942175
 30
0.0
 11
186.36616
 21
437.942175
 31
0.0
  0
LINE
  8
0
  6
CENTER
 62
     1
  5
195
 10
214.31316
 20
429.942175
 30
0.0
 11
230.41916
 21
429.942175
 31
0.0
  0
LINE
  8
0
  6
CENTER
 62
     1
  5
196
 10
222.36616
 20
421.889175
 30
0.0
 11
222.36616
 21
437.995175
 31
0.0
  0
LINE
  8
0
  6
CENTER
 62
     1
  5
197
 10
214.31316
 20
299.942175
 30
0.0
 11
230.41916
 21
299.942175
 31
0.0
  0
LINE
  8
0
  6
CENTER
 62
     1
  5
198
 10
222.36616
 20
291.889175
 30
0.0
 11
222.36616
 21
307.995175
 31
0.0
  0
LINE
  8
0
  6
CENTER
 62
     1
  5
199
 10
178.36616
 20
299.942175
 30
0.0
 11
194.36616
 21
299.942175
 31
0.0
  0
LINE
  8
0
  6
CENTER
 62
     1
  5
19A
 10
186.36616
 20
291.942175
 30
0.0
 11
186.36616
 21
307.942175
 31
0.0
  0
LINE
  8
0
  6
CENTER
 62
     1
  5
19B
 10
141.36616
 20
299.942175
 30
0.0
 11
159.36616
 21
299.942175
 31
0.0
  0
LINE
  8
0
  6
CENTER
 62
     1
  5
19C
 10
150.36616
 20
290.942175
 30
0.0
 11
150.36616
 21
308.942175
 31
0.0
  0
LINE
  8
0
  6
CENTER
 62
     1
  5
19D
 10
379.36616
 20
430.942175
 30
0.0
 11
268.36616
 21
430.942175
 31
0.0
  0
LINE
  8
0
  6
CENTER
 62
     1
  5
19E
 10
379.36616
 20
298.942175
 30
0.0
 11
268.36616
 21
298.942175
 31
0.0
  0
LINE
  8
0
  6
CENTER
 62
     1
  5
19F
 10
105.36616
 20
430.942175
 30
0.0
 11
91.36616
 21
430.942175
 31
0.0
  0
LINE
  8
0
  6
CENTER
 62
     1
  5
1A0
 10
105.36616
 20
298.942175
 30
0.0
 11
91.36616
 21
298.942175
 31
0.0
  0
LINE
  8
0
  6
CENTER
 62
     1
  5
1A1
 10
141.36616
 20
181.930402
 30
0.0
 11
159.36616
 21
181.930402
 31
0.0
  0
LINE
  8
0
  6
CENTER
 62
     1
  5
1A2
 10
150.36616
 20
172.930402
 30
0.0
 11
150.36616
 21
190.930402
 31
0.0
  0
LINE
  8
0
  6
CENTER
 62
     1
  5
1A3
 10
178.36616
 20
181.930402
 30
0.0
 11
194.36616
 21
181.930402
 31
0.0
  0
LINE
  8
0
  6
CENTER
 62
     1
  5
1A4
 10
186.36616
 20
173.930402
 30
0.0
 11
186.36616
 21
189.930402
 31
0.0
  0
LINE
  8
0
  6
CENTER
 62
     1
  5
1A5
 10
213.36616
 20
181.930402
 30
0.0
 11
231.36616
 21
181.930402
 31
0.0
  0
LINE
  8
0
  6
CENTER
 62
     1
  5
1A6
 10
222.36616
 20
172.930402
 30
0.0
 11
222.36616
 21
190.930402
 31
0.0
  0
LINE
  8
0
  6
CENTER
 62
     1
  5
1A7
 10
213.36616
 20
125.430402
 30
0.0
 11
231.36616
 21
125.430402
 31
0.0
  0
LINE
  8
0
  6
CENTER
 62
     1
  5
1A8
 10
222.36616
 20
116.430402
 30
0.0
 11
222.36616
 21
134.430402
 31
0.0
  0
LINE
  8
0
  6
CENTER
 62
     1
  5
1A9
 10
141.36616
 20
125.430402
 30
0.0
 11
159.36616
 21
125.430402
 31
0.0
  0
LINE
  8
0
  6
CENTER
 62
     1
  5
1AA
 10
150.36616
 20
116.430402
 30
0.0
 11
150.36616
 21
134.430402
 31
0.0
  0
LINE
  8
0
  6
CENTER
 62
     1
  5
1AB
 10
178.36616
 20
125.430402
 30
0.0
 11
194.36616
 21
125.430402
 31
0.0
  0
LINE
  8
0
  6
CENTER
 62
     1
  5
1AC
 10
186.36616
 20
117.430402
 30
0.0
 11
186.36616
 21
133.430402
 31
0.0
  0
LINE
  8
0
  6
CENTER
 62
     1
  5
1AD
 10
124.86616
 20
-32.713598
 30
0.0
 11
138.86616
 21
-32.713598
 31
0.0
  0
LINE
  8
0
  6
CENTER
 62
     1
  5
1AE
 10
124.86616
 20
-79.213598
 30
0.0
 11
138.86616
 21
-79.213598
 31
0.0
  0
LINE
  8
0
  6
CENTER
 62
     1
  5
1AF
 10
176.36616
 20
-145.963598
 30
0.0
 11
176.36616
 21
-97.963598
 31
0.0
  0
LINE
  8
0
  6
CENTER
 62
     1
  5
1B0
 10
182.86616
 20
-27.463598
 30
0.0
 11
199.86616
 21
-27.463598
 31
0.0
  0
LINE
  8
0
  6
CENTER
 62
     1
  5
1B1
 10
191.36616
 20
-35.963598
 30
0.0
 11
191.36616
 21
-18.963598
 31
0.0
  0
LINE
  8
0
  6
CENTER
 62
     1
  5
1B2
 10
205.36616
 20
-80.963598
 30
0.0
 11
217.36616
 21
-80.963598
 31
0.0
  0
LINE
  8
0
  6
CENTER
 62
     1
  5
1B3
 10
211.36616
 20
-86.963598
 30
0.0
 11
211.36616
 21
-74.963598
 31
0.0
  0
LINE
  8
0
  6
CENTER
 62
     1
  5
1B4
 10
205.36616
 20
-30.963598
 30
0.0
 11
217.36616
 21
-30.963598
 31
0.0
  0
LINE
  8
0
  6
CENTER
 62
     1
  5
1B5
 10
211.36616
 20
-36.963598
 30
0.0
 11
211.36616
 21
-24.963598
 31
0.0
  0
LINE
  8
0
  6
CENTER
 62
     1
  5
1B6
 10
227.86616
 20
-27.463598
 30
0.0
 11
244.86616
 21
-27.463598
 31
0.0
  0
LINE
  8
0
  6
CENTER
 62
     1
  5
1B7
 10
236.36616
 20
-35.963598
 30
0.0
 11
236.36616
 21
-18.963598
 31
0.0
  0
LINE
  8
0
  6
CENTER
 62
     1
  5
1B8
 10
255.36616
 20
-80.963598
 30
0.0
 11
267.36616
 21
-80.963598
 31
0.0
  0
LINE
  8
0
  6
CENTER
 62
     1
  5
1B9
 10
261.36616
 20
-86.963598
 30
0.0
 11
261.36616
 21
-74.963598
 31
0.0
  0
LINE
  8
0
  6
CENTER
 62
     1
  5
1BA
 10
255.36616
 20
-30.963598
 30
0.0
 11
267.36616
 21
-30.963598
 31
0.0
  0
LINE
  8
0
  6
CENTER
 62
     1
  5
1BB
 10
261.36616
 20
-36.963598
 30
0.0
 11
261.36616
 21
-24.963598
 31
0.0
  0
LINE
  8
0
  6
CENTER
 62
     1
  5
1BC
 10
272.86616
 20
-27.463598
 30
0.0
 11
289.86616
 21
-27.463598
 31
0.0
  0
LINE
  8
0
  6
CENTER
 62
     1
  5
1BD
 10
281.36616
 20
-35.963598
 30
0.0
 11
281.36616
 21
-18.963598
 31
0.0
  0
LINE
  8
0
  6
CENTER
 62
     1
  5
1BE
 10
91.36616
 20
-121.963598
 30
0.0
 11
382.36616
 21
-121.963598
 31
0.0
  0
LINE
  8
0
  6
CENTER
 62
     1
  5
1BF
 10
62.86616
 20
-55.963598
 30
0.0
 11
314.86616
 21
-55.963598
 31
0.0
  0
LINE
  8
0
  6
CENTER
 62
     1
  5
1C0
 10
91.36616
 20
10.036402
 30
0.0
 11
382.36616
 21
10.036402
 31
0.0
  0
LINE
  8
0
  6
CENTER
 62
     1
  5
1C1
 10
-174.874733
 20
132.680402
 30
0.0
 11
-174.874733
 21
174.680402
 31
0.0
  0
LINE
  8
0
  6
CENTER
 62
     1
  5
1C2
 10
-108.874733
 20
106.580402
 30
0.0
 11
-108.874733
 21
200.780402
 31
0.0
  0
LINE
  8
0
  6
CENTER
 62
     1
  5
1C3
 10
-42.874733
 20
131.680402
 30
0.0
 11
-42.874733
 21
175.680402
 31
0.0
  0
LINE
  8
0
  6
CENTER
 62
     1
  5
1C4
 10
-195.874733
 20
153.680402
 30
0.0
 11
-20.874733
 21
153.680402
 31
0.0
  0
LINE
  8
0
  6
CENTER
 62
     1
  5
1C5
 10
489.11776
 20
125.430402
 30
0.0
 11
506.11776
 21
125.430402
 31
0.0
  0
LINE
  8
0
  6
CENTER
 62
     1
  5
1C6
 10
497.61776
 20
116.930402
 30
0.0
 11
497.61776
 21
133.930402
 31
0.0
  0
LINE
  8
0
  6
CENTER
 62
     1
  5
1C7
 10
489.11776
 20
181.930402
 30
0.0
 11
506.11776
 21
181.930402
 31
0.0
  0
LINE
  8
0
  6
CENTER
 62
     1
  5
1C8
 10
497.61776
 20
173.430402
 30
0.0
 11
497.61776
 21
190.430402
 31
0.0
  0
LINE
  8
0
  6
CENTER
 62
     1
  5
1C9
 10
502.11776
 20
153.680402
 30
0.0
 11
516.11776
 21
153.680402
 31
0.0
  0
LINE
  8
0
  6
CENTER
 62
     1
  5
1CA
 10
509.11776
 20
146.680402
 30
0.0
 11
509.11776
 21
160.680402
 31
0.0
  0
LINE
  8
0
  6
CENTER
 62
     1
  5
1CB
 10
513.86776
 20
125.430402
 30
0.0
 11
529.86776
 21
125.430402
 31
0.0
  0
LINE
  8
0
  6
CENTER
 62
     1
  5
1CC
 10
521.86776
 20
117.430402
 30
0.0
 11
521.86776
 21
133.430402
 31
0.0
  0
LINE
  8
0
  6
CENTER
 62
     1
  5
1CD
 10
513.86776
 20
181.930402
 30
0.0
 11
529.86776
 21
181.930402
 31
0.0
  0
LINE
  8
0
  6
CENTER
 62
     1
  5
1CE
 10
521.86776
 20
173.930402
 30
0.0
 11
521.86776
 21
189.930402
 31
0.0
  0
LINE
  8
0
  6
CENTER
 62
     1
  5
1CF
 10
534.11776
 20
153.680402
 30
0.0
 11
566.11776
 21
153.680402
 31
0.0
  0
LINE
  8
0
  6
CENTER
 62
     1
  5
1D0
 10
550.11776
 20
137.680402
 30
0.0
 11
550.11776
 21
169.680402
 31
0.0
  0
LINE
  8
0
  6
CENTER
 62
     1
  5
1D1
 10
570.36776
 20
125.430402
 30
0.0
 11
586.36776
 21
125.430402
 31
0.0
  0
LINE
  8
0
  6
CENTER
 62
     1
  5
1D2
 10
578.36776
 20
117.430402
 30
0.0
 11
578.36776
 21
133.430402
 31
0.0
  0
LINE
  8
0
  6
CENTER
 62
     1
  5
1D3
 10
570.36776
 20
181.930402
 30
0.0
 11
586.36776
 21
181.930402
 31
0.0
  0
LINE
  8
0
  6
CENTER
 62
     1
  5
1D4
 10
578.36776
 20
173.930402
 30
0.0
 11
578.36776
 21
189.930402
 31
0.0
  0
LINE
  8
0
  6
CENTER
 62
     1
  5
1D5
 10
584.11776
 20
153.680402
 30
0.0
 11
598.11776
 21
153.680402
 31
0.0
  0
LINE
  8
0
  6
CENTER
 62
     1
  5
1D6
 10
591.11776
 20
146.680402
 30
0.0
 11
591.11776
 21
160.680402
 31
0.0
  0
LINE
  8
0
  6
CENTER
 62
     1
  5
1D7
 10
594.11776
 20
125.430402
 30
0.0
 11
611.11776
 21
125.430402
 31
0.0
  0
LINE
  8
0
  6
CENTER
 62
     1
  5
1D8
 10
602.61776
 20
116.930402
 30
0.0
 11
602.61776
 21
133.930402
 31
0.0
  0
LINE
  8
0
  6
CENTER
 62
     1
  5
1D9
 10
602.61776
 20
173.430402
 30
0.0
 11
602.61776
 21
190.430402
 31
0.0
  0
LINE
  8
0
  6
CENTER
 62
     1
  5
1DA
 10
594.11776
 20
181.930402
 30
0.0
 11
616.91776
 21
181.930402
 31
0.0
  0
ENDSEC
  0
EOF
