  0
SECTION
  2
HEADER
  9
$ACADVER
  1
AC1009
  9
$DWGCODEPAGE
  3
ansi_1252
  9
$INSBASE
 10
0.0
 20
0.0
 30
0.0
  9
$EXTMIN
 10
-533.191975
 20
-523.155092
 30
0.0
  9
$EXTMAX
 10
871.040711
 20
619.041031
 30
5.0
  9
$LIMMIN
 10
-533.191975
 20
-523.155092
  9
$LIMMAX
 10
871.040711
 20
619.041031
  9
$ORTHOMODE
 70
     0
  9
$REGENMODE
 70
     1
  9
$FILLMODE
 70
     1
  9
$QTEXTMODE
 70
     0
  9
$MIRRTEXT
 70
     1
  9
$DRAGMODE
 70
     2
  9
$LTSCALE
 40
10.0
  9
$OSMODE
 70
     0
  9
$ATTMODE
 70
     1
  9
$TEXTSIZE
 40
0.2
  9
$TRACEWID
 40
0.05
  9
$TEXTSTYLE
  7
STANDARD
  9
$CLAYER
  8
0
  9
$CELTYPE
  6
CONTINUOUS
  9
$CECOLOR
 62
   256
  9
$DIMSCALE
 40
1.0
  9
$DIMASZ
 40
1.25
  9
$DIMEXO
 40
1.0
  9
$DIMDLI
 40
0.38
  9
$DIMRND
 40
0.0
  9
$DIMDLE
 40
0.0
  9
$DIMEXE
 40
0.75
  9
$DIMTP
 40
0.0
  9
$DIMTM
 40
0.0
  9
$DIMTXT
 40
2.5
  9
$DIMCEN
 40
0.09
  9
$DIMTSZ
 40
0.0
  9
$DIMTOL
 70
     0
  9
$DIMLIM
 70
     0
  9
$DIMTIH
 70
     0
  9
$DIMTOH
 70
     0
  9
$DIMSE1
 70
     0
  9
$DIMSE2
 70
     0
  9
$DIMTAD
 70
     1
  9
$DIMZIN
 70
     0
  9
$DIMBLK
  1

  9
$DIMASO
 70
     1
  9
$DIMSHO
 70
     1
  9
$DIMPOST
  1

  9
$DIMAPOST
  1

  9
$DIMALT
 70
     0
  9
$DIMALTD
 70
     2
  9
$DIMALTF
 40
25.4
  9
$DIMLFAC
 40
1.0
  9
$DIMTOFL
 70
     0
  9
$DIMTVP
 40
0.0
  9
$DIMTIX
 70
     0
  9
$DIMSOXD
 70
     0
  9
$DIMSAH
 70
     0
  9
$DIMBLK1
  1

  9
$DIMBLK2
  1

  9
$DIMSTYLE
  2
STANDARD
  9
$DIMCLRD
 70
     7
  9
$DIMCLRE
 70
     7
  9
$DIMCLRT
 70
     7
  9
$DIMTFAC
 40
0.8
  9
$DIMGAP
 40
1.25
  9
$LUNITS
 70
     2
  9
$LUPREC
 70
     4
  9
$AXISMODE
 70
     0
  9
$AXISUNIT
 10
0.0
 20
0.0
  9
$SKETCHINC
 40
0.1
  9
$FILLETRAD
 40
0.0
  9
$AUNITS
 70
     0
  9
$AUPREC
 70
     0
  9
$MENU
  1
acad
  9
$ELEVATION
 40
0.0
  9
$PELEVATION
 40
0.0
  9
$THICKNESS
 40
0.0
  9
$LIMCHECK
 70
     0
  9
$BLIPMODE
 70
     1
  9
$CHAMFERA
 40
0.0
  9
$CHAMFERB
 40
0.0
  9
$SKPOLY
 70
     0
  9
$TDCREATE
 40
2455359.351319444
  9
$TDUPDATE
 40
2455359.260127315
  9
$TDINDWG
 40
0.0000000000
  9
$TDUSRTIMER
 40
0.0000000000
  9
$USRTIMER
 70
     1
  9
$ANGBASE
 50
0.0
  9
$ANGDIR
 70
     0
  9
$PDMODE
 70
     0
  9
$PDSIZE
 40
0.0
  9
$PLINEWID
 40
0.0
  9
$COORDS
 70
     0
  9
$SPLFRAME
 70
     0
  9
$SPLINETYPE
 70
     6
  9
$SPLINESEGS
 70
     8
  9
$ATTDIA
 70
     0
  9
$ATTREQ
 70
     1
  9
$HANDLING
 70
     1
  9
$HANDSEED
  5
8AD
  9
$SURFTAB1
 70
     6
  9
$SURFTAB2
 70
     6
  9
$SURFTYPE
 70
     6
  9
$SURFU
 70
     6
  9
$SURFV
 70
     6
  9
$UCSNAME
  2

  9
$UCSORG
 10
0.0
 20
0.0
 30
0.0
  9
$UCSXDIR
 10
1.0
 20
0.0
 30
0.0
  9
$UCSYDIR
 10
0.0
 20
1.0
 30
0.0
  9
$PUCSNAME
  2

  9
$PUCSORG
 10
0.0
 20
0.0
 30
0.0
  9
$PUCSXDIR
 10
1.0
 20
0.0
 30
0.0
  9
$PUCSYDIR
 10
0.0
 20
1.0
 30
0.0
  9
$USERI1
 70
     0
  9
$USERI2
 70
     0
  9
$USERI3
 70
     0
  9
$USERI4
 70
     0
  9
$USERI5
 70
     0
  9
$USERR1
 40
0.0
  9
$USERR2
 40
0.0
  9
$USERR3
 40
0.0
  9
$USERR4
 40
0.0
  9
$USERR5
 40
0.0
  9
$WORLDVIEW
 70
     1
  9
$SHADEDGE
 70
     3
  9
$SHADEDIF
 70
    70
  9
$TILEMODE
 70
     1
  9
$MAXACTVP
 70
    16
  9
$PINSBASE
 10
0.0
 20
0.0
 30
0.0
  9
$PLIMCHECK
 70
     0
  9
$PEXTMIN
 10
1.000000E+20
 20
1.000000E+20
 30
1.000000E+20
  9
$PEXTMAX
 10
-1.000000E+20
 20
-1.000000E+20
 30
-1.000000E+20
  9
$PLIMMIN
 10
0.0
 20
0.0
  9
$PLIMMAX
 10
12.0
 20
9.0
  9
$UNITMODE
 70
     0
  9
$VISRETAIN
 70
     0
  9
$PLINEGEN
 70
     1
  9
$PSLTSCALE
 70
     0
  9
$TREEDEPTH
 70
  3020
  0
ENDSEC
  0
SECTION
  2
TABLES
  0
TABLE
  2
VPORT
 70
     1
  0
VPORT
  2
*ACTIVE
 70
     0
 10
0.0
 20
0.0
 11
1.0
 21
1.0
 12
6.591288
 22
4.579184
 13
0.0
 23
0.0
 14
1.0
 24
1.0
 15
0.0
 25
0.0
 16
0.0
 26
0.0
 36
1.0
 17
0.0
 27
0.0
 37
0.0
 40
9.158369
 41
0.688564
 42
50.0
 43
0.0
 44
0.0
 50
0.0
 51
0.0
 71
     0
 72
   100
 73
     1
 74
     1
 75
     0
 76
     0
 77
     0
 78
     0
  0
ENDTAB
  0
TABLE
  2
LTYPE
 70
     2
  0
LTYPE
  2
CONTINUOUS
 70
    64
  3
Solid line
 72
    65
 73
     0
 40
0.0
  0
LTYPE
  2
CENTER
 70
    64
  3
____ _ ____ _ ____ _ ____ _ ____ _ ____ _ ____
 72
    65
 73
     4
 40
2.0
 49
1.25
 49
-0.25
 49
0.25
 49
-0.25
  0
ENDTAB
  0
TABLE
  2
LAYER
 70
     1
  0
LAYER
  2
0
 70
     0
 62
     7
  6
CONTINUOUS
  0
ENDTAB
  0
TABLE
  2
STYLE
 70
     1
  0
STYLE
  2
STANDARD
 70
     0
 40
0.0
 41
1.0
 50
0.0
 71
     0
 42
0.0
  3
IsonormD
  4

  0
ENDTAB
  0
TABLE
  2
VIEW
 70
     0
  0
ENDTAB
  0
TABLE
  2
UCS
 70
     0
  0
ENDTAB
  0
TABLE
  2
APPID
 70
     2
  0
APPID
  2
ACAD
 70
     0
  0
APPID
  2
TopSolid_Draft
 70
     0
  0
ENDTAB
  0
TABLE
  2
DIMSTYLE
 70
     1
  0
DIMSTYLE
  2
STANDARD
 70
     0
  3

  4

  5

  6

  7

 40
1.0
 41
1.25
 42
1.0
 43
0.38
 44
0.75
 45
0.0
 46
0.0
 47
0.0
 48
0.0
 71
     0
 72
     0
 73
     0
 74
     0
 75
     0
 76
     0
 77
     1
 78
     0
140
2.5
141
0.09
142
0.0
143
25.4
144
1.0
145
0.0
146
0.8
147
1.25
170
     0
171
     2
172
     0
173
     0
174
     0
175
     0
176
     7
177
     7
178
     7
  0
ENDTAB
  0
ENDSEC
  0
SECTION
  2
BLOCKS
  0
BLOCK
  8
0
  5
25
  2
AID3
 70
     0
 10
0.0
 20
0.0
 30
0.0
  3
#draft view
  0
CIRCLE
  8
0
  6
CONTINUOUS
 62
     7
  5
26
 10
414.279974
 20
168.73051
 30
0.0
 40
2.51
210
0.0
220
0.0
230
1.0
  0
CIRCLE
  8
0
  6
CONTINUOUS
 62
     7
  5
27
 10
367.779974
 20
168.73051
 30
0.0
 40
2.51
210
0.0
220
0.0
230
1.0
  0
CIRCLE
  8
0
  6
CONTINUOUS
 62
     7
  5
28
 10
341.029974
 20
145.48051
 30
0.0
 40
4.0
210
0.0
220
0.0
230
1.0
  0
CIRCLE
  8
0
  6
CONTINUOUS
 62
     7
  5
29
 10
441.029974
 20
145.48051
 30
0.0
 40
4.0
210
0.0
220
0.0
230
1.0
  0
CIRCLE
  8
0
  6
CONTINUOUS
 62
     7
  5
2A
 10
441.029974
 20
191.98051
 30
0.0
 40
4.0
210
0.0
220
0.0
230
1.0
  0
CIRCLE
  8
0
  6
CONTINUOUS
 62
     7
  5
2B
 10
341.029974
 20
191.98051
 30
0.0
 40
4.0
210
0.0
220
0.0
230
1.0
  0
ARC
  8
0
  6
CONTINUOUS
 62
     7
  5
2C
 10
484.029974
 20
128.73051
 30
0.0
 40
8.0
 50
90.0
 51
180.0
210
0.0
220
0.0
230
1.0
  0
LINE
  8
0
  6
CONTINUOUS
 62
     7
  5
2D
 10
476.029974
 20
128.73051
 30
0.0
 11
476.029974
 21
104.73051
 31
0.0
  0
LINE
  8
0
  6
CONTINUOUS
 62
     7
  5
2E
 10
476.029974
 20
104.73051
 30
0.0
 11
306.029974
 21
104.73051
 31
0.0
  0
LINE
  8
0
  6
CONTINUOUS
 62
     7
  5
2F
 10
306.029974
 20
104.73051
 30
0.0
 11
306.029974
 21
128.73051
 31
0.0
  0
ARC
  8
0
  6
CONTINUOUS
 62
     7
  5
30
 10
298.029974
 20
128.73051
 30
0.0
 40
8.0
 50
0.0
 51
90.0
210
0.0
220
0.0
230
1.0
  0
LINE
  8
0
  6
CONTINUOUS
 62
     7
  5
31
 10
298.029974
 20
136.73051
 30
0.0
 11
291.029974
 21
136.73051
 31
0.0
  0
LINE
  8
0
  6
CONTINUOUS
 62
     7
  5
32
 10
291.029974
 20
136.73051
 30
0.0
 11
291.029974
 21
232.73051
 31
0.0
  0
LINE
  8
0
  6
CONTINUOUS
 62
     7
  5
33
 10
291.029974
 20
232.73051
 30
0.0
 11
491.029974
 21
232.73051
 31
0.0
  0
LINE
  8
0
  6
CONTINUOUS
 62
     7
  5
34
 10
491.029974
 20
232.73051
 30
0.0
 11
491.029974
 21
136.73051
 31
0.0
  0
LINE
  8
0
  6
CONTINUOUS
 62
     7
  5
35
 10
491.029974
 20
136.73051
 30
0.0
 11
484.029974
 21
136.73051
 31
0.0
  0
CIRCLE
  8
0
  6
CONTINUOUS
 62
     7
  5
36
 10
341.029974
 20
145.48051
 30
0.0
 40
3.3235
210
0.0
220
0.0
230
1.0
  0
CIRCLE
  8
0
  6
CONTINUOUS
 62
     7
  5
37
 10
441.029974
 20
145.48051
 30
0.0
 40
3.3235
210
0.0
220
0.0
230
1.0
  0
CIRCLE
  8
0
  6
CONTINUOUS
 62
     7
  5
38
 10
441.029974
 20
191.98051
 30
0.0
 40
3.3235
210
0.0
220
0.0
230
1.0
  0
CIRCLE
  8
0
  6
CONTINUOUS
 62
     7
  5
39
 10
341.029974
 20
191.98051
 30
0.0
 40
3.3235
210
0.0
220
0.0
230
1.0
  0
CIRCLE
  8
0
  6
CONTINUOUS
 62
     7
  5
3A
 10
483.529974
 20
109.73051
 30
0.0
 40
3.0
210
0.0
220
0.0
230
1.0
  0
CIRCLE
  8
0
  6
CONTINUOUS
 62
     7
  5
3B
 10
483.529974
 20
122.73051
 30
0.0
 40
3.0
210
0.0
220
0.0
230
1.0
  0
LINE
  8
0
  6
CONTINUOUS
 62
     7
  5
3C
 10
491.029974
 20
136.73051
 30
0.0
 11
491.029974
 21
104.73051
 31
0.0
  0
LINE
  8
0
  6
CONTINUOUS
 62
     7
  5
3D
 10
491.029974
 20
104.73051
 30
0.0
 11
476.029974
 21
104.73051
 31
0.0
  0
CIRCLE
  8
0
  6
CONTINUOUS
 62
     7
  5
3E
 10
298.529974
 20
109.73051
 30
0.0
 40
3.0
210
0.0
220
0.0
230
1.0
  0
CIRCLE
  8
0
  6
CONTINUOUS
 62
     7
  5
3F
 10
298.529974
 20
122.73051
 30
0.0
 40
3.0
210
0.0
220
0.0
230
1.0
  0
LINE
  8
0
  6
CONTINUOUS
 62
     7
  5
40
 10
291.029974
 20
104.73051
 30
0.0
 11
291.029974
 21
136.73051
 31
0.0
  0
LINE
  8
0
  6
CONTINUOUS
 62
     7
  5
41
 10
306.029974
 20
104.73051
 30
0.0
 11
291.029974
 21
104.73051
 31
0.0
  0
CIRCLE
  8
0
  6
CONTINUOUS
 62
     7
  5
42
 10
483.529974
 20
109.73051
 30
0.0
 40
2.459
210
0.0
220
0.0
230
1.0
  0
CIRCLE
  8
0
  6
CONTINUOUS
 62
     7
  5
43
 10
483.529974
 20
122.73051
 30
0.0
 40
2.459
210
0.0
220
0.0
230
1.0
  0
CIRCLE
  8
0
  6
CONTINUOUS
 62
     7
  5
44
 10
298.529974
 20
109.73051
 30
0.0
 40
2.459
210
0.0
220
0.0
230
1.0
  0
CIRCLE
  8
0
  6
CONTINUOUS
 62
     7
  5
45
 10
298.529974
 20
122.73051
 30
0.0
 40
2.459
210
0.0
220
0.0
230
1.0
  0
LINE
  8
0
  6
CONTINUOUS
 62
     7
  5
46
 10
288.018495
 20
216.134016
 30
0.0
 11
282.844784
 21
213.990992
 31
0.0
  0
LINE
  8
0
  6
CONTINUOUS
 62
     7
  5
47
 10
289.920823
 20
214.78544
 30
0.0
 11
282.453225
 21
211.692255
 31
0.0
  0
LINE
  8
0
  6
CONTINUOUS
 62
     7
  5
48
 10
290.335454
 20
213.784434
 30
0.0
 11
282.867856
 21
210.691249
 31
0.0
  0
LINE
  8
0
  6
CONTINUOUS
 62
     7
  5
49
 10
494.041452
 20
216.134016
 30
0.0
 11
499.215163
 21
213.990992
 31
0.0
  0
LINE
  8
0
  6
CONTINUOUS
 62
     7
  5
4A
 10
492.139124
 20
214.78544
 30
0.0
 11
499.606722
 21
211.692255
 31
0.0
  0
ARC
  8
0
  6
CONTINUOUS
 62
     7
  5
4B
 10
284.727513
 20
219.528019
 30
0.0
 40
8.541043
 50
290.581765
 51
307.263077
210
0.0
220
0.0
230
1.0
  0
LINE
  8
0
  6
CONTINUOUS
 62
     7
  5
4C
 10
287.730064
 20
211.532137
 30
0.0
 11
284.015997
 21
210.215673
 31
0.0
  0
LINE
  8
0
  6
CONTINUOUS
 62
     7
  5
4D
 10
491.724493
 20
213.784434
 30
0.0
 11
499.192091
 21
210.691249
 31
0.0
  0
ARC
  8
0
  6
CONTINUOUS
 62
     7
  5
4E
 10
497.332434
 20
219.528019
 30
0.0
 40
8.541043
 50
232.736923
 51
249.418235
210
0.0
220
0.0
230
1.0
  0
LINE
  8
0
  6
CONTINUOUS
 62
     7
  5
4F
 10
494.329884
 20
211.532137
 30
0.0
 11
498.043951
 21
210.215673
 31
0.0
  0
LINE
  8
0
  6
CONTINUOUS
 62
     9
  5
50
 10
494.329884
 20
211.532138
 30
0.0
 11
494.329884
 21
204.73051
 31
0.0
  0
LINE
  8
0
  6
CONTINUOUS
 62
     9
  5
51
 10
287.730064
 20
211.532138
 30
0.0
 11
287.730064
 21
204.73051
 31
0.0
  0
LINE
  8
0
  6
CONTINUOUS
 62
     7
  5
52
 10
496.112594
 20
220.088951
 30
0.0
 11
500.54721
 21
218.25207
 31
0.0
  0
LINE
  8
0
  6
CONTINUOUS
 62
     7
  5
53
 10
494.247813
 20
217.938846
 30
0.0
 11
500.345453
 21
215.413118
 31
0.0
  0
LINE
  8
0
  6
CONTINUOUS
 62
     7
  5
54
 10
287.812134
 20
217.938846
 30
0.0
 11
281.714495
 21
215.413118
 31
0.0
  0
LINE
  8
0
  6
CONTINUOUS
 62
     7
  5
55
 10
285.947353
 20
220.088951
 30
0.0
 11
281.512737
 21
218.25207
 31
0.0
  0
LINE
  8
0
  6
CONTINUOUS
 62
     7
  5
56
 10
288.529974
 20
161.23051
 30
0.0
 11
288.529974
 21
167.23051
 31
0.0
  0
LINE
  8
0
  6
CONTINUOUS
 62
     7
  5
57
 10
288.529974
 20
167.23051
 30
0.0
 11
288.529974
 21
173.23051
 31
0.0
  0
LINE
  8
0
  6
CONTINUOUS
 62
     7
  5
58
 10
480.529974
 20
232.830507
 30
0.0
 11
409.529974
 21
232.830507
 31
0.0
  0
LINE
  8
0
  6
CONTINUOUS
 62
     7
  5
59
 10
409.529974
 20
232.730506
 30
0.0
 11
409.529974
 21
232.830507
 31
0.0
  0
LINE
  8
0
  6
CONTINUOUS
 62
     7
  5
5A
 10
480.529974
 20
232.730506
 30
0.0
 11
480.529974
 21
232.830507
 31
0.0
  0
LINE
  8
0
  6
CONTINUOUS
 62
     7
  5
5B
 10
301.529974
 20
232.830507
 30
0.0
 11
372.529974
 21
232.830507
 31
0.0
  0
LINE
  8
0
  6
CONTINUOUS
 62
     7
  5
5C
 10
301.529974
 20
232.730506
 30
0.0
 11
301.529974
 21
232.830507
 31
0.0
  0
LINE
  8
0
  6
CONTINUOUS
 62
     7
  5
5D
 10
372.529974
 20
232.730506
 30
0.0
 11
372.529974
 21
232.830507
 31
0.0
  0
LINE
  8
0
  6
CONTINUOUS
 62
     7
  5
5E
 10
-225.970026
 20
137.73051
 30
0.0
 11
-211.970026
 21
137.73051
 31
0.0
  0
LINE
  8
0
  6
CONTINUOUS
 62
     7
  5
5F
 10
-211.970026
 20
137.73051
 30
0.0
 11
-211.970026
 21
121.73051
 31
0.0
  0
LINE
  8
0
  6
CONTINUOUS
 62
     7
  5
60
 10
-211.970026
 20
121.73051
 30
0.0
 11
-225.970026
 21
121.73051
 31
0.0
  0
LINE
  8
0
  6
CONTINUOUS
 62
     7
  5
61
 10
-225.970026
 20
121.73051
 30
0.0
 11
-225.970026
 21
137.73051
 31
0.0
  0
LINE
  8
0
  6
CONTINUOUS
 62
     7
  5
62
 10
548.029974
 20
137.73051
 30
0.0
 11
534.029974
 21
137.73051
 31
0.0
  0
LINE
  8
0
  6
CONTINUOUS
 62
     7
  5
63
 10
534.029974
 20
137.73051
 30
0.0
 11
534.029974
 21
159.73051
 31
0.0
  0
LINE
  8
0
  6
CONTINUOUS
 62
     7
  5
64
 10
534.029974
 20
159.73051
 30
0.0
 11
548.029974
 21
159.73051
 31
0.0
  0
LINE
  8
0
  6
CONTINUOUS
 62
     7
  5
65
 10
548.029974
 20
159.73051
 30
0.0
 11
548.029974
 21
137.73051
 31
0.0
  0
LINE
  8
0
  6
CONTINUOUS
 62
     7
  5
66
 10
-211.970026
 20
159.73051
 30
0.0
 11
-225.970026
 21
159.73051
 31
0.0
  0
LINE
  8
0
  6
CONTINUOUS
 62
     7
  5
67
 10
-225.970026
 20
159.73051
 30
0.0
 11
-225.970026
 21
175.73051
 31
0.0
  0
LINE
  8
0
  6
CONTINUOUS
 62
     7
  5
68
 10
-225.970026
 20
175.73051
 30
0.0
 11
-211.970026
 21
175.73051
 31
0.0
  0
LINE
  8
0
  6
CONTINUOUS
 62
     7
  5
69
 10
-211.970026
 20
175.73051
 30
0.0
 11
-211.970026
 21
159.73051
 31
0.0
  0
LINE
  8
0
  6
CONTINUOUS
 62
     7
  5
6A
 10
548.029974
 20
175.73051
 30
0.0
 11
534.029974
 21
175.73051
 31
0.0
  0
LINE
  8
0
  6
CONTINUOUS
 62
     7
  5
6B
 10
534.029974
 20
175.73051
 30
0.0
 11
534.029974
 21
159.73051
 31
0.0
  0
LINE
  8
0
  6
CONTINUOUS
 62
     7
  5
6C
 10
548.029974
 20
159.73051
 30
0.0
 11
548.029974
 21
175.73051
 31
0.0
  0
LINE
  8
0
  6
CONTINUOUS
 62
     7
  5
6D
 10
-225.970026
 20
159.73051
 30
0.0
 11
-225.970026
 21
137.73051
 31
0.0
  0
LINE
  8
0
  6
CONTINUOUS
 62
     7
  5
6E
 10
-211.970026
 20
137.73051
 30
0.0
 11
-211.970026
 21
159.73051
 31
0.0
  0
LINE
  8
0
  6
CONTINUOUS
 62
     7
  5
6F
 10
534.029974
 20
121.73051
 30
0.0
 11
548.029974
 21
121.73051
 31
0.0
  0
LINE
  8
0
  6
CONTINUOUS
 62
     7
  5
70
 10
534.029974
 20
137.73051
 30
0.0
 11
534.029974
 21
121.73051
 31
0.0
  0
LINE
  8
0
  6
CONTINUOUS
 62
     7
  5
71
 10
548.029974
 20
121.73051
 30
0.0
 11
548.029974
 21
137.73051
 31
0.0
  0
LINE
  8
0
  6
CONTINUOUS
 62
     7
  5
72
 10
539.029974
 20
199.409952
 30
0.0
 11
491.029974
 21
199.409952
 31
0.0
  0
LINE
  8
0
  6
CONTINUOUS
 62
     7
  5
73
 10
291.029974
 20
199.409952
 30
0.0
 11
-216.970026
 21
199.409952
 31
0.0
  0
LINE
  8
0
  6
CONTINUOUS
 62
     7
  5
74
 10
539.029974
 20
199.110992
 30
0.0
 11
491.029974
 21
199.110992
 31
0.0
  0
LINE
  8
0
  6
CONTINUOUS
 62
     7
  5
75
 10
291.029974
 20
199.110992
 30
0.0
 11
-216.970026
 21
199.110992
 31
0.0
  0
LINE
  8
0
  6
CONTINUOUS
 62
     7
  5
76
 10
-216.970026
 20
199.110992
 30
0.0
 11
-216.970026
 21
199.409952
 31
0.0
  0
LINE
  8
0
  6
CONTINUOUS
 62
     7
  5
77
 10
539.029974
 20
199.110992
 30
0.0
 11
539.029974
 21
199.409952
 31
0.0
  0
LINE
  8
0
  6
CONTINUOUS
 62
     7
  5
78
 10
539.029974
 20
218.351027
 30
0.0
 11
500.308309
 21
218.351027
 31
0.0
  0
LINE
  8
0
  6
CONTINUOUS
 62
     7
  5
79
 10
494.605296
 20
218.351027
 30
0.0
 11
491.029974
 21
218.351027
 31
0.0
  0
LINE
  8
0
  6
CONTINUOUS
 62
     7
  5
7A
 10
291.029974
 20
218.351027
 30
0.0
 11
287.454651
 21
218.351027
 31
0.0
  0
LINE
  8
0
  6
CONTINUOUS
 62
     7
  5
7B
 10
281.751638
 20
218.351027
 30
0.0
 11
-216.970026
 21
218.351027
 31
0.0
  0
LINE
  8
0
  6
CONTINUOUS
 62
     7
  5
7C
 10
539.029974
 20
218.056436
 30
0.0
 11
500.533307
 21
218.056436
 31
0.0
  0
LINE
  8
0
  6
CONTINUOUS
 62
     7
  5
7D
 10
494.349798
 20
218.056436
 30
0.0
 11
491.029974
 21
218.056436
 31
0.0
  0
LINE
  8
0
  6
CONTINUOUS
 62
     7
  5
7E
 10
291.029974
 20
218.056436
 30
0.0
 11
287.710149
 21
218.056436
 31
0.0
  0
LINE
  8
0
  6
CONTINUOUS
 62
     7
  5
7F
 10
281.52664
 20
218.056436
 30
0.0
 11
-216.970026
 21
218.056436
 31
0.0
  0
LINE
  8
0
  6
CONTINUOUS
 62
     7
  5
80
 10
-216.970026
 20
218.056436
 30
0.0
 11
-216.970026
 21
218.351027
 31
0.0
  0
LINE
  8
0
  6
CONTINUOUS
 62
     7
  5
81
 10
539.029974
 20
218.056436
 30
0.0
 11
539.029974
 21
218.351027
 31
0.0
  0
LINE
  8
0
  6
CONTINUOUS
 62
     7
  5
82
 10
-216.970026
 20
199.409952
 30
0.0
 11
-216.970026
 21
218.056436
 31
0.0
  0
LINE
  8
0
  6
CONTINUOUS
 62
     7
  5
83
 10
539.029974
 20
199.409952
 30
0.0
 11
539.029974
 21
218.056436
 31
0.0
  0
LINE
  8
0
  6
CONTINUOUS
 62
     7
  5
84
 10
539.029974
 20
197.474803
 30
0.0
 11
491.029974
 21
197.474803
 31
0.0
  0
LINE
  8
0
  6
CONTINUOUS
 62
     7
  5
85
 10
291.029974
 20
197.474803
 30
0.0
 11
-216.970026
 21
197.474803
 31
0.0
  0
LINE
  8
0
  6
CONTINUOUS
 62
     7
  5
86
 10
-216.970026
 20
199.110992
 30
0.0
 11
-216.970026
 21
197.474803
 31
0.0
  0
LINE
  8
0
  6
CONTINUOUS
 62
     7
  5
87
 10
539.029974
 20
199.110992
 30
0.0
 11
539.029974
 21
197.474803
 31
0.0
  0
LINE
  8
0
  6
CONTINUOUS
 62
     9
  5
88
 10
539.029974
 20
219.987207
 30
0.0
 11
496.358227
 21
219.987207
 31
0.0
  0
LINE
  8
0
  6
CONTINUOUS
 62
     9
  5
89
 10
496.024351
 20
219.987207
 30
0.0
 11
491.029974
 21
219.987207
 31
0.0
  0
LINE
  8
0
  6
CONTINUOUS
 62
     9
  5
8A
 10
291.029974
 20
219.987207
 30
0.0
 11
286.035596
 21
219.987207
 31
0.0
  0
LINE
  8
0
  6
CONTINUOUS
 62
     9
  5
8B
 10
285.70172
 20
219.987207
 30
0.0
 11
-216.970026
 21
219.987207
 31
0.0
  0
LINE
  8
0
  6
CONTINUOUS
 62
     7
  5
8C
 10
-216.970026
 20
219.987207
 30
0.0
 11
-216.970026
 21
218.351027
 31
0.0
  0
LINE
  8
0
  6
CONTINUOUS
 62
     7
  5
8D
 10
539.029974
 20
219.987207
 30
0.0
 11
539.029974
 21
218.351027
 31
0.0
  0
LINE
  8
0
  6
CONTINUOUS
 62
     7
  5
8E
 10
539.029974
 20
197.230388
 30
0.0
 11
491.029974
 21
197.230388
 31
0.0
  0
LINE
  8
0
  6
CONTINUOUS
 62
     7
  5
8F
 10
291.029974
 20
197.230388
 30
0.0
 11
-216.970026
 21
197.230388
 31
0.0
  0
LINE
  8
0
  6
CONTINUOUS
 62
     7
  5
90
 10
-216.970026
 20
197.230388
 30
0.0
 11
-216.970026
 21
197.474803
 31
0.0
  0
LINE
  8
0
  6
CONTINUOUS
 62
     7
  5
91
 10
539.029974
 20
197.230388
 30
0.0
 11
539.029974
 21
197.474803
 31
0.0
  0
LINE
  8
0
  6
CONTINUOUS
 62
     7
  5
92
 10
539.029974
 20
220.230624
 30
0.0
 11
491.029974
 21
220.230624
 31
0.0
  0
LINE
  8
0
  6
CONTINUOUS
 62
     7
  5
93
 10
291.029974
 20
220.230624
 30
0.0
 11
-216.970026
 21
220.230624
 31
0.0
  0
LINE
  8
0
  6
CONTINUOUS
 62
     7
  5
94
 10
-216.970026
 20
219.987206
 30
0.0
 11
-216.970026
 21
220.230624
 31
0.0
  0
LINE
  8
0
  6
CONTINUOUS
 62
     7
  5
95
 10
539.029974
 20
219.987206
 30
0.0
 11
539.029974
 21
220.230624
 31
0.0
  0
LINE
  8
0
  6
CONTINUOUS
 62
     7
  5
96
 10
521.529974
 20
176.73051
 30
0.0
 11
497.529974
 21
176.73051
 31
0.0
  0
LINE
  8
0
  6
CONTINUOUS
 62
     7
  5
97
 10
521.529974
 20
173.73051
 30
0.0
 11
521.529974
 21
176.73051
 31
0.0
  0
LINE
  8
0
  6
CONTINUOUS
 62
     7
  5
98
 10
497.529974
 20
173.73051
 30
0.0
 11
521.529974
 21
173.73051
 31
0.0
  0
LINE
  8
0
  6
CONTINUOUS
 62
     7
  5
99
 10
497.529974
 20
176.73051
 30
0.0
 11
497.529974
 21
173.73051
 31
0.0
  0
LINE
  8
0
  6
CONTINUOUS
 62
     7
  5
9A
 10
497.529974
 20
160.73051
 30
0.0
 11
521.529974
 21
160.73051
 31
0.0
  0
LINE
  8
0
  6
CONTINUOUS
 62
     7
  5
9B
 10
497.529974
 20
163.73051
 30
0.0
 11
497.529974
 21
160.73051
 31
0.0
  0
LINE
  8
0
  6
CONTINUOUS
 62
     7
  5
9C
 10
521.529974
 20
163.73051
 30
0.0
 11
497.529974
 21
163.73051
 31
0.0
  0
LINE
  8
0
  6
CONTINUOUS
 62
     7
  5
9D
 10
521.529974
 20
160.73051
 30
0.0
 11
521.529974
 21
163.73051
 31
0.0
  0
LINE
  8
0
  6
CONTINUOUS
 62
     7
  5
9E
 10
521.529974
 20
173.73051
 30
0.0
 11
521.529974
 21
163.73051
 31
0.0
  0
LINE
  8
0
  6
CONTINUOUS
 62
     7
  5
9F
 10
497.529974
 20
163.73051
 30
0.0
 11
497.529974
 21
173.73051
 31
0.0
  0
LINE
  8
0
  6
CONTINUOUS
 62
     7
  5
A0
 10
491.529974
 20
174.73051
 30
0.0
 11
491.529974
 21
162.73051
 31
0.0
  0
LINE
  8
0
  6
CONTINUOUS
 62
     9
  5
A1
 10
-229.970026
 20
108.73051
 30
0.0
 11
-229.970026
 21
110.73051
 31
0.0
  0
LINE
  8
0
  6
CONTINUOUS
 62
     9
  5
A2
 10
-229.970026
 20
110.73051
 30
0.0
 11
291.029974
 21
110.73051
 31
0.0
  0
LINE
  8
0
  6
CONTINUOUS
 62
     9
  5
A3
 10
296.283492
 20
110.73051
 30
0.0
 11
300.776455
 21
110.73051
 31
0.0
  0
LINE
  8
0
  6
CONTINUOUS
 62
     9
  5
A4
 10
481.283492
 20
110.73051
 30
0.0
 11
485.776455
 21
110.73051
 31
0.0
  0
LINE
  8
0
  6
CONTINUOUS
 62
     9
  5
A5
 10
491.029974
 20
110.73051
 30
0.0
 11
552.029974
 21
110.73051
 31
0.0
  0
LINE
  8
0
  6
CONTINUOUS
 62
     9
  5
A6
 10
552.029974
 20
108.73051
 30
0.0
 11
552.029974
 21
110.73051
 31
0.0
  0
LINE
  8
0
  6
CONTINUOUS
 62
     7
  5
A7
 10
552.029974
 20
108.73051
 30
0.0
 11
491.029974
 21
108.73051
 31
0.0
  0
LINE
  8
0
  6
CONTINUOUS
 62
     7
  5
A8
 10
485.776455
 20
108.73051
 30
0.0
 11
481.283492
 21
108.73051
 31
0.0
  0
LINE
  8
0
  6
CONTINUOUS
 62
     7
  5
A9
 10
300.776455
 20
108.73051
 30
0.0
 11
296.283492
 21
108.73051
 31
0.0
  0
LINE
  8
0
  6
CONTINUOUS
 62
     7
  5
AA
 10
291.029974
 20
108.73051
 30
0.0
 11
-229.970026
 21
108.73051
 31
0.0
  0
LINE
  8
0
  6
CONTINUOUS
 62
     9
  5
AB
 10
554.029974
 20
226.73051
 30
0.0
 11
552.029974
 21
226.73051
 31
0.0
  0
LINE
  8
0
  6
CONTINUOUS
 62
     9
  5
AC
 10
552.029974
 20
226.73051
 30
0.0
 11
552.029974
 21
228.73051
 31
0.0
  0
ARC
  8
0
  6
CONTINUOUS
 62
     7
  5
AD
 10
552.029974
 20
226.73051
 30
0.0
 40
2.0
 50
0.0
 51
90.0
210
0.0
220
0.0
230
1.0
  0
LINE
  8
0
  6
CONTINUOUS
 62
     9
  5
AE
 10
-229.970026
 20
110.73051
 30
0.0
 11
-229.970026
 21
226.73051
 31
0.0
  0
LINE
  8
0
  6
CONTINUOUS
 62
     9
  5
AF
 10
-229.970026
 20
110.73051
 30
0.0
 11
-231.970026
 21
110.73051
 31
0.0
  0
LINE
  8
0
  6
CONTINUOUS
 62
     7
  5
B0
 10
-231.970026
 20
226.73051
 30
0.0
 11
-231.970026
 21
110.73051
 31
0.0
  0
LINE
  8
0
  6
CONTINUOUS
 62
     9
  5
B1
 10
-231.970026
 20
226.73051
 30
0.0
 11
-229.970026
 21
226.73051
 31
0.0
  0
LINE
  8
0
  6
CONTINUOUS
 62
     9
  5
B2
 10
552.029974
 20
226.73051
 30
0.0
 11
491.029974
 21
226.73051
 31
0.0
  0
LINE
  8
0
  6
CONTINUOUS
 62
     9
  5
B3
 10
291.029974
 20
226.73051
 30
0.0
 11
-229.970026
 21
226.73051
 31
0.0
  0
LINE
  8
0
  6
CONTINUOUS
 62
     9
  5
B4
 10
552.029974
 20
110.73051
 30
0.0
 11
552.029974
 21
226.73051
 31
0.0
  0
ARC
  8
0
  6
CONTINUOUS
 62
     7
  5
B5
 10
-229.970026
 20
110.73051
 30
0.0
 40
2.0
 50
180.0
 51
270.0
210
0.0
220
0.0
230
1.0
  0
LINE
  8
0
  6
CONTINUOUS
 62
     9
  5
B6
 10
-229.970026
 20
226.73051
 30
0.0
 11
-229.970026
 21
228.73051
 31
0.0
  0
ARC
  8
0
  6
CONTINUOUS
 62
     7
  5
B7
 10
-229.970026
 20
226.73051
 30
0.0
 40
2.0
 50
90.0
 51
180.0
210
0.0
220
0.0
230
1.0
  0
LINE
  8
0
  6
CONTINUOUS
 62
     9
  5
B8
 10
552.029974
 20
110.73051
 30
0.0
 11
554.029974
 21
110.73051
 31
0.0
  0
ARC
  8
0
  6
CONTINUOUS
 62
     7
  5
B9
 10
552.029974
 20
110.73051
 30
0.0
 40
2.0
 50
270.0
 51
360.0
210
0.0
220
0.0
230
1.0
  0
LINE
  8
0
  6
CONTINUOUS
 62
     7
  5
BA
 10
554.029974
 20
226.73051
 30
0.0
 11
554.029974
 21
110.73051
 31
0.0
  0
LINE
  8
0
  6
CONTINUOUS
 62
     7
  5
BB
 10
-229.970026
 20
228.73051
 30
0.0
 11
291.029974
 21
228.73051
 31
0.0
  0
LINE
  8
0
  6
CONTINUOUS
 62
     7
  5
BC
 10
491.029974
 20
228.73051
 30
0.0
 11
552.029974
 21
228.73051
 31
0.0
  0
ARC
  8
0
  6
CONTINUOUS
 62
     7
  5
BD
 10
276.846946
 20
213.829926
 30
0.0
 40
6.0
 50
339.128178
 51
1.538253
210
0.0
220
0.0
230
1.0
  0
ARC
  8
0
  6
CONTINUOUS
 62
     7
  5
BE
 10
292.373494
 20
220.261242
 30
0.0
 40
6.0
 50
223.461807
 51
245.871882
210
0.0
220
0.0
230
1.0
  0
LINE
  8
0
  6
CONTINUOUS
 62
     7
  5
BF
 10
290.335454
 20
213.784434
 30
0.0
 11
289.920823
 21
214.78544
 31
0.0
  0
LINE
  8
0
  6
CONTINUOUS
 62
     7
  5
C0
 10
282.453225
 20
211.692255
 30
0.0
 11
282.867856
 21
210.691249
 31
0.0
  0
ARC
  8
0
  6
CONTINUOUS
 62
     7
  5
C1
 10
489.686454
 20
220.261242
 30
0.0
 40
6.0
 50
294.128118
 51
316.538193
210
0.0
220
0.0
230
1.0
  0
ARC
  8
0
  6
CONTINUOUS
 62
     7
  5
C2
 10
505.213001
 20
213.829926
 30
0.0
 40
6.0
 50
178.461747
 51
200.871822
210
0.0
220
0.0
230
1.0
  0
LINE
  8
0
  6
CONTINUOUS
 62
     7
  5
C3
 10
282.867856
 20
210.691249
 30
0.0
 11
284.015997
 21
210.215673
 31
0.0
  0
LINE
  8
0
  6
CONTINUOUS
 62
     7
  5
C4
 10
284.015997
 20
210.215673
 30
0.0
 11
284.016305
 21
210.215545
 31
0.0
  0
LINE
  8
0
  6
CONTINUOUS
 62
     7
  5
C5
 10
289.898699
 20
212.73001
 30
0.0
 11
289.898907
 21
212.730512
 31
0.0
  0
LINE
  8
0
  6
CONTINUOUS
 62
     7
  5
C6
 10
289.898907
 20
212.730512
 30
0.0
 11
290.335454
 21
213.784434
 31
0.0
  0
LINE
  8
0
  6
CONTINUOUS
 62
     7
  5
C7
 10
499.192091
 20
210.691249
 30
0.0
 11
499.606722
 21
211.692255
 31
0.0
  0
LINE
  8
0
  6
CONTINUOUS
 62
     7
  5
C8
 10
492.139124
 20
214.78544
 30
0.0
 11
491.724493
 21
213.784434
 31
0.0
  0
LINE
  8
0
  6
CONTINUOUS
 62
     7
  5
C9
 10
491.724493
 20
213.784434
 30
0.0
 11
492.16104
 21
212.730512
 31
0.0
  0
LINE
  8
0
  6
CONTINUOUS
 62
     7
  5
CA
 10
492.16104
 20
212.730512
 30
0.0
 11
492.161248
 21
212.73001
 31
0.0
  0
LINE
  8
0
  6
CONTINUOUS
 62
     7
  5
CB
 10
498.043642
 20
210.215545
 30
0.0
 11
498.043951
 21
210.215673
 31
0.0
  0
LINE
  8
0
  6
CONTINUOUS
 62
     7
  5
CC
 10
498.043951
 20
210.215673
 30
0.0
 11
499.192091
 21
210.691249
 31
0.0
  0
ARC
  8
0
  6
CONTINUOUS
 62
     7
  5
CD
 10
494.329884
 20
208.730511
 30
0.0
 40
4.0
 50
270.0
 51
360.0
210
0.0
220
0.0
230
1.0
  0
ARC
  8
0
  6
CONTINUOUS
 62
     7
  5
CE
 10
494.329884
 20
208.730511
 30
0.0
 40
4.0
 50
0.0
 51
21.799499
210
0.0
220
0.0
230
1.0
  0
LINE
  8
0
  6
CONTINUOUS
 62
     7
  5
CF
 10
291.029974
 20
212.730512
 30
0.0
 11
289.898907
 21
212.730512
 31
0.0
  0
LINE
  8
0
  6
CONTINUOUS
 62
     7
  5
D0
 10
289.898907
 20
212.730512
 30
0.0
 11
289.8984
 21
212.730512
 31
0.0
  0
LINE
  8
0
  6
CONTINUOUS
 62
     7
  5
D1
 10
287.730064
 20
204.73051
 30
0.0
 11
291.029974
 21
204.73051
 31
0.0
  0
LINE
  8
0
  6
CONTINUOUS
 62
     7
  5
D2
 10
491.029974
 20
204.73051
 30
0.0
 11
494.329884
 21
204.73051
 31
0.0
  0
LINE
  8
0
  6
CONTINUOUS
 62
     7
  5
D3
 10
492.161547
 20
212.730512
 30
0.0
 11
492.16104
 21
212.730512
 31
0.0
  0
LINE
  8
0
  6
CONTINUOUS
 62
     7
  5
D4
 10
492.16104
 20
212.730512
 30
0.0
 11
491.029974
 21
212.730512
 31
0.0
  0
ARC
  8
0
  6
CONTINUOUS
 62
     7
  5
D5
 10
287.730064
 20
208.730511
 30
0.0
 40
4.0
 50
158.200501
 51
270.0
210
0.0
220
0.0
230
1.0
  0
LINE
  8
0
  6
CONTINUOUS
 62
     7
  5
D6
 10
500.345453
 20
215.413118
 30
0.0
 11
500.54721
 21
218.25207
 31
0.0
  0
LINE
  8
0
  6
CONTINUOUS
 62
     7
  5
D7
 10
496.112594
 20
220.088951
 30
0.0
 11
494.247813
 21
217.938846
 31
0.0
  0
LINE
  8
0
  6
CONTINUOUS
 62
     7
  5
D8
 10
287.812134
 20
217.938846
 30
0.0
 11
285.947353
 21
220.088951
 31
0.0
  0
LINE
  8
0
  6
CONTINUOUS
 62
     7
  5
D9
 10
281.512737
 20
218.25207
 30
0.0
 11
281.714495
 21
215.413118
 31
0.0
  0
ARC
  8
0
  6
CONTINUOUS
 62
     7
  5
DA
 10
497.296634
 20
216.676037
 30
0.0
 40
3.299999
 50
157.500853
 51
189.453589
210
0.0
220
0.0
230
1.0
  0
ARC
  8
0
  6
CONTINUOUS
 62
     7
  5
DB
 10
497.296671
 20
216.676021
 30
0.0
 40
3.299999
 50
305.546351
 51
337.499087
210
0.0
220
0.0
230
1.0
  0
ARC
  8
0
  6
CONTINUOUS
 62
     7
  5
DC
 10
284.763276
 20
216.676021
 30
0.0
 40
3.299999
 50
202.500913
 51
234.453649
210
0.0
220
0.0
230
1.0
  0
ARC
  8
0
  6
CONTINUOUS
 62
     7
  5
DD
 10
284.763314
 20
216.676037
 30
0.0
 40
3.299999
 50
350.546411
 51
22.499147
210
0.0
220
0.0
230
1.0
  0
LINE
  8
0
  6
CONTINUOUS
 62
     7
  5
DE
 10
291.029974
 20
173.23051
 30
0.0
 11
288.529974
 21
173.23051
 31
0.0
  0
LINE
  8
0
  6
CONTINUOUS
 62
     7
  5
DF
 10
288.529974
 20
161.23051
 30
0.0
 11
291.029974
 21
161.23051
 31
0.0
  0
LINE
  8
0
  6
CONTINUOUS
 62
     7
  5
E0
 10
534.029974
 20
153.23051
 30
0.0
 11
491.029974
 21
153.23051
 31
0.0
  0
LINE
  8
0
  6
CONTINUOUS
 62
     7
  5
E1
 10
491.029974
 20
136.23051
 30
0.0
 11
534.029974
 21
136.23051
 31
0.0
  0
LINE
  8
0
  6
CONTINUOUS
 62
     7
  5
E2
 10
491.529974
 20
162.73051
 30
0.0
 11
497.529974
 21
162.73051
 31
0.0
  0
LINE
  8
0
  6
CONTINUOUS
 62
     7
  5
E3
 10
497.529974
 20
174.73051
 30
0.0
 11
491.529974
 21
174.73051
 31
0.0
  0
ENDBLK
  8
0
  5
E4
  0
BLOCK
  8
0
  5
E7
  2
AID387
 70
     0
 10
0.0
 20
0.0
 30
0.0
  3
#auxiliary draft view
  0
LINE
  8
0
  6
CONTINUOUS
 62
     7
  5
E8
 10
480.529974
 20
-170.619748
 30
0.0
 11
409.529974
 21
-170.619748
 31
0.0
  0
LINE
  8
0
  6
CONTINUOUS
 62
     7
  5
E9
 10
480.529974
 20
-170.969745
 30
0.0
 11
480.529974
 21
-170.619748
 31
0.0
  0
LINE
  8
0
  6
CONTINUOUS
 62
     7
  5
EA
 10
480.529974
 20
-170.969745
 30
0.0
 11
409.529974
 21
-170.969745
 31
0.0
  0
LINE
  8
0
  6
CONTINUOUS
 62
     7
  5
EB
 10
409.529974
 20
-170.969745
 30
0.0
 11
409.529974
 21
-170.619748
 31
0.0
  0
LINE
  8
0
  6
CONTINUOUS
 62
     7
  5
EC
 10
372.529974
 20
-164.619783
 30
0.0
 11
372.529974
 21
-164.219778
 31
0.0
  0
LINE
  8
0
  6
CONTINUOUS
 62
     7
  5
ED
 10
301.529974
 20
-164.619783
 30
0.0
 11
372.529974
 21
-164.619783
 31
0.0
  0
LINE
  8
0
  6
CONTINUOUS
 62
     7
  5
EE
 10
301.529974
 20
-164.219778
 30
0.0
 11
291.029974
 21
-164.219778
 31
0.0
  0
LINE
  8
0
  6
CONTINUOUS
 62
     7
  5
EF
 10
291.029974
 20
-162.219763
 30
0.0
 11
291.029974
 21
-164.219778
 31
0.0
  0
LINE
  8
0
  6
CONTINUOUS
 62
     7
  5
F0
 10
291.029974
 20
-162.219763
 30
0.0
 11
383.029974
 21
-162.219763
 31
0.0
  0
LINE
  8
0
  6
CONTINUOUS
 62
     7
  5
F1
 10
383.029974
 20
-162.219763
 30
0.0
 11
383.029974
 21
-164.219778
 31
0.0
  0
LINE
  8
0
  6
CONTINUOUS
 62
     7
  5
F2
 10
372.529974
 20
-164.219778
 30
0.0
 11
383.029974
 21
-164.219778
 31
0.0
  0
LINE
  8
0
  6
CONTINUOUS
 62
     7
  5
F3
 10
301.529974
 20
-164.619783
 30
0.0
 11
301.529974
 21
-164.219778
 31
0.0
  0
LINE
  8
0
  6
CONTINUOUS
 62
     7
  5
F4
 10
301.529974
 20
-170.969745
 30
0.0
 11
372.529974
 21
-170.969745
 31
0.0
  0
LINE
  8
0
  6
CONTINUOUS
 62
     7
  5
F5
 10
301.529974
 20
-170.619748
 30
0.0
 11
372.529974
 21
-170.619748
 31
0.0
  0
LINE
  8
0
  6
CONTINUOUS
 62
     7
  5
F6
 10
372.529974
 20
-170.969745
 30
0.0
 11
372.529974
 21
-170.619748
 31
0.0
  0
LINE
  8
0
  6
CONTINUOUS
 62
     7
  5
F7
 10
301.529974
 20
-170.969745
 30
0.0
 11
301.529974
 21
-170.619748
 31
0.0
  0
LINE
  8
0
  6
CONTINUOUS
 62
     7
  5
F8
 10
399.029974
 20
-162.219763
 30
0.0
 11
399.029974
 21
-164.219778
 31
0.0
  0
LINE
  8
0
  6
CONTINUOUS
 62
     7
  5
F9
 10
491.029974
 20
-162.219763
 30
0.0
 11
399.029974
 21
-162.219763
 31
0.0
  0
LINE
  8
0
  6
CONTINUOUS
 62
     7
  5
FA
 10
491.029974
 20
-162.219763
 30
0.0
 11
491.029974
 21
-164.219778
 31
0.0
  0
LINE
  8
0
  6
CONTINUOUS
 62
     7
  5
FB
 10
480.529974
 20
-164.219778
 30
0.0
 11
491.029974
 21
-164.219778
 31
0.0
  0
LINE
  8
0
  6
CONTINUOUS
 62
     7
  5
FC
 10
480.529974
 20
-164.619783
 30
0.0
 11
480.529974
 21
-164.219778
 31
0.0
  0
LINE
  8
0
  6
CONTINUOUS
 62
     7
  5
FD
 10
480.529974
 20
-164.619783
 30
0.0
 11
409.529974
 21
-164.619783
 31
0.0
  0
LINE
  8
0
  6
CONTINUOUS
 62
     7
  5
FE
 10
409.529974
 20
-164.219778
 30
0.0
 11
399.029974
 21
-164.219778
 31
0.0
  0
LINE
  8
0
  6
CONTINUOUS
 62
     7
  5
FF
 10
409.529974
 20
-164.619783
 30
0.0
 11
409.529974
 21
-164.219778
 31
0.0
  0
LINE
  8
0
  6
CONTINUOUS
 62
     7
  5
100
 10
372.529974
 20
-170.619748
 30
0.0
 11
372.529974
 21
-164.619783
 31
0.0
  0
LINE
  8
0
  6
CONTINUOUS
 62
     7
  5
101
 10
301.529974
 20
-170.619748
 30
0.0
 11
301.529974
 21
-164.619783
 31
0.0
  0
LINE
  8
0
  6
CONTINUOUS
 62
     7
  5
102
 10
480.529974
 20
-170.619748
 30
0.0
 11
480.529974
 21
-164.619783
 31
0.0
  0
LINE
  8
0
  6
CONTINUOUS
 62
     7
  5
103
 10
409.529974
 20
-170.619748
 30
0.0
 11
409.529974
 21
-164.619783
 31
0.0
  0
LINE
  8
0
  6
CONTINUOUS
 62
     7
  5
104
 10
291.029974
 20
-196.419762
 30
0.0
 11
291.029974
 21
-215.419762
 31
0.0
  0
LINE
  8
0
  6
CONTINUOUS
 62
     7
  5
105
 10
291.029974
 20
-196.419762
 30
0.0
 11
491.029974
 21
-196.419762
 31
0.0
  0
LINE
  8
0
  6
CONTINUOUS
 62
     7
  5
106
 10
491.029974
 20
-196.419762
 30
0.0
 11
491.029974
 21
-215.419762
 31
0.0
  0
LINE
  8
0
  6
CONTINUOUS
 62
     7
  5
107
 10
291.029974
 20
-215.419762
 30
0.0
 11
491.029974
 21
-215.419762
 31
0.0
  0
LINE
  8
0
  6
CONTINUOUS
 62
     7
  5
108
 10
301.529974
 20
-194.919739
 30
0.0
 11
372.529974
 21
-194.919739
 31
0.0
  0
LINE
  8
0
  6
CONTINUOUS
 62
     7
  5
109
 10
301.529974
 20
-188.419806
 30
0.0
 11
372.529974
 21
-188.419806
 31
0.0
  0
LINE
  8
0
  6
CONTINUOUS
 62
     7
  5
10A
 10
372.529974
 20
-194.919739
 30
0.0
 11
372.529974
 21
-188.419806
 31
0.0
  0
LINE
  8
0
  6
CONTINUOUS
 62
     7
  5
10B
 10
301.529974
 20
-194.919739
 30
0.0
 11
301.529974
 21
-188.419806
 31
0.0
  0
LINE
  8
0
  6
CONTINUOUS
 62
     7
  5
10C
 10
480.529974
 20
-188.169811
 30
0.0
 11
409.529974
 21
-188.169811
 31
0.0
  0
LINE
  8
0
  6
CONTINUOUS
 62
     7
  5
10D
 10
480.529974
 20
-188.419806
 30
0.0
 11
409.529974
 21
-188.419806
 31
0.0
  0
LINE
  8
0
  6
CONTINUOUS
 62
     7
  5
10E
 10
480.529974
 20
-188.419806
 30
0.0
 11
480.529974
 21
-188.169811
 31
0.0
  0
LINE
  8
0
  6
CONTINUOUS
 62
     7
  5
10F
 10
409.529974
 20
-188.419806
 30
0.0
 11
409.529974
 21
-188.169811
 31
0.0
  0
LINE
  8
0
  6
CONTINUOUS
 62
     7
  5
110
 10
480.529974
 20
-194.919739
 30
0.0
 11
409.529974
 21
-194.919739
 31
0.0
  0
LINE
  8
0
  6
CONTINUOUS
 62
     7
  5
111
 10
480.529974
 20
-194.919739
 30
0.0
 11
480.529974
 21
-188.419806
 31
0.0
  0
LINE
  8
0
  6
CONTINUOUS
 62
     7
  5
112
 10
409.529974
 20
-194.919739
 30
0.0
 11
409.529974
 21
-188.419806
 31
0.0
  0
LINE
  8
0
  6
CONTINUOUS
 62
     7
  5
113
 10
372.529974
 20
-196.419762
 30
0.0
 11
372.529974
 21
-194.919739
 31
0.0
  0
LINE
  8
0
  6
CONTINUOUS
 62
     7
  5
114
 10
301.529974
 20
-196.419762
 30
0.0
 11
301.529974
 21
-194.919739
 31
0.0
  0
LINE
  8
0
  6
CONTINUOUS
 62
     7
  5
115
 10
301.529974
 20
-188.169811
 30
0.0
 11
372.529974
 21
-188.169811
 31
0.0
  0
LINE
  8
0
  6
CONTINUOUS
 62
     7
  5
116
 10
372.529974
 20
-188.419806
 30
0.0
 11
372.529974
 21
-188.169811
 31
0.0
  0
LINE
  8
0
  6
CONTINUOUS
 62
     7
  5
117
 10
301.529974
 20
-188.419806
 30
0.0
 11
301.529974
 21
-188.169811
 31
0.0
  0
LINE
  8
0
  6
CONTINUOUS
 62
     7
  5
118
 10
480.529974
 20
-196.419762
 30
0.0
 11
480.529974
 21
-194.919739
 31
0.0
  0
LINE
  8
0
  6
CONTINUOUS
 62
     7
  5
119
 10
409.529974
 20
-196.419762
 30
0.0
 11
409.529974
 21
-194.919739
 31
0.0
  0
LINE
  8
0
  6
CONTINUOUS
 62
     7
  5
11A
 10
480.529974
 20
-188.169811
 30
0.0
 11
480.529974
 21
-170.969745
 31
0.0
  0
LINE
  8
0
  6
CONTINUOUS
 62
     7
  5
11B
 10
409.529974
 20
-188.169811
 30
0.0
 11
409.529974
 21
-170.969745
 31
0.0
  0
LINE
  8
0
  6
CONTINUOUS
 62
     7
  5
11C
 10
372.529974
 20
-188.169811
 30
0.0
 11
372.529974
 21
-170.969745
 31
0.0
  0
LINE
  8
0
  6
CONTINUOUS
 62
     7
  5
11D
 10
301.529974
 20
-188.169811
 30
0.0
 11
301.529974
 21
-170.969745
 31
0.0
  0
LINE
  8
0
  6
CONTINUOUS
 62
     7
  5
11E
 10
301.529974
 20
-189.419736
 30
0.0
 11
291.029974
 21
-189.419736
 31
0.0
  0
LINE
  8
0
  6
CONTINUOUS
 62
     7
  5
11F
 10
301.529974
 20
-191.419758
 30
0.0
 11
291.029974
 21
-191.419758
 31
0.0
  0
LINE
  8
0
  6
CONTINUOUS
 62
     7
  5
120
 10
291.029974
 20
-189.419736
 30
0.0
 11
291.029974
 21
-191.419758
 31
0.0
  0
LINE
  8
0
  6
CONTINUOUS
 62
     7
  5
121
 10
291.029974
 20
-164.219778
 30
0.0
 11
291.029974
 21
-189.419736
 31
0.0
  0
LINE
  8
0
  6
CONTINUOUS
 62
     7
  5
122
 10
372.529974
 20
-189.419736
 30
0.0
 11
383.029974
 21
-189.419736
 31
0.0
  0
LINE
  8
0
  6
CONTINUOUS
 62
     7
  5
123
 10
383.029974
 20
-164.219778
 30
0.0
 11
383.029974
 21
-189.419736
 31
0.0
  0
LINE
  8
0
  6
CONTINUOUS
 62
     7
  5
124
 10
409.529974
 20
-191.419758
 30
0.0
 11
399.029974
 21
-191.419758
 31
0.0
  0
LINE
  8
0
  6
CONTINUOUS
 62
     7
  5
125
 10
399.029974
 20
-189.419736
 30
0.0
 11
399.029974
 21
-191.419758
 31
0.0
  0
LINE
  8
0
  6
CONTINUOUS
 62
     7
  5
126
 10
409.529974
 20
-189.419736
 30
0.0
 11
399.029974
 21
-189.419736
 31
0.0
  0
LINE
  8
0
  6
CONTINUOUS
 62
     7
  5
127
 10
480.529974
 20
-189.419736
 30
0.0
 11
491.029974
 21
-189.419736
 31
0.0
  0
LINE
  8
0
  6
CONTINUOUS
 62
     7
  5
128
 10
491.029974
 20
-164.219778
 30
0.0
 11
491.029974
 21
-189.419736
 31
0.0
  0
LINE
  8
0
  6
CONTINUOUS
 62
     7
  5
129
 10
372.529974
 20
-191.419758
 30
0.0
 11
383.029974
 21
-191.419758
 31
0.0
  0
LINE
  8
0
  6
CONTINUOUS
 62
     7
  5
12A
 10
383.029974
 20
-189.419736
 30
0.0
 11
383.029974
 21
-191.419758
 31
0.0
  0
LINE
  8
0
  6
CONTINUOUS
 62
     7
  5
12B
 10
480.529974
 20
-191.419758
 30
0.0
 11
491.029974
 21
-191.419758
 31
0.0
  0
LINE
  8
0
  6
CONTINUOUS
 62
     7
  5
12C
 10
491.029974
 20
-189.419736
 30
0.0
 11
491.029974
 21
-191.419758
 31
0.0
  0
LINE
  8
0
  6
CONTINUOUS
 62
     7
  5
12D
 10
399.029974
 20
-164.219778
 30
0.0
 11
399.029974
 21
-189.419736
 31
0.0
  0
POLYLINE
  8
0
  6
CONTINUOUS
 62
     7
  5
12E
 66
     1
 10
0.0
 20
0.0
 30
0.0
 40
0.5
 41
0.5
  0
VERTEX
  8
0
 62
     7
  5
12F
 10
500.54721
 20
-185.419758
 30
0.0
  0
VERTEX
  8
0
 62
     7
  5
130
 10
500.540217
 20
-185.22929
 30
0.0
  0
VERTEX
  8
0
 62
     7
  5
131
 10
500.51928
 20
-185.040024
 30
0.0
  0
VERTEX
  8
0
 62
     7
  5
132
 10
500.484532
 20
-184.853153
 30
0.0
  0
VERTEX
  8
0
 62
     7
  5
133
 10
500.436192
 20
-184.669856
 30
0.0
  0
VERTEX
  8
0
 62
     7
  5
134
 10
500.374566
 20
-184.49129
 30
0.0
  0
VERTEX
  8
0
 62
     7
  5
135
 10
500.300041
 20
-184.318581
 30
0.0
  0
VERTEX
  8
0
 62
     7
  5
136
 10
500.213088
 20
-184.152819
 30
0.0
  0
VERTEX
  8
0
 62
     7
  5
137
 10
500.114255
 20
-183.995048
 30
0.0
  0
SEQEND
  8
0
  5
138
  0
POLYLINE
  8
0
  6
CONTINUOUS
 62
     7
  5
139
 66
     1
 10
0.0
 20
0.0
 30
0.0
 40
0.5
 41
0.5
  0
VERTEX
  8
0
 62
     7
  5
13A
 10
500.114255
 20
-186.844469
 30
0.0
  0
VERTEX
  8
0
 62
     7
  5
13B
 10
500.213088
 20
-186.686698
 30
0.0
  0
VERTEX
  8
0
 62
     7
  5
13C
 10
500.300041
 20
-186.520936
 30
0.0
  0
VERTEX
  8
0
 62
     7
  5
13D
 10
500.374566
 20
-186.348226
 30
0.0
  0
VERTEX
  8
0
 62
     7
  5
13E
 10
500.436192
 20
-186.16966
 30
0.0
  0
VERTEX
  8
0
 62
     7
  5
13F
 10
500.484532
 20
-185.986364
 30
0.0
  0
VERTEX
  8
0
 62
     7
  5
140
 10
500.51928
 20
-185.799493
 30
0.0
  0
VERTEX
  8
0
 62
     7
  5
141
 10
500.540217
 20
-185.610226
 30
0.0
  0
VERTEX
  8
0
 62
     7
  5
142
 10
500.54721
 20
-185.419758
 30
0.0
  0
SEQEND
  8
0
  5
143
  0
POLYLINE
  8
0
  6
CONTINUOUS
 62
     7
  5
144
 66
     1
 10
0.0
 20
0.0
 30
0.0
 40
0.5
 41
0.5
  0
VERTEX
  8
0
 62
     7
  5
145
 10
500.114255
 20
-183.995048
 30
0.0
  0
VERTEX
  8
0
 62
     7
  5
146
 10
499.998208
 20
-183.838868
 30
0.0
  0
VERTEX
  8
0
 62
     7
  5
147
 10
499.870526
 20
-183.693713
 30
0.0
  0
VERTEX
  8
0
 62
     7
  5
148
 10
499.7321
 20
-183.560595
 30
0.0
  0
VERTEX
  8
0
 62
     7
  5
149
 10
499.583895
 20
-183.440442
 30
0.0
  0
VERTEX
  8
0
 62
     7
  5
14A
 10
499.426945
 20
-183.334094
 30
0.0
  0
VERTEX
  8
0
 62
     7
  5
14B
 10
499.262344
 20
-183.24229
 30
0.0
  0
VERTEX
  8
0
 62
     7
  5
14C
 10
499.091241
 20
-183.165673
 30
0.0
  0
VERTEX
  8
0
 62
     7
  5
14D
 10
498.914828
 20
-183.104775
 30
0.0
  0
VERTEX
  8
0
 62
     7
  5
14E
 10
498.734335
 20
-183.060021
 30
0.0
  0
VERTEX
  8
0
 62
     7
  5
14F
 10
498.551023
 20
-183.031724
 30
0.0
  0
VERTEX
  8
0
 62
     7
  5
150
 10
498.366168
 20
-183.020082
 30
0.0
  0
VERTEX
  8
0
 62
     7
  5
151
 10
498.18106
 20
-183.025174
 30
0.0
  0
VERTEX
  8
0
 62
     7
  5
152
 10
497.99699
 20
-183.046966
 30
0.0
  0
VERTEX
  8
0
 62
     7
  5
153
 10
497.815242
 20
-183.085306
 30
0.0
  0
VERTEX
  8
0
 62
     7
  5
154
 10
497.637083
 20
-183.139926
 30
0.0
  0
VERTEX
  8
0
 62
     7
  5
155
 10
497.463756
 20
-183.210445
 30
0.0
  0
VERTEX
  8
0
 62
     7
  5
156
 10
497.296469
 20
-183.296372
 30
0.0
  0
VERTEX
  8
0
 62
     7
  5
157
 10
497.13639
 20
-183.397108
 30
0.0
  0
VERTEX
  8
0
 62
     7
  5
158
 10
496.984633
 20
-183.511949
 30
0.0
  0
VERTEX
  8
0
 62
     7
  5
159
 10
496.842259
 20
-183.640095
 30
0.0
  0
VERTEX
  8
0
 62
     7
  5
15A
 10
496.710259
 20
-183.780652
 30
0.0
  0
VERTEX
  8
0
 62
     7
  5
15B
 10
496.589555
 20
-183.932641
 30
0.0
  0
VERTEX
  8
0
 62
     7
  5
15C
 10
496.480988
 20
-184.095
 30
0.0
  0
VERTEX
  8
0
 62
     7
  5
15D
 10
496.385315
 20
-184.266599
 30
0.0
  0
VERTEX
  8
0
 62
     7
  5
15E
 10
496.303203
 20
-184.446239
 30
0.0
  0
VERTEX
  8
0
 62
     7
  5
15F
 10
496.235225
 20
-184.632668
 30
0.0
  0
VERTEX
  8
0
 62
     7
  5
160
 10
496.181856
 20
-184.824587
 30
0.0
  0
VERTEX
  8
0
 62
     7
  5
161
 10
496.143467
 20
-185.020657
 30
0.0
  0
VERTEX
  8
0
 62
     7
  5
162
 10
496.120325
 20
-185.219509
 30
0.0
  0
VERTEX
  8
0
 62
     7
  5
163
 10
496.112594
 20
-185.419758
 30
0.0
  0
VERTEX
  8
0
 62
     7
  5
164
 10
496.120325
 20
-185.620008
 30
0.0
  0
VERTEX
  8
0
 62
     7
  5
165
 10
496.143467
 20
-185.81886
 30
0.0
  0
VERTEX
  8
0
 62
     7
  5
166
 10
496.181856
 20
-186.01493
 30
0.0
  0
VERTEX
  8
0
 62
     7
  5
167
 10
496.235225
 20
-186.206848
 30
0.0
  0
VERTEX
  8
0
 62
     7
  5
168
 10
496.303203
 20
-186.393278
 30
0.0
  0
VERTEX
  8
0
 62
     7
  5
169
 10
496.385315
 20
-186.572918
 30
0.0
  0
VERTEX
  8
0
 62
     7
  5
16A
 10
496.480988
 20
-186.744516
 30
0.0
  0
VERTEX
  8
0
 62
     7
  5
16B
 10
496.589555
 20
-186.906876
 30
0.0
  0
VERTEX
  8
0
 62
     7
  5
16C
 10
496.710259
 20
-187.058864
 30
0.0
  0
VERTEX
  8
0
 62
     7
  5
16D
 10
496.842259
 20
-187.199422
 30
0.0
  0
VERTEX
  8
0
 62
     7
  5
16E
 10
496.984633
 20
-187.327568
 30
0.0
  0
VERTEX
  8
0
 62
     7
  5
16F
 10
497.13639
 20
-187.442409
 30
0.0
  0
VERTEX
  8
0
 62
     7
  5
170
 10
497.296469
 20
-187.543145
 30
0.0
  0
VERTEX
  8
0
 62
     7
  5
171
 10
497.463756
 20
-187.629072
 30
0.0
  0
VERTEX
  8
0
 62
     7
  5
172
 10
497.637083
 20
-187.699591
 30
0.0
  0
VERTEX
  8
0
 62
     7
  5
173
 10
497.815242
 20
-187.754211
 30
0.0
  0
VERTEX
  8
0
 62
     7
  5
174
 10
497.99699
 20
-187.792551
 30
0.0
  0
VERTEX
  8
0
 62
     7
  5
175
 10
498.18106
 20
-187.814343
 30
0.0
  0
VERTEX
  8
0
 62
     7
  5
176
 10
498.366168
 20
-187.819435
 30
0.0
  0
VERTEX
  8
0
 62
     7
  5
177
 10
498.551023
 20
-187.807792
 30
0.0
  0
VERTEX
  8
0
 62
     7
  5
178
 10
498.734335
 20
-187.779496
 30
0.0
  0
VERTEX
  8
0
 62
     7
  5
179
 10
498.914828
 20
-187.734742
 30
0.0
  0
VERTEX
  8
0
 62
     7
  5
17A
 10
499.091241
 20
-187.673844
 30
0.0
  0
VERTEX
  8
0
 62
     7
  5
17B
 10
499.262344
 20
-187.597226
 30
0.0
  0
VERTEX
  8
0
 62
     7
  5
17C
 10
499.426945
 20
-187.505423
 30
0.0
  0
VERTEX
  8
0
 62
     7
  5
17D
 10
499.583895
 20
-187.399074
 30
0.0
  0
VERTEX
  8
0
 62
     7
  5
17E
 10
499.7321
 20
-187.278922
 30
0.0
  0
VERTEX
  8
0
 62
     7
  5
17F
 10
499.870526
 20
-187.145804
 30
0.0
  0
VERTEX
  8
0
 62
     7
  5
180
 10
499.998208
 20
-187.000649
 30
0.0
  0
VERTEX
  8
0
 62
     7
  5
181
 10
500.114255
 20
-186.844469
 30
0.0
  0
SEQEND
  8
0
  5
182
  0
POLYLINE
  8
0
  6
CONTINUOUS
 62
     7
  5
183
 66
     1
 10
0.0
 20
0.0
 30
0.0
 40
0.5
 41
0.5
  0
VERTEX
  8
0
 62
     7
  5
184
 10
499.750135
 20
-183.460768
 30
0.0
  0
VERTEX
  8
0
 62
     7
  5
185
 10
499.601759
 20
-183.259932
 30
0.0
  0
VERTEX
  8
0
 62
     7
  5
186
 10
499.439386
 20
-183.072211
 30
0.0
  0
VERTEX
  8
0
 62
     7
  5
187
 10
499.264001
 20
-182.898745
 30
0.0
  0
VERTEX
  8
0
 62
     7
  5
188
 10
499.07667
 20
-182.740587
 30
0.0
  0
VERTEX
  8
0
 62
     7
  5
189
 10
498.878531
 20
-182.598698
 30
0.0
  0
VERTEX
  8
0
 62
     7
  5
18A
 10
498.670785
 20
-182.473939
 30
0.0
  0
VERTEX
  8
0
 62
     7
  5
18B
 10
498.454696
 20
-182.367068
 30
0.0
  0
VERTEX
  8
0
 62
     7
  5
18C
 10
498.231574
 20
-182.278733
 30
0.0
  0
VERTEX
  8
0
 62
     7
  5
18D
 10
498.002775
 20
-182.209472
 30
0.0
  0
VERTEX
  8
0
 62
     7
  5
18E
 10
497.769688
 20
-182.159705
 30
0.0
  0
VERTEX
  8
0
 62
     7
  5
18F
 10
497.533729
 20
-182.129733
 30
0.0
  0
VERTEX
  8
0
 62
     7
  5
190
 10
497.29633
 20
-182.119739
 30
0.0
  0
SEQEND
  8
0
  5
191
  0
POLYLINE
  8
0
  6
CONTINUOUS
 62
     7
  5
192
 66
     1
 10
0.0
 20
0.0
 30
0.0
 40
0.5
 41
0.5
  0
VERTEX
  8
0
 62
     7
  5
193
 10
494.247813
 20
-185.419758
 30
0.0
  0
VERTEX
  8
0
 62
     7
  5
194
 10
494.257212
 20
-185.678677
 30
0.0
  0
VERTEX
  8
0
 62
     7
  5
195
 10
494.28535
 20
-185.935999
 30
0.0
  0
VERTEX
  8
0
 62
     7
  5
196
 10
494.332054
 20
-186.190139
 30
0.0
  0
VERTEX
  8
0
 62
     7
  5
197
 10
494.397035
 20
-186.439528
 30
0.0
  0
VERTEX
  8
0
 62
     7
  5
198
 10
494.479894
 20
-186.682631
 30
0.0
  0
VERTEX
  8
0
 62
     7
  5
199
 10
494.58012
 20
-186.917947
 30
0.0
  0
VERTEX
  8
0
 62
     7
  5
19A
 10
494.697094
 20
-187.144026
 30
0.0
  0
VERTEX
  8
0
 62
     7
  5
19B
 10
494.830095
 20
-187.359475
 30
0.0
  0
VERTEX
  8
0
 62
     7
  5
19C
 10
494.978304
 20
-187.562964
 30
0.0
  0
VERTEX
  8
0
 62
     7
  5
19D
 10
495.140805
 20
-187.753239
 30
0.0
  0
VERTEX
  8
0
 62
     7
  5
19E
 10
495.316599
 20
-187.929128
 30
0.0
  0
VERTEX
  8
0
 62
     7
  5
19F
 10
495.5046
 20
-188.089545
 30
0.0
  0
VERTEX
  8
0
 62
     7
  5
1A0
 10
495.70365
 20
-188.233502
 30
0.0
  0
VERTEX
  8
0
 62
     7
  5
1A1
 10
495.912522
 20
-188.36011
 30
0.0
  0
VERTEX
  8
0
 62
     7
  5
1A2
 10
496.129927
 20
-188.468591
 30
0.0
  0
VERTEX
  8
0
 62
     7
  5
1A3
 10
496.354525
 20
-188.558274
 30
0.0
  0
VERTEX
  8
0
 62
     7
  5
1A4
 10
496.584932
 20
-188.628606
 30
0.0
  0
VERTEX
  8
0
 62
     7
  5
1A5
 10
496.819727
 20
-188.679155
 30
0.0
  0
VERTEX
  8
0
 62
     7
  5
1A6
 10
497.057462
 20
-188.709608
 30
0.0
  0
VERTEX
  8
0
 62
     7
  5
1A7
 10
497.296671
 20
-188.719778
 30
0.0
  0
SEQEND
  8
0
  5
1A8
  0
POLYLINE
  8
0
  6
CONTINUOUS
 62
     7
  5
1A9
 66
     1
 10
0.0
 20
0.0
 30
0.0
 40
0.5
 41
0.5
  0
VERTEX
  8
0
 62
     7
  5
1AA
 10
285.947353
 20
-185.419758
 30
0.0
  0
VERTEX
  8
0
 62
     7
  5
1AB
 10
285.940558
 20
-185.607518
 30
0.0
  0
VERTEX
  8
0
 62
     7
  5
1AC
 10
285.920211
 20
-185.794128
 30
0.0
  0
VERTEX
  8
0
 62
     7
  5
1AD
 10
285.88644
 20
-185.978442
 30
0.0
  0
VERTEX
  8
0
 62
     7
  5
1AE
 10
285.83945
 20
-186.159332
 30
0.0
  0
VERTEX
  8
0
 62
     7
  5
1AF
 10
285.77953
 20
-186.335688
 30
0.0
  0
VERTEX
  8
0
 62
     7
  5
1B0
 10
285.707047
 20
-186.506429
 30
0.0
  0
VERTEX
  8
0
 62
     7
  5
1B1
 10
285.622445
 20
-186.67051
 30
0.0
  0
VERTEX
  8
0
 62
     7
  5
1B2
 10
285.526242
 20
-186.826923
 30
0.0
  0
VERTEX
  8
0
 62
     7
  5
1B3
 10
285.41903
 20
-186.974711
 30
0.0
  0
VERTEX
  8
0
 62
     7
  5
1B4
 10
285.301464
 20
-187.112967
 30
0.0
  0
VERTEX
  8
0
 62
     7
  5
1B5
 10
285.174265
 20
-187.240844
 30
0.0
  0
VERTEX
  8
0
 62
     7
  5
1B6
 10
285.038214
 20
-187.357558
 30
0.0
  0
VERTEX
  8
0
 62
     7
  5
1B7
 10
284.894144
 20
-187.462394
 30
0.0
  0
VERTEX
  8
0
 62
     7
  5
1B8
 10
284.742938
 20
-187.554709
 30
0.0
  0
VERTEX
  8
0
 62
     7
  5
1B9
 10
284.585523
 20
-187.633936
 30
0.0
  0
VERTEX
  8
0
 62
     7
  5
1BA
 10
284.422864
 20
-187.699591
 30
0.0
  0
VERTEX
  8
0
 62
     7
  5
1BB
 10
284.255958
 20
-187.751271
 30
0.0
  0
VERTEX
  8
0
 62
     7
  5
1BC
 10
284.085829
 20
-187.788659
 30
0.0
  0
VERTEX
  8
0
 62
     7
  5
1BD
 10
283.913518
 20
-187.811526
 30
0.0
  0
VERTEX
  8
0
 62
     7
  5
1BE
 10
283.740083
 20
-187.819732
 30
0.0
  0
VERTEX
  8
0
 62
     7
  5
1BF
 10
283.566586
 20
-187.813226
 30
0.0
  0
VERTEX
  8
0
 62
     7
  5
1C0
 10
283.394092
 20
-187.792049
 30
0.0
  0
VERTEX
  8
0
 62
     7
  5
1C1
 10
283.223656
 20
-187.756329
 30
0.0
  0
VERTEX
  8
0
 62
     7
  5
1C2
 10
283.056325
 20
-187.706287
 30
0.0
  0
VERTEX
  8
0
 62
     7
  5
1C3
 10
282.893124
 20
-187.642229
 30
0.0
  0
VERTEX
  8
0
 62
     7
  5
1C4
 10
282.735053
 20
-187.564548
 30
0.0
  0
VERTEX
  8
0
 62
     7
  5
1C5
 10
282.583081
 20
-187.473719
 30
0.0
  0
VERTEX
  8
0
 62
     7
  5
1C6
 10
282.438139
 20
-187.370299
 30
0.0
  0
VERTEX
  8
0
 62
     7
  5
1C7
 10
282.301117
 20
-187.254923
 30
0.0
  0
VERTEX
  8
0
 62
     7
  5
1C8
 10
282.172854
 20
-187.128298
 30
0.0
  0
VERTEX
  8
0
 62
     7
  5
1C9
 10
282.054137
 20
-186.9912
 30
0.0
  0
VERTEX
  8
0
 62
     7
  5
1CA
 10
281.945692
 20
-186.844469
 30
0.0
  0
SEQEND
  8
0
  5
1CB
  0
POLYLINE
  8
0
  6
CONTINUOUS
 62
     7
  5
1CC
 66
     1
 10
0.0
 20
0.0
 30
0.0
 40
0.5
 41
0.5
  0
VERTEX
  8
0
 62
     7
  5
1CD
 10
281.945692
 20
-183.995048
 30
0.0
  0
VERTEX
  8
0
 62
     7
  5
1CE
 10
282.054137
 20
-183.848317
 30
0.0
  0
VERTEX
  8
0
 62
     7
  5
1CF
 10
282.172854
 20
-183.711219
 30
0.0
  0
VERTEX
  8
0
 62
     7
  5
1D0
 10
282.301117
 20
-183.584593
 30
0.0
  0
VERTEX
  8
0
 62
     7
  5
1D1
 10
282.438139
 20
-183.469218
 30
0.0
  0
VERTEX
  8
0
 62
     7
  5
1D2
 10
282.583081
 20
-183.365798
 30
0.0
  0
VERTEX
  8
0
 62
     7
  5
1D3
 10
282.735053
 20
-183.274969
 30
0.0
  0
VERTEX
  8
0
 62
     7
  5
1D4
 10
282.893124
 20
-183.197288
 30
0.0
  0
VERTEX
  8
0
 62
     7
  5
1D5
 10
283.056325
 20
-183.13323
 30
0.0
  0
VERTEX
  8
0
 62
     7
  5
1D6
 10
283.223656
 20
-183.083187
 30
0.0
  0
VERTEX
  8
0
 62
     7
  5
1D7
 10
283.394092
 20
-183.047468
 30
0.0
  0
VERTEX
  8
0
 62
     7
  5
1D8
 10
283.566586
 20
-183.026291
 30
0.0
  0
VERTEX
  8
0
 62
     7
  5
1D9
 10
283.740083
 20
-183.019785
 30
0.0
  0
VERTEX
  8
0
 62
     7
  5
1DA
 10
283.913518
 20
-183.027991
 30
0.0
  0
VERTEX
  8
0
 62
     7
  5
1DB
 10
284.085829
 20
-183.050858
 30
0.0
  0
VERTEX
  8
0
 62
     7
  5
1DC
 10
284.255958
 20
-183.088246
 30
0.0
  0
VERTEX
  8
0
 62
     7
  5
1DD
 10
284.422864
 20
-183.139926
 30
0.0
  0
VERTEX
  8
0
 62
     7
  5
1DE
 10
284.585523
 20
-183.205581
 30
0.0
  0
VERTEX
  8
0
 62
     7
  5
1DF
 10
284.742938
 20
-183.284808
 30
0.0
  0
VERTEX
  8
0
 62
     7
  5
1E0
 10
284.894144
 20
-183.377123
 30
0.0
  0
VERTEX
  8
0
 62
     7
  5
1E1
 10
285.038214
 20
-183.481958
 30
0.0
  0
VERTEX
  8
0
 62
     7
  5
1E2
 10
285.174265
 20
-183.598672
 30
0.0
  0
VERTEX
  8
0
 62
     7
  5
1E3
 10
285.301464
 20
-183.726549
 30
0.0
  0
VERTEX
  8
0
 62
     7
  5
1E4
 10
285.41903
 20
-183.864806
 30
0.0
  0
VERTEX
  8
0
 62
     7
  5
1E5
 10
285.526242
 20
-184.012593
 30
0.0
  0
VERTEX
  8
0
 62
     7
  5
1E6
 10
285.622445
 20
-184.169007
 30
0.0
  0
VERTEX
  8
0
 62
     7
  5
1E7
 10
285.707047
 20
-184.333087
 30
0.0
  0
VERTEX
  8
0
 62
     7
  5
1E8
 10
285.77953
 20
-184.503829
 30
0.0
  0
VERTEX
  8
0
 62
     7
  5
1E9
 10
285.83945
 20
-184.680185
 30
0.0
  0
VERTEX
  8
0
 62
     7
  5
1EA
 10
285.88644
 20
-184.861075
 30
0.0
  0
VERTEX
  8
0
 62
     7
  5
1EB
 10
285.920211
 20
-185.045389
 30
0.0
  0
VERTEX
  8
0
 62
     7
  5
1EC
 10
285.940558
 20
-185.231998
 30
0.0
  0
VERTEX
  8
0
 62
     7
  5
1ED
 10
285.947353
 20
-185.419758
 30
0.0
  0
SEQEND
  8
0
  5
1EE
  0
POLYLINE
  8
0
  6
CONTINUOUS
 62
     7
  5
1EF
 66
     1
 10
0.0
 20
0.0
 30
0.0
 40
0.5
 41
0.5
  0
VERTEX
  8
0
 62
     7
  5
1F0
 10
281.945692
 20
-186.844469
 30
0.0
  0
VERTEX
  8
0
 62
     7
  5
1F1
 10
281.84686
 20
-186.686698
 30
0.0
  0
VERTEX
  8
0
 62
     7
  5
1F2
 10
281.759907
 20
-186.520936
 30
0.0
  0
VERTEX
  8
0
 62
     7
  5
1F3
 10
281.685382
 20
-186.348226
 30
0.0
  0
VERTEX
  8
0
 62
     7
  5
1F4
 10
281.623755
 20
-186.16966
 30
0.0
  0
VERTEX
  8
0
 62
     7
  5
1F5
 10
281.575415
 20
-185.986364
 30
0.0
  0
VERTEX
  8
0
 62
     7
  5
1F6
 10
281.540667
 20
-185.799493
 30
0.0
  0
VERTEX
  8
0
 62
     7
  5
1F7
 10
281.51973
 20
-185.610226
 30
0.0
  0
VERTEX
  8
0
 62
     7
  5
1F8
 10
281.512737
 20
-185.419758
 30
0.0
  0
VERTEX
  8
0
 62
     7
  5
1F9
 10
281.51973
 20
-185.22929
 30
0.0
  0
VERTEX
  8
0
 62
     7
  5
1FA
 10
281.540667
 20
-185.040024
 30
0.0
  0
VERTEX
  8
0
 62
     7
  5
1FB
 10
281.575415
 20
-184.853153
 30
0.0
  0
VERTEX
  8
0
 62
     7
  5
1FC
 10
281.623755
 20
-184.669856
 30
0.0
  0
VERTEX
  8
0
 62
     7
  5
1FD
 10
281.685382
 20
-184.49129
 30
0.0
  0
VERTEX
  8
0
 62
     7
  5
1FE
 10
281.759907
 20
-184.318581
 30
0.0
  0
VERTEX
  8
0
 62
     7
  5
1FF
 10
281.84686
 20
-184.152819
 30
0.0
  0
VERTEX
  8
0
 62
     7
  5
200
 10
281.945692
 20
-183.995048
 30
0.0
  0
SEQEND
  8
0
  5
201
  0
POLYLINE
  8
0
  6
CONTINUOUS
 62
     7
  5
202
 66
     1
 10
0.0
 20
0.0
 30
0.0
 40
0.5
 41
0.5
  0
VERTEX
  8
0
 62
     7
  5
203
 10
282.309813
 20
-183.460768
 30
0.0
  0
VERTEX
  8
0
 62
     7
  5
204
 10
282.458168
 20
-183.259958
 30
0.0
  0
VERTEX
  8
0
 62
     7
  5
205
 10
282.620516
 20
-183.07226
 30
0.0
  0
VERTEX
  8
0
 62
     7
  5
206
 10
282.795873
 20
-182.898812
 30
0.0
  0
VERTEX
  8
0
 62
     7
  5
207
 10
282.983174
 20
-182.740667
 30
0.0
  0
VERTEX
  8
0
 62
     7
  5
208
 10
283.181281
 20
-182.598787
 30
0.0
  0
VERTEX
  8
0
 62
     7
  5
209
 10
283.388992
 20
-182.474032
 30
0.0
  0
VERTEX
  8
0
 62
     7
  5
20A
 10
283.605046
 20
-182.367159
 30
0.0
  0
VERTEX
  8
0
 62
     7
  5
20B
 10
283.828132
 20
-182.278818
 30
0.0
  0
VERTEX
  8
0
 62
     7
  5
20C
 10
284.056894
 20
-182.209544
 30
0.0
  0
VERTEX
  8
0
 62
     7
  5
20D
 10
284.289946
 20
-182.159758
 30
0.0
  0
VERTEX
  8
0
 62
     7
  5
20E
 10
284.52587
 20
-182.129762
 30
0.0
  0
VERTEX
  8
0
 62
     7
  5
20F
 10
284.763237
 20
-182.119739
 30
0.0
  0
SEQEND
  8
0
  5
210
  0
POLYLINE
  8
0
  6
CONTINUOUS
 62
     7
  5
211
 66
     1
 10
0.0
 20
0.0
 30
0.0
 40
0.5
 41
0.5
  0
VERTEX
  8
0
 62
     7
  5
212
 10
497.29633
 20
-182.119739
 30
0.0
  0
VERTEX
  8
0
 62
     7
  5
213
 10
497.057138
 20
-182.129936
 30
0.0
  0
VERTEX
  8
0
 62
     7
  5
214
 10
496.819423
 20
-182.160414
 30
0.0
  0
VERTEX
  8
0
 62
     7
  5
215
 10
496.58465
 20
-182.210984
 30
0.0
  0
VERTEX
  8
0
 62
     7
  5
216
 10
496.354265
 20
-182.281335
 30
0.0
  0
VERTEX
  8
0
 62
     7
  5
217
 10
496.12969
 20
-182.371032
 30
0.0
  0
VERTEX
  8
0
 62
     7
  5
218
 10
495.912309
 20
-182.479524
 30
0.0
  0
VERTEX
  8
0
 62
     7
  5
219
 10
495.703461
 20
-182.606141
 30
0.0
  0
VERTEX
  8
0
 62
     7
  5
21A
 10
495.504435
 20
-182.750102
 30
0.0
  0
VERTEX
  8
0
 62
     7
  5
21B
 10
495.316456
 20
-182.910521
 30
0.0
  0
VERTEX
  8
0
 62
     7
  5
21C
 10
495.140685
 20
-183.086408
 30
0.0
  0
VERTEX
  8
0
 62
     7
  5
21D
 10
494.978204
 20
-183.27668
 30
0.0
  0
VERTEX
  8
0
 62
     7
  5
21E
 10
494.830015
 20
-183.480162
 30
0.0
  0
VERTEX
  8
0
 62
     7
  5
21F
 10
494.697031
 20
-183.695601
 30
0.0
  0
VERTEX
  8
0
 62
     7
  5
220
 10
494.580073
 20
-183.921669
 30
0.0
  0
VERTEX
  8
0
 62
     7
  5
221
 10
494.479862
 20
-184.156971
 30
0.0
  0
VERTEX
  8
0
 62
     7
  5
222
 10
494.397014
 20
-184.400059
 30
0.0
  0
VERTEX
  8
0
 62
     7
  5
223
 10
494.332042
 20
-184.649432
 30
0.0
  0
VERTEX
  8
0
 62
     7
  5
224
 10
494.285345
 20
-184.903554
 30
0.0
  0
VERTEX
  8
0
 62
     7
  5
225
 10
494.257211
 20
-185.160858
 30
0.0
  0
VERTEX
  8
0
 62
     7
  5
226
 10
494.247813
 20
-185.419758
 30
0.0
  0
SEQEND
  8
0
  5
227
  0
POLYLINE
  8
0
  6
CONTINUOUS
 62
     7
  5
228
 66
     1
 10
0.0
 20
0.0
 30
0.0
 40
0.5
 41
0.5
  0
VERTEX
  8
0
 62
     7
  5
229
 10
497.296671
 20
-188.719778
 30
0.0
  0
VERTEX
  8
0
 62
     7
  5
22A
 10
497.534041
 20
-188.709758
 30
0.0
  0
VERTEX
  8
0
 62
     7
  5
22B
 10
497.769969
 20
-188.679764
 30
0.0
  0
VERTEX
  8
0
 62
     7
  5
22C
 10
498.003024
 20
-188.62998
 30
0.0
  0
VERTEX
  8
0
 62
     7
  5
22D
 10
498.231791
 20
-188.560708
 30
0.0
  0
VERTEX
  8
0
 62
     7
  5
22E
 10
498.45488
 20
-188.472367
 30
0.0
  0
VERTEX
  8
0
 62
     7
  5
22F
 10
498.670938
 20
-188.365494
 30
0.0
  0
VERTEX
  8
0
 62
     7
  5
230
 10
498.878652
 20
-188.240739
 30
0.0
  0
VERTEX
  8
0
 62
     7
  5
231
 10
499.076763
 20
-188.098858
 30
0.0
  0
VERTEX
  8
0
 62
     7
  5
232
 10
499.264067
 20
-187.940712
 30
0.0
  0
VERTEX
  8
0
 62
     7
  5
233
 10
499.439426
 20
-187.767262
 30
0.0
  0
VERTEX
  8
0
 62
     7
  5
234
 10
499.601777
 20
-187.579561
 30
0.0
  0
VERTEX
  8
0
 62
     7
  5
235
 10
499.750135
 20
-187.378748
 30
0.0
  0
SEQEND
  8
0
  5
236
  0
POLYLINE
  8
0
  6
CONTINUOUS
 62
     7
  5
237
 66
     1
 10
0.0
 20
0.0
 30
0.0
 40
0.5
 41
0.5
  0
VERTEX
  8
0
 62
     7
  5
238
 10
284.763579
 20
-188.719778
 30
0.0
  0
VERTEX
  8
0
 62
     7
  5
239
 10
284.526183
 20
-188.709781
 30
0.0
  0
VERTEX
  8
0
 62
     7
  5
23A
 10
284.290227
 20
-188.679807
 30
0.0
  0
VERTEX
  8
0
 62
     7
  5
23B
 10
284.057144
 20
-188.630037
 30
0.0
  0
VERTEX
  8
0
 62
     7
  5
23C
 10
283.828349
 20
-188.560775
 30
0.0
  0
VERTEX
  8
0
 62
     7
  5
23D
 10
283.605231
 20
-188.47244
 30
0.0
  0
VERTEX
  8
0
 62
     7
  5
23E
 10
283.389145
 20
-188.365568
 30
0.0
  0
VERTEX
  8
0
 62
     7
  5
23F
 10
283.181403
 20
-188.24081
 30
0.0
  0
VERTEX
  8
0
 62
     7
  5
240
 10
282.983266
 20
-188.098921
 30
0.0
  0
VERTEX
  8
0
 62
     7
  5
241
 10
282.795939
 20
-187.940765
 30
0.0
  0
VERTEX
  8
0
 62
     7
  5
242
 10
282.620557
 20
-187.767301
 30
0.0
  0
VERTEX
  8
0
 62
     7
  5
243
 10
282.458186
 20
-187.579582
 30
0.0
  0
VERTEX
  8
0
 62
     7
  5
244
 10
282.309813
 20
-187.378748
 30
0.0
  0
SEQEND
  8
0
  5
245
  0
POLYLINE
  8
0
  6
CONTINUOUS
 62
     7
  5
246
 66
     1
 10
0.0
 20
0.0
 30
0.0
 40
0.5
 41
0.5
  0
VERTEX
  8
0
 62
     7
  5
247
 10
284.763237
 20
-182.119739
 30
0.0
  0
VERTEX
  8
0
 62
     7
  5
248
 10
285.028954
 20
-182.132289
 30
0.0
  0
VERTEX
  8
0
 62
     7
  5
249
 10
285.29265
 20
-182.169857
 30
0.0
  0
VERTEX
  8
0
 62
     7
  5
24A
 10
285.552317
 20
-182.232158
 30
0.0
  0
VERTEX
  8
0
 62
     7
  5
24B
 10
285.80598
 20
-182.318718
 30
0.0
  0
VERTEX
  8
0
 62
     7
  5
24C
 10
286.051707
 20
-182.428878
 30
0.0
  0
VERTEX
  8
0
 62
     7
  5
24D
 10
286.28763
 20
-182.561799
 30
0.0
  0
VERTEX
  8
0
 62
     7
  5
24E
 10
286.511952
 20
-182.71647
 30
0.0
  0
VERTEX
  8
0
 62
     7
  5
24F
 10
286.722966
 20
-182.891714
 30
0.0
  0
VERTEX
  8
0
 62
     7
  5
250
 10
286.919067
 20
-183.086197
 30
0.0
  0
VERTEX
  8
0
 62
     7
  5
251
 10
287.098762
 20
-183.298439
 30
0.0
  0
VERTEX
  8
0
 62
     7
  5
252
 10
287.260684
 20
-183.526826
 30
0.0
  0
VERTEX
  8
0
 62
     7
  5
253
 10
287.4036
 20
-183.769618
 30
0.0
  0
VERTEX
  8
0
 62
     7
  5
254
 10
287.526422
 20
-184.024968
 30
0.0
  0
VERTEX
  8
0
 62
     7
  5
255
 10
287.628216
 20
-184.290932
 30
0.0
  0
VERTEX
  8
0
 62
     7
  5
256
 10
287.708208
 20
-184.565488
 30
0.0
  0
VERTEX
  8
0
 62
     7
  5
257
 10
287.765788
 20
-184.846545
 30
0.0
  0
VERTEX
  8
0
 62
     7
  5
258
 10
287.800518
 20
-185.131964
 30
0.0
  0
VERTEX
  8
0
 62
     7
  5
259
 10
287.812134
 20
-185.419573
 30
0.0
  0
VERTEX
  8
0
 62
     7
  5
25A
 10
287.800548
 20
-185.707184
 30
0.0
  0
VERTEX
  8
0
 62
     7
  5
25B
 10
287.765847
 20
-185.992607
 30
0.0
  0
VERTEX
  8
0
 62
     7
  5
25C
 10
287.708296
 20
-186.273671
 30
0.0
  0
VERTEX
  8
0
 62
     7
  5
25D
 10
287.628333
 20
-186.548236
 30
0.0
  0
VERTEX
  8
0
 62
     7
  5
25E
 10
287.526567
 20
-186.814213
 30
0.0
  0
VERTEX
  8
0
 62
     7
  5
25F
 10
287.403771
 20
-187.069578
 30
0.0
  0
VERTEX
  8
0
 62
     7
  5
260
 10
287.26088
 20
-187.312388
 30
0.0
  0
VERTEX
  8
0
 62
     7
  5
261
 10
287.098982
 20
-187.540794
 30
0.0
  0
VERTEX
  8
0
 62
     7
  5
262
 10
286.919309
 20
-187.753058
 30
0.0
  0
VERTEX
  8
0
 62
     7
  5
263
 10
286.723229
 20
-187.947565
 30
0.0
  0
VERTEX
  8
0
 62
     7
  5
264
 10
286.512232
 20
-188.122834
 30
0.0
  0
VERTEX
  8
0
 62
     7
  5
265
 10
286.287926
 20
-188.277533
 30
0.0
  0
VERTEX
  8
0
 62
     7
  5
266
 10
286.052017
 20
-188.410482
 30
0.0
  0
VERTEX
  8
0
 62
     7
  5
267
 10
285.806301
 20
-188.520672
 30
0.0
  0
VERTEX
  8
0
 62
     7
  5
268
 10
285.552647
 20
-188.607262
 30
0.0
  0
VERTEX
  8
0
 62
     7
  5
269
 10
285.292987
 20
-188.669595
 30
0.0
  0
VERTEX
  8
0
 62
     7
  5
26A
 10
285.029295
 20
-188.707196
 30
0.0
  0
VERTEX
  8
0
 62
     7
  5
26B
 10
284.763579
 20
-188.719778
 30
0.0
  0
SEQEND
  8
0
  5
26C
  0
POLYLINE
  8
0
  6
CONTINUOUS
 62
     7
  5
26D
 66
     1
 10
0.0
 20
0.0
 30
0.0
 40
0.5
 41
0.5
  0
VERTEX
  8
0
 62
     7
  5
26E
 10
283.843533
 20
-182.273494
 30
0.0
  0
VERTEX
  8
0
 62
     7
  5
26F
 10
284.098199
 20
-182.069921
 30
0.0
  0
VERTEX
  8
0
 62
     7
  5
270
 10
284.367883
 20
-181.890432
 30
0.0
  0
VERTEX
  8
0
 62
     7
  5
271
 10
284.650645
 20
-181.736315
 30
0.0
  0
VERTEX
  8
0
 62
     7
  5
272
 10
284.944453
 20
-181.608681
 30
0.0
  0
VERTEX
  8
0
 62
     7
  5
273
 10
285.247194
 20
-181.508445
 30
0.0
  0
VERTEX
  8
0
 62
     7
  5
274
 10
285.556692
 20
-181.436328
 30
0.0
  0
VERTEX
  8
0
 62
     7
  5
275
 10
285.870721
 20
-181.39285
 30
0.0
  0
VERTEX
  8
0
 62
     7
  5
276
 10
286.187024
 20
-181.378323
 30
0.0
  0
SEQEND
  8
0
  5
277
  0
POLYLINE
  8
0
  6
CONTINUOUS
 62
     7
  5
278
 66
     1
 10
0.0
 20
0.0
 30
0.0
 40
0.5
 41
0.5
  0
VERTEX
  8
0
 62
     7
  5
279
 10
492.139124
 20
-185.419758
 30
0.0
  0
VERTEX
  8
0
 62
     7
  5
27A
 10
492.150634
 20
-185.736846
 30
0.0
  0
VERTEX
  8
0
 62
     7
  5
27B
 10
492.185093
 20
-186.051978
 30
0.0
  0
VERTEX
  8
0
 62
     7
  5
27C
 10
492.242289
 20
-186.363213
 30
0.0
  0
VERTEX
  8
0
 62
     7
  5
27D
 10
492.321869
 20
-186.668631
 30
0.0
  0
VERTEX
  8
0
 62
     7
  5
27E
 10
492.423342
 20
-186.966349
 30
0.0
  0
VERTEX
  8
0
 62
     7
  5
27F
 10
492.546084
 20
-187.254532
 30
0.0
  0
VERTEX
  8
0
 62
     7
  5
280
 10
492.689336
 20
-187.531403
 30
0.0
  0
VERTEX
  8
0
 62
     7
  5
281
 10
492.852216
 20
-187.795255
 30
0.0
  0
VERTEX
  8
0
 62
     7
  5
282
 10
493.03372
 20
-188.044461
 30
0.0
  0
VERTEX
  8
0
 62
     7
  5
283
 10
493.232728
 20
-188.277485
 30
0.0
  0
VERTEX
  8
0
 62
     7
  5
284
 10
493.448014
 20
-188.49289
 30
0.0
  0
VERTEX
  8
0
 62
     7
  5
285
 10
493.678251
 20
-188.689349
 30
0.0
  0
VERTEX
  8
0
 62
     7
  5
286
 10
493.922018
 20
-188.865649
 30
0.0
  0
VERTEX
  8
0
 62
     7
  5
287
 10
494.177814
 20
-189.020704
 30
0.0
  0
VERTEX
  8
0
 62
     7
  5
288
 10
494.44406
 20
-189.153558
 30
0.0
  0
VERTEX
  8
0
 62
     7
  5
289
 10
494.719116
 20
-189.263392
 30
0.0
  0
VERTEX
  8
0
 62
     7
  5
28A
 10
495.001285
 20
-189.349529
 30
0.0
  0
VERTEX
  8
0
 62
     7
  5
28B
 10
495.288828
 20
-189.411437
 30
0.0
  0
VERTEX
  8
0
 62
     7
  5
28C
 10
495.579972
 20
-189.448736
 30
0.0
  0
VERTEX
  8
0
 62
     7
  5
28D
 10
495.872923
 20
-189.461194
 30
0.0
  0
SEQEND
  8
0
  5
28E
  0
POLYLINE
  8
0
  6
CONTINUOUS
 62
     7
  5
28F
 66
     1
 10
0.0
 20
0.0
 30
0.0
 40
0.5
 41
0.5
  0
VERTEX
  8
0
 62
     7
  5
290
 10
286.187024
 20
-189.461194
 30
0.0
  0
VERTEX
  8
0
 62
     7
  5
291
 10
285.870721
 20
-189.446667
 30
0.0
  0
VERTEX
  8
0
 62
     7
  5
292
 10
285.556692
 20
-189.403188
 30
0.0
  0
VERTEX
  8
0
 62
     7
  5
293
 10
285.247194
 20
-189.331072
 30
0.0
  0
VERTEX
  8
0
 62
     7
  5
294
 10
284.944453
 20
-189.230836
 30
0.0
  0
VERTEX
  8
0
 62
     7
  5
295
 10
284.650645
 20
-189.103201
 30
0.0
  0
VERTEX
  8
0
 62
     7
  5
296
 10
284.367883
 20
-188.949085
 30
0.0
  0
VERTEX
  8
0
 62
     7
  5
297
 10
284.098199
 20
-188.769595
 30
0.0
  0
VERTEX
  8
0
 62
     7
  5
298
 10
283.843533
 20
-188.566023
 30
0.0
  0
SEQEND
  8
0
  5
299
  0
POLYLINE
  8
0
  6
CONTINUOUS
 62
     7
  5
29A
 66
     1
 10
0.0
 20
0.0
 30
0.0
 40
0.5
 41
0.5
  0
VERTEX
  8
0
 62
     7
  5
29B
 10
286.187024
 20
-181.378323
 30
0.0
  0
VERTEX
  8
0
 62
     7
  5
29C
 10
286.479975
 20
-181.390781
 30
0.0
  0
VERTEX
  8
0
 62
     7
  5
29D
 10
286.771119
 20
-181.428079
 30
0.0
  0
VERTEX
  8
0
 62
     7
  5
29E
 10
287.058662
 20
-181.489988
 30
0.0
  0
VERTEX
  8
0
 62
     7
  5
29F
 10
287.340832
 20
-181.576124
 30
0.0
  0
VERTEX
  8
0
 62
     7
  5
2A0
 10
287.615887
 20
-181.685959
 30
0.0
  0
VERTEX
  8
0
 62
     7
  5
2A1
 10
287.882134
 20
-181.818813
 30
0.0
  0
VERTEX
  8
0
 62
     7
  5
2A2
 10
288.137929
 20
-181.973868
 30
0.0
  0
VERTEX
  8
0
 62
     7
  5
2A3
 10
288.381696
 20
-182.150168
 30
0.0
  0
VERTEX
  8
0
 62
     7
  5
2A4
 10
288.611933
 20
-182.346626
 30
0.0
  0
VERTEX
  8
0
 62
     7
  5
2A5
 10
288.827219
 20
-182.562032
 30
0.0
  0
VERTEX
  8
0
 62
     7
  5
2A6
 10
289.026227
 20
-182.795056
 30
0.0
  0
VERTEX
  8
0
 62
     7
  5
2A7
 10
289.207731
 20
-183.044262
 30
0.0
  0
VERTEX
  8
0
 62
     7
  5
2A8
 10
289.370611
 20
-183.308114
 30
0.0
  0
VERTEX
  8
0
 62
     7
  5
2A9
 10
289.513864
 20
-183.584985
 30
0.0
  0
VERTEX
  8
0
 62
     7
  5
2AA
 10
289.636605
 20
-183.873168
 30
0.0
  0
VERTEX
  8
0
 62
     7
  5
2AB
 10
289.738078
 20
-184.170886
 30
0.0
  0
VERTEX
  8
0
 62
     7
  5
2AC
 10
289.817658
 20
-184.476304
 30
0.0
  0
VERTEX
  8
0
 62
     7
  5
2AD
 10
289.874854
 20
-184.787539
 30
0.0
  0
VERTEX
  8
0
 62
     7
  5
2AE
 10
289.909313
 20
-185.102671
 30
0.0
  0
VERTEX
  8
0
 62
     7
  5
2AF
 10
289.920823
 20
-185.419758
 30
0.0
  0
VERTEX
  8
0
 62
     7
  5
2B0
 10
289.909313
 20
-185.736846
 30
0.0
  0
VERTEX
  8
0
 62
     7
  5
2B1
 10
289.874854
 20
-186.051978
 30
0.0
  0
VERTEX
  8
0
 62
     7
  5
2B2
 10
289.817658
 20
-186.363213
 30
0.0
  0
VERTEX
  8
0
 62
     7
  5
2B3
 10
289.738078
 20
-186.668631
 30
0.0
  0
VERTEX
  8
0
 62
     7
  5
2B4
 10
289.636605
 20
-186.966349
 30
0.0
  0
VERTEX
  8
0
 62
     7
  5
2B5
 10
289.513864
 20
-187.254532
 30
0.0
  0
VERTEX
  8
0
 62
     7
  5
2B6
 10
289.370611
 20
-187.531403
 30
0.0
  0
VERTEX
  8
0
 62
     7
  5
2B7
 10
289.207731
 20
-187.795255
 30
0.0
  0
VERTEX
  8
0
 62
     7
  5
2B8
 10
289.026227
 20
-188.044461
 30
0.0
  0
VERTEX
  8
0
 62
     7
  5
2B9
 10
288.827219
 20
-188.277485
 30
0.0
  0
VERTEX
  8
0
 62
     7
  5
2BA
 10
288.611933
 20
-188.49289
 30
0.0
  0
VERTEX
  8
0
 62
     7
  5
2BB
 10
288.381696
 20
-188.689349
 30
0.0
  0
VERTEX
  8
0
 62
     7
  5
2BC
 10
288.137929
 20
-188.865649
 30
0.0
  0
VERTEX
  8
0
 62
     7
  5
2BD
 10
287.882134
 20
-189.020704
 30
0.0
  0
VERTEX
  8
0
 62
     7
  5
2BE
 10
287.615887
 20
-189.153558
 30
0.0
  0
VERTEX
  8
0
 62
     7
  5
2BF
 10
287.340832
 20
-189.263392
 30
0.0
  0
VERTEX
  8
0
 62
     7
  5
2C0
 10
287.058662
 20
-189.349529
 30
0.0
  0
VERTEX
  8
0
 62
     7
  5
2C1
 10
286.771119
 20
-189.411437
 30
0.0
  0
VERTEX
  8
0
 62
     7
  5
2C2
 10
286.479975
 20
-189.448736
 30
0.0
  0
VERTEX
  8
0
 62
     7
  5
2C3
 10
286.187024
 20
-189.461194
 30
0.0
  0
SEQEND
  8
0
  5
2C4
  0
POLYLINE
  8
0
  6
CONTINUOUS
 62
     7
  5
2C5
 66
     1
 10
0.0
 20
0.0
 30
0.0
 40
0.5
 41
0.5
  0
VERTEX
  8
0
 62
     7
  5
2C6
 10
286.601655
 20
-181.378323
 30
0.0
  0
VERTEX
  8
0
 62
     7
  5
2C7
 10
286.894605
 20
-181.390781
 30
0.0
  0
VERTEX
  8
0
 62
     7
  5
2C8
 10
287.18575
 20
-181.428079
 30
0.0
  0
VERTEX
  8
0
 62
     7
  5
2C9
 10
287.473293
 20
-181.489988
 30
0.0
  0
VERTEX
  8
0
 62
     7
  5
2CA
 10
287.755462
 20
-181.576124
 30
0.0
  0
VERTEX
  8
0
 62
     7
  5
2CB
 10
288.030518
 20
-181.685959
 30
0.0
  0
VERTEX
  8
0
 62
     7
  5
2CC
 10
288.296764
 20
-181.818813
 30
0.0
  0
VERTEX
  8
0
 62
     7
  5
2CD
 10
288.552559
 20
-181.973868
 30
0.0
  0
VERTEX
  8
0
 62
     7
  5
2CE
 10
288.796327
 20
-182.150168
 30
0.0
  0
VERTEX
  8
0
 62
     7
  5
2CF
 10
289.026563
 20
-182.346626
 30
0.0
  0
VERTEX
  8
0
 62
     7
  5
2D0
 10
289.241849
 20
-182.562032
 30
0.0
  0
VERTEX
  8
0
 62
     7
  5
2D1
 10
289.440858
 20
-182.795056
 30
0.0
  0
VERTEX
  8
0
 62
     7
  5
2D2
 10
289.622362
 20
-183.044262
 30
0.0
  0
VERTEX
  8
0
 62
     7
  5
2D3
 10
289.785242
 20
-183.308114
 30
0.0
  0
VERTEX
  8
0
 62
     7
  5
2D4
 10
289.928494
 20
-183.584985
 30
0.0
  0
VERTEX
  8
0
 62
     7
  5
2D5
 10
290.051235
 20
-183.873168
 30
0.0
  0
VERTEX
  8
0
 62
     7
  5
2D6
 10
290.152709
 20
-184.170886
 30
0.0
  0
VERTEX
  8
0
 62
     7
  5
2D7
 10
290.232289
 20
-184.476304
 30
0.0
  0
VERTEX
  8
0
 62
     7
  5
2D8
 10
290.289485
 20
-184.787539
 30
0.0
  0
VERTEX
  8
0
 62
     7
  5
2D9
 10
290.323944
 20
-185.102671
 30
0.0
  0
VERTEX
  8
0
 62
     7
  5
2DA
 10
290.335454
 20
-185.419758
 30
0.0
  0
VERTEX
  8
0
 62
     7
  5
2DB
 10
290.323944
 20
-185.736846
 30
0.0
  0
VERTEX
  8
0
 62
     7
  5
2DC
 10
290.289485
 20
-186.051978
 30
0.0
  0
VERTEX
  8
0
 62
     7
  5
2DD
 10
290.232289
 20
-186.363213
 30
0.0
  0
VERTEX
  8
0
 62
     7
  5
2DE
 10
290.152709
 20
-186.668631
 30
0.0
  0
VERTEX
  8
0
 62
     7
  5
2DF
 10
290.051235
 20
-186.966349
 30
0.0
  0
VERTEX
  8
0
 62
     7
  5
2E0
 10
289.928494
 20
-187.254532
 30
0.0
  0
VERTEX
  8
0
 62
     7
  5
2E1
 10
289.785242
 20
-187.531403
 30
0.0
  0
VERTEX
  8
0
 62
     7
  5
2E2
 10
289.622362
 20
-187.795255
 30
0.0
  0
VERTEX
  8
0
 62
     7
  5
2E3
 10
289.440858
 20
-188.044461
 30
0.0
  0
VERTEX
  8
0
 62
     7
  5
2E4
 10
289.241849
 20
-188.277485
 30
0.0
  0
VERTEX
  8
0
 62
     7
  5
2E5
 10
289.026563
 20
-188.49289
 30
0.0
  0
VERTEX
  8
0
 62
     7
  5
2E6
 10
288.796327
 20
-188.689349
 30
0.0
  0
VERTEX
  8
0
 62
     7
  5
2E7
 10
288.552559
 20
-188.865649
 30
0.0
  0
VERTEX
  8
0
 62
     7
  5
2E8
 10
288.296764
 20
-189.020704
 30
0.0
  0
VERTEX
  8
0
 62
     7
  5
2E9
 10
288.030518
 20
-189.153558
 30
0.0
  0
VERTEX
  8
0
 62
     7
  5
2EA
 10
287.755462
 20
-189.263392
 30
0.0
  0
VERTEX
  8
0
 62
     7
  5
2EB
 10
287.473293
 20
-189.349529
 30
0.0
  0
VERTEX
  8
0
 62
     7
  5
2EC
 10
287.18575
 20
-189.411437
 30
0.0
  0
VERTEX
  8
0
 62
     7
  5
2ED
 10
286.894605
 20
-189.448736
 30
0.0
  0
VERTEX
  8
0
 62
     7
  5
2EE
 10
286.601655
 20
-189.461194
 30
0.0
  0
SEQEND
  8
0
  5
2EF
  0
POLYLINE
  8
0
  6
CONTINUOUS
 62
     7
  5
2F0
 66
     1
 10
0.0
 20
0.0
 30
0.0
 40
0.5
 41
0.5
  0
VERTEX
  8
0
 62
     7
  5
2F1
 10
495.872923
 20
-181.378323
 30
0.0
  0
VERTEX
  8
0
 62
     7
  5
2F2
 10
495.579972
 20
-181.390781
 30
0.0
  0
VERTEX
  8
0
 62
     7
  5
2F3
 10
495.288828
 20
-181.428079
 30
0.0
  0
VERTEX
  8
0
 62
     7
  5
2F4
 10
495.001285
 20
-181.489988
 30
0.0
  0
VERTEX
  8
0
 62
     7
  5
2F5
 10
494.719116
 20
-181.576124
 30
0.0
  0
VERTEX
  8
0
 62
     7
  5
2F6
 10
494.44406
 20
-181.685959
 30
0.0
  0
VERTEX
  8
0
 62
     7
  5
2F7
 10
494.177814
 20
-181.818813
 30
0.0
  0
VERTEX
  8
0
 62
     7
  5
2F8
 10
493.922018
 20
-181.973868
 30
0.0
  0
VERTEX
  8
0
 62
     7
  5
2F9
 10
493.678251
 20
-182.150168
 30
0.0
  0
VERTEX
  8
0
 62
     7
  5
2FA
 10
493.448014
 20
-182.346626
 30
0.0
  0
VERTEX
  8
0
 62
     7
  5
2FB
 10
493.232728
 20
-182.562032
 30
0.0
  0
VERTEX
  8
0
 62
     7
  5
2FC
 10
493.03372
 20
-182.795056
 30
0.0
  0
VERTEX
  8
0
 62
     7
  5
2FD
 10
492.852216
 20
-183.044262
 30
0.0
  0
VERTEX
  8
0
 62
     7
  5
2FE
 10
492.689336
 20
-183.308114
 30
0.0
  0
VERTEX
  8
0
 62
     7
  5
2FF
 10
492.546084
 20
-183.584985
 30
0.0
  0
VERTEX
  8
0
 62
     7
  5
300
 10
492.423342
 20
-183.873168
 30
0.0
  0
VERTEX
  8
0
 62
     7
  5
301
 10
492.321869
 20
-184.170886
 30
0.0
  0
VERTEX
  8
0
 62
     7
  5
302
 10
492.242289
 20
-184.476304
 30
0.0
  0
VERTEX
  8
0
 62
     7
  5
303
 10
492.185093
 20
-184.787539
 30
0.0
  0
VERTEX
  8
0
 62
     7
  5
304
 10
492.150634
 20
-185.102671
 30
0.0
  0
VERTEX
  8
0
 62
     7
  5
305
 10
492.139124
 20
-185.419758
 30
0.0
  0
SEQEND
  8
0
  5
306
  0
POLYLINE
  8
0
  6
CONTINUOUS
 62
     7
  5
307
 66
     1
 10
0.0
 20
0.0
 30
0.0
 40
0.5
 41
0.5
  0
VERTEX
  8
0
 62
     7
  5
308
 10
495.872923
 20
-189.461194
 30
0.0
  0
VERTEX
  8
0
 62
     7
  5
309
 10
496.189226
 20
-189.446667
 30
0.0
  0
VERTEX
  8
0
 62
     7
  5
30A
 10
496.503255
 20
-189.403188
 30
0.0
  0
VERTEX
  8
0
 62
     7
  5
30B
 10
496.812753
 20
-189.331072
 30
0.0
  0
VERTEX
  8
0
 62
     7
  5
30C
 10
497.115494
 20
-189.230836
 30
0.0
  0
VERTEX
  8
0
 62
     7
  5
30D
 10
497.409302
 20
-189.103201
 30
0.0
  0
VERTEX
  8
0
 62
     7
  5
30E
 10
497.692064
 20
-188.949085
 30
0.0
  0
VERTEX
  8
0
 62
     7
  5
30F
 10
497.961748
 20
-188.769595
 30
0.0
  0
VERTEX
  8
0
 62
     7
  5
310
 10
498.216414
 20
-188.566023
 30
0.0
  0
SEQEND
  8
0
  5
311
  0
POLYLINE
  8
0
  6
CONTINUOUS
 62
     7
  5
312
 66
     1
 10
0.0
 20
0.0
 30
0.0
 40
0.5
 41
0.5
  0
VERTEX
  8
0
 62
     7
  5
313
 10
498.216414
 20
-182.273494
 30
0.0
  0
VERTEX
  8
0
 62
     7
  5
314
 10
497.961748
 20
-182.069921
 30
0.0
  0
VERTEX
  8
0
 62
     7
  5
315
 10
497.692064
 20
-181.890432
 30
0.0
  0
VERTEX
  8
0
 62
     7
  5
316
 10
497.409302
 20
-181.736315
 30
0.0
  0
VERTEX
  8
0
 62
     7
  5
317
 10
497.115494
 20
-181.608681
 30
0.0
  0
VERTEX
  8
0
 62
     7
  5
318
 10
496.812753
 20
-181.508445
 30
0.0
  0
VERTEX
  8
0
 62
     7
  5
319
 10
496.503255
 20
-181.436328
 30
0.0
  0
VERTEX
  8
0
 62
     7
  5
31A
 10
496.189226
 20
-181.39285
 30
0.0
  0
VERTEX
  8
0
 62
     7
  5
31B
 10
495.872923
 20
-181.378323
 30
0.0
  0
SEQEND
  8
0
  5
31C
  0
POLYLINE
  8
0
  6
CONTINUOUS
 62
     7
  5
31D
 66
     1
 10
0.0
 20
0.0
 30
0.0
 40
0.5
 41
0.5
  0
VERTEX
  8
0
 62
     7
  5
31E
 10
495.458292
 20
-181.378323
 30
0.0
  0
VERTEX
  8
0
 62
     7
  5
31F
 10
495.165342
 20
-181.390781
 30
0.0
  0
VERTEX
  8
0
 62
     7
  5
320
 10
494.874197
 20
-181.428079
 30
0.0
  0
VERTEX
  8
0
 62
     7
  5
321
 10
494.586654
 20
-181.489988
 30
0.0
  0
VERTEX
  8
0
 62
     7
  5
322
 10
494.304485
 20
-181.576124
 30
0.0
  0
VERTEX
  8
0
 62
     7
  5
323
 10
494.029429
 20
-181.685959
 30
0.0
  0
VERTEX
  8
0
 62
     7
  5
324
 10
493.763183
 20
-181.818813
 30
0.0
  0
VERTEX
  8
0
 62
     7
  5
325
 10
493.507388
 20
-181.973868
 30
0.0
  0
VERTEX
  8
0
 62
     7
  5
326
 10
493.26362
 20
-182.150168
 30
0.0
  0
VERTEX
  8
0
 62
     7
  5
327
 10
493.033384
 20
-182.346626
 30
0.0
  0
VERTEX
  8
0
 62
     7
  5
328
 10
492.818098
 20
-182.562032
 30
0.0
  0
VERTEX
  8
0
 62
     7
  5
329
 10
492.619089
 20
-182.795056
 30
0.0
  0
VERTEX
  8
0
 62
     7
  5
32A
 10
492.437585
 20
-183.044262
 30
0.0
  0
VERTEX
  8
0
 62
     7
  5
32B
 10
492.274705
 20
-183.308114
 30
0.0
  0
VERTEX
  8
0
 62
     7
  5
32C
 10
492.131453
 20
-183.584985
 30
0.0
  0
VERTEX
  8
0
 62
     7
  5
32D
 10
492.008712
 20
-183.873168
 30
0.0
  0
VERTEX
  8
0
 62
     7
  5
32E
 10
491.907238
 20
-184.170886
 30
0.0
  0
VERTEX
  8
0
 62
     7
  5
32F
 10
491.827658
 20
-184.476304
 30
0.0
  0
VERTEX
  8
0
 62
     7
  5
330
 10
491.770463
 20
-184.787539
 30
0.0
  0
VERTEX
  8
0
 62
     7
  5
331
 10
491.736003
 20
-185.102671
 30
0.0
  0
VERTEX
  8
0
 62
     7
  5
332
 10
491.724493
 20
-185.419758
 30
0.0
  0
SEQEND
  8
0
  5
333
  0
POLYLINE
  8
0
  6
CONTINUOUS
 62
     7
  5
334
 66
     1
 10
0.0
 20
0.0
 30
0.0
 40
0.5
 41
0.5
  0
VERTEX
  8
0
 62
     7
  5
335
 10
491.724493
 20
-185.419758
 30
0.0
  0
VERTEX
  8
0
 62
     7
  5
336
 10
491.736003
 20
-185.736846
 30
0.0
  0
VERTEX
  8
0
 62
     7
  5
337
 10
491.770463
 20
-186.051978
 30
0.0
  0
VERTEX
  8
0
 62
     7
  5
338
 10
491.827658
 20
-186.363213
 30
0.0
  0
VERTEX
  8
0
 62
     7
  5
339
 10
491.907238
 20
-186.668631
 30
0.0
  0
VERTEX
  8
0
 62
     7
  5
33A
 10
492.008712
 20
-186.966349
 30
0.0
  0
VERTEX
  8
0
 62
     7
  5
33B
 10
492.131453
 20
-187.254532
 30
0.0
  0
VERTEX
  8
0
 62
     7
  5
33C
 10
492.274705
 20
-187.531403
 30
0.0
  0
VERTEX
  8
0
 62
     7
  5
33D
 10
492.437585
 20
-187.795255
 30
0.0
  0
VERTEX
  8
0
 62
     7
  5
33E
 10
492.619089
 20
-188.044461
 30
0.0
  0
VERTEX
  8
0
 62
     7
  5
33F
 10
492.818098
 20
-188.277485
 30
0.0
  0
VERTEX
  8
0
 62
     7
  5
340
 10
493.033384
 20
-188.49289
 30
0.0
  0
VERTEX
  8
0
 62
     7
  5
341
 10
493.26362
 20
-188.689349
 30
0.0
  0
VERTEX
  8
0
 62
     7
  5
342
 10
493.507388
 20
-188.865649
 30
0.0
  0
VERTEX
  8
0
 62
     7
  5
343
 10
493.763183
 20
-189.020704
 30
0.0
  0
VERTEX
  8
0
 62
     7
  5
344
 10
494.029429
 20
-189.153558
 30
0.0
  0
VERTEX
  8
0
 62
     7
  5
345
 10
494.304485
 20
-189.263392
 30
0.0
  0
VERTEX
  8
0
 62
     7
  5
346
 10
494.586654
 20
-189.349529
 30
0.0
  0
VERTEX
  8
0
 62
     7
  5
347
 10
494.874197
 20
-189.411437
 30
0.0
  0
VERTEX
  8
0
 62
     7
  5
348
 10
495.165342
 20
-189.448736
 30
0.0
  0
VERTEX
  8
0
 62
     7
  5
349
 10
495.458292
 20
-189.461194
 30
0.0
  0
SEQEND
  8
0
  5
34A
  0
LINE
  8
0
  6
CONTINUOUS
 62
     9
  5
34B
 10
494.329884
 20
-181.419757
 30
0.0
 11
494.329884
 21
-181.5673
 31
0.0
  0
LINE
  8
0
  6
CONTINUOUS
 62
     9
  5
34C
 10
494.329884
 20
-189.272216
 30
0.0
 11
494.329884
 21
-189.419759
 31
0.0
  0
LINE
  8
0
  6
CONTINUOUS
 62
     9
  5
34D
 10
287.730064
 20
-181.419757
 30
0.0
 11
287.730064
 21
-181.5673
 31
0.0
  0
LINE
  8
0
  6
CONTINUOUS
 62
     9
  5
34E
 10
287.730064
 20
-189.272216
 30
0.0
 11
287.730064
 21
-189.419759
 31
0.0
  0
LINE
  8
0
  6
CONTINUOUS
 62
     7
  5
34F
 10
383.029974
 20
-191.419762
 30
0.0
 11
399.029974
 21
-191.41976
 31
0.0
  0
LINE
  8
0
  6
CONTINUOUS
 62
     7
  5
350
 10
491.029974
 20
-191.419762
 30
0.0
 11
491.029974
 21
-196.419762
 31
0.0
  0
LINE
  8
0
  6
CONTINUOUS
 62
     7
  5
351
 10
291.029974
 20
-191.419762
 30
0.0
 11
291.029974
 21
-196.419762
 31
0.0
  0
LINE
  8
0
  6
CONTINUOUS
 62
     9
  5
352
 10
-229.970026
 20
-118.419762
 30
0.0
 11
-229.970026
 21
-116.419762
 31
0.0
  0
LINE
  8
0
  6
CONTINUOUS
 62
     9
  5
353
 10
-231.970026
 20
-118.419762
 30
0.0
 11
-229.970026
 21
-118.419762
 31
0.0
  0
ARC
  8
0
  6
CONTINUOUS
 62
     7
  5
354
 10
-229.970026
 20
-118.419762
 30
0.0
 40
2.0
 50
90.0
 51
180.0
210
0.0
220
0.0
230
1.0
  0
LINE
  8
0
  6
CONTINUOUS
 62
     9
  5
355
 10
-229.970026
 20
-154.419762
 30
0.0
 11
-229.970026
 21
-118.419762
 31
0.0
  0
LINE
  8
0
  6
CONTINUOUS
 62
     9
  5
356
 10
-231.970026
 20
-154.419762
 30
0.0
 11
-229.970026
 21
-154.419762
 31
0.0
  0
LINE
  8
0
  6
CONTINUOUS
 62
     7
  5
357
 10
-231.970026
 20
-118.419762
 30
0.0
 11
-231.970026
 21
-154.419762
 31
0.0
  0
LINE
  8
0
  6
CONTINUOUS
 62
     9
  5
358
 10
-229.970026
 20
-156.419762
 30
0.0
 11
-229.970026
 21
-154.419762
 31
0.0
  0
ARC
  8
0
  6
CONTINUOUS
 62
     7
  5
359
 10
-229.970026
 20
-154.419762
 30
0.0
 40
2.0
 50
180.0
 51
270.0
210
0.0
220
0.0
230
1.0
  0
LINE
  8
0
  6
CONTINUOUS
 62
     7
  5
35A
 10
554.029974
 20
-118.419762
 30
0.0
 11
554.029974
 21
-154.419762
 31
0.0
  0
LINE
  8
0
  6
CONTINUOUS
 62
     9
  5
35B
 10
554.029974
 20
-154.419762
 30
0.0
 11
552.029974
 21
-154.419762
 31
0.0
  0
LINE
  8
0
  6
CONTINUOUS
 62
     9
  5
35C
 10
552.029974
 20
-154.419762
 30
0.0
 11
552.029974
 21
-118.419762
 31
0.0
  0
LINE
  8
0
  6
CONTINUOUS
 62
     9
  5
35D
 10
554.029974
 20
-118.419762
 30
0.0
 11
552.029974
 21
-118.419762
 31
0.0
  0
LINE
  8
0
  6
CONTINUOUS
 62
     9
  5
35E
 10
552.029974
 20
-118.419762
 30
0.0
 11
552.029974
 21
-116.419762
 31
0.0
  0
ARC
  8
0
  6
CONTINUOUS
 62
     7
  5
35F
 10
552.029974
 20
-118.419762
 30
0.0
 40
2.0
 50
0.0
 51
90.0
210
0.0
220
0.0
230
1.0
  0
LINE
  8
0
  6
CONTINUOUS
 62
     7
  5
360
 10
-229.970026
 20
-116.419762
 30
0.0
 11
552.029974
 21
-116.419762
 31
0.0
  0
LINE
  8
0
  6
CONTINUOUS
 62
     9
  5
361
 10
552.029974
 20
-118.419762
 30
0.0
 11
-229.970026
 21
-118.419762
 31
0.0
  0
LINE
  8
0
  6
CONTINUOUS
 62
     9
  5
362
 10
-229.970026
 20
-154.419762
 30
0.0
 11
552.029974
 21
-154.419762
 31
0.0
  0
LINE
  8
0
  6
CONTINUOUS
 62
     9
  5
363
 10
552.029974
 20
-156.419762
 30
0.0
 11
552.029974
 21
-154.419762
 31
0.0
  0
LINE
  8
0
  6
CONTINUOUS
 62
     7
  5
364
 10
552.029974
 20
-156.419762
 30
0.0
 11
-229.970026
 21
-156.419762
 31
0.0
  0
ARC
  8
0
  6
CONTINUOUS
 62
     7
  5
365
 10
552.029974
 20
-154.419762
 30
0.0
 40
2.0
 50
270.0
 51
360.0
210
0.0
220
0.0
230
1.0
  0
LINE
  8
0
  6
CONTINUOUS
 62
     7
  5
366
 10
550.029974
 20
-140.519762
 30
0.0
 11
-227.970026
 21
-140.519762
 31
0.0
  0
LINE
  8
0
  6
CONTINUOUS
 62
     7
  5
367
 10
550.029974
 20
-132.319762
 30
0.0
 11
-227.970026
 21
-132.319762
 31
0.0
  0
LINE
  8
0
  6
CONTINUOUS
 62
     7
  5
368
 10
550.029974
 20
-132.319762
 30
0.0
 11
550.029974
 21
-140.519762
 31
0.0
  0
LINE
  8
0
  6
CONTINUOUS
 62
     7
  5
369
 10
-227.970026
 20
-132.319762
 30
0.0
 11
-227.970026
 21
-140.519762
 31
0.0
  0
LINE
  8
0
  6
CONTINUOUS
 62
     9
  5
36A
 10
539.029974
 20
-172.179281
 30
0.0
 11
491.029974
 21
-172.179281
 31
0.0
  0
LINE
  8
0
  6
CONTINUOUS
 62
     9
  5
36B
 10
399.029974
 20
-172.179281
 30
0.0
 11
383.029974
 21
-172.179281
 31
0.0
  0
LINE
  8
0
  6
CONTINUOUS
 62
     9
  5
36C
 10
291.029974
 20
-172.179281
 30
0.0
 11
-216.970026
 21
-172.179281
 31
0.0
  0
LINE
  8
0
  6
CONTINUOUS
 62
     7
  5
36D
 10
539.029974
 20
-174.159521
 30
0.0
 11
539.029974
 21
-172.179281
 31
0.0
  0
LINE
  8
0
  6
CONTINUOUS
 62
     9
  5
36E
 10
539.029974
 20
-174.159521
 30
0.0
 11
491.029974
 21
-174.159521
 31
0.0
  0
LINE
  8
0
  6
CONTINUOUS
 62
     9
  5
36F
 10
399.029974
 20
-174.159521
 30
0.0
 11
383.029974
 21
-174.159521
 31
0.0
  0
LINE
  8
0
  6
CONTINUOUS
 62
     9
  5
370
 10
291.029974
 20
-174.159521
 30
0.0
 11
-216.970026
 21
-174.159521
 31
0.0
  0
LINE
  8
0
  6
CONTINUOUS
 62
     7
  5
371
 10
-216.970026
 20
-174.159521
 30
0.0
 11
-216.970026
 21
-172.179281
 31
0.0
  0
LINE
  8
0
  6
CONTINUOUS
 62
     9
  5
372
 10
539.029974
 20
-171.884665
 30
0.0
 11
491.029974
 21
-171.884665
 31
0.0
  0
LINE
  8
0
  6
CONTINUOUS
 62
     9
  5
373
 10
399.029974
 20
-171.884665
 30
0.0
 11
383.029974
 21
-171.884665
 31
0.0
  0
LINE
  8
0
  6
CONTINUOUS
 62
     9
  5
374
 10
291.029974
 20
-171.884665
 30
0.0
 11
-216.970026
 21
-171.884665
 31
0.0
  0
LINE
  8
0
  6
CONTINUOUS
 62
     7
  5
375
 10
539.029974
 20
-172.179281
 30
0.0
 11
539.029974
 21
-171.884665
 31
0.0
  0
LINE
  8
0
  6
CONTINUOUS
 62
     7
  5
376
 10
-216.970026
 20
-172.179281
 30
0.0
 11
-216.970026
 21
-171.884665
 31
0.0
  0
LINE
  8
0
  6
CONTINUOUS
 62
     9
  5
377
 10
539.029974
 20
-174.454143
 30
0.0
 11
491.029974
 21
-174.454143
 31
0.0
  0
LINE
  8
0
  6
CONTINUOUS
 62
     9
  5
378
 10
399.029974
 20
-174.454143
 30
0.0
 11
383.029974
 21
-174.454143
 31
0.0
  0
LINE
  8
0
  6
CONTINUOUS
 62
     9
  5
379
 10
291.029974
 20
-174.454143
 30
0.0
 11
-216.970026
 21
-174.454143
 31
0.0
  0
LINE
  8
0
  6
CONTINUOUS
 62
     7
  5
37A
 10
539.029974
 20
-174.454137
 30
0.0
 11
539.029974
 21
-174.159521
 31
0.0
  0
LINE
  8
0
  6
CONTINUOUS
 62
     7
  5
37B
 10
-216.970026
 20
-174.454137
 30
0.0
 11
-216.970026
 21
-174.159521
 31
0.0
  0
LINE
  8
0
  6
CONTINUOUS
 62
     7
  5
37C
 10
539.029974
 20
-161.519802
 30
0.0
 11
-216.970026
 21
-161.519802
 31
0.0
  0
LINE
  8
0
  6
CONTINUOUS
 62
     7
  5
37D
 10
539.029974
 20
-164.219834
 30
0.0
 11
491.029974
 21
-164.219834
 31
0.0
  0
LINE
  8
0
  6
CONTINUOUS
 62
     7
  5
37E
 10
399.029974
 20
-164.219834
 30
0.0
 11
383.029974
 21
-164.219834
 31
0.0
  0
LINE
  8
0
  6
CONTINUOUS
 62
     7
  5
37F
 10
291.029974
 20
-164.219834
 30
0.0
 11
-216.970026
 21
-164.219834
 31
0.0
  0
LINE
  8
0
  6
CONTINUOUS
 62
     7
  5
380
 10
539.029974
 20
-164.219834
 30
0.0
 11
539.029974
 21
-161.519802
 31
0.0
  0
LINE
  8
0
  6
CONTINUOUS
 62
     7
  5
381
 10
-216.970026
 20
-164.219834
 30
0.0
 11
-216.970026
 21
-161.519802
 31
0.0
  0
LINE
  8
0
  6
CONTINUOUS
 62
     7
  5
382
 10
539.029974
 20
-157.619765
 30
0.0
 11
-216.970026
 21
-157.619765
 31
0.0
  0
LINE
  8
0
  6
CONTINUOUS
 62
     7
  5
383
 10
539.029974
 20
-161.519802
 30
0.0
 11
539.029974
 21
-157.619765
 31
0.0
  0
LINE
  8
0
  6
CONTINUOUS
 62
     7
  5
384
 10
-216.970026
 20
-161.519802
 30
0.0
 11
-216.970026
 21
-157.619765
 31
0.0
  0
LINE
  8
0
  6
CONTINUOUS
 62
     7
  5
385
 10
539.029974
 20
-157.619765
 30
0.0
 11
539.029974
 21
-156.419762
 31
0.0
  0
LINE
  8
0
  6
CONTINUOUS
 62
     7
  5
386
 10
-216.970026
 20
-157.619765
 30
0.0
 11
-216.970026
 21
-156.419762
 31
0.0
  0
LINE
  8
0
  6
CONTINUOUS
 62
     7
  5
387
 10
539.029974
 20
-176.160119
 30
0.0
 11
491.029974
 21
-176.160119
 31
0.0
  0
LINE
  8
0
  6
CONTINUOUS
 62
     7
  5
388
 10
399.029974
 20
-176.160119
 30
0.0
 11
383.029974
 21
-176.160119
 31
0.0
  0
LINE
  8
0
  6
CONTINUOUS
 62
     7
  5
389
 10
291.029974
 20
-176.160119
 30
0.0
 11
-216.970026
 21
-176.160119
 31
0.0
  0
LINE
  8
0
  6
CONTINUOUS
 62
     7
  5
38A
 10
539.029974
 20
-174.454143
 30
0.0
 11
539.029974
 21
-176.160119
 31
0.0
  0
LINE
  8
0
  6
CONTINUOUS
 62
     7
  5
38B
 10
-216.970026
 20
-174.454143
 30
0.0
 11
-216.970026
 21
-176.160119
 31
0.0
  0
LINE
  8
0
  6
CONTINUOUS
 62
     7
  5
38C
 10
539.029974
 20
-170.111439
 30
0.0
 11
491.029974
 21
-170.111439
 31
0.0
  0
LINE
  8
0
  6
CONTINUOUS
 62
     7
  5
38D
 10
399.029974
 20
-170.111439
 30
0.0
 11
383.029974
 21
-170.111439
 31
0.0
  0
LINE
  8
0
  6
CONTINUOUS
 62
     7
  5
38E
 10
291.029974
 20
-170.111439
 30
0.0
 11
-216.970026
 21
-170.111439
 31
0.0
  0
LINE
  8
0
  6
CONTINUOUS
 62
     7
  5
38F
 10
539.029974
 20
-170.111439
 30
0.0
 11
539.029974
 21
-171.88466
 31
0.0
  0
LINE
  8
0
  6
CONTINUOUS
 62
     7
  5
390
 10
-216.970026
 20
-170.111439
 30
0.0
 11
-216.970026
 21
-171.88466
 31
0.0
  0
LINE
  8
0
  6
CONTINUOUS
 62
     7
  5
391
 10
539.029974
 20
-176.41976
 30
0.0
 11
491.029974
 21
-176.41976
 31
0.0
  0
LINE
  8
0
  6
CONTINUOUS
 62
     7
  5
392
 10
399.029974
 20
-176.41976
 30
0.0
 11
383.029974
 21
-176.41976
 31
0.0
  0
LINE
  8
0
  6
CONTINUOUS
 62
     7
  5
393
 10
291.029974
 20
-176.41976
 30
0.0
 11
-216.970026
 21
-176.41976
 31
0.0
  0
LINE
  8
0
  6
CONTINUOUS
 62
     7
  5
394
 10
539.029974
 20
-176.41976
 30
0.0
 11
539.029974
 21
-176.160119
 31
0.0
  0
LINE
  8
0
  6
CONTINUOUS
 62
     7
  5
395
 10
-216.970026
 20
-176.41976
 30
0.0
 11
-216.970026
 21
-176.160119
 31
0.0
  0
LINE
  8
0
  6
CONTINUOUS
 62
     7
  5
396
 10
539.029974
 20
-169.299776
 30
0.0
 11
491.029974
 21
-169.299776
 31
0.0
  0
LINE
  8
0
  6
CONTINUOUS
 62
     7
  5
397
 10
399.029974
 20
-169.299776
 30
0.0
 11
383.029974
 21
-169.299776
 31
0.0
  0
LINE
  8
0
  6
CONTINUOUS
 62
     7
  5
398
 10
291.029974
 20
-169.299776
 30
0.0
 11
-216.970026
 21
-169.299776
 31
0.0
  0
LINE
  8
0
  6
CONTINUOUS
 62
     7
  5
399
 10
539.029974
 20
-170.111439
 30
0.0
 11
539.029974
 21
-169.299776
 31
0.0
  0
LINE
  8
0
  6
CONTINUOUS
 62
     7
  5
39A
 10
-216.970026
 20
-170.111439
 30
0.0
 11
-216.970026
 21
-169.299776
 31
0.0
  0
LINE
  8
0
  6
CONTINUOUS
 62
     7
  5
39B
 10
539.029974
 20
-169.299776
 30
0.0
 11
539.029974
 21
-164.219834
 31
0.0
  0
LINE
  8
0
  6
CONTINUOUS
 62
     7
  5
39C
 10
-216.970026
 20
-169.299776
 30
0.0
 11
-216.970026
 21
-164.219834
 31
0.0
  0
LINE
  8
0
  6
CONTINUOUS
 62
     7
  5
39D
 10
548.029974
 20
-171.419762
 30
0.0
 11
539.029974
 21
-171.419762
 31
0.0
  0
LINE
  8
0
  6
CONTINUOUS
 62
     7
  5
39E
 10
534.029974
 20
-193.419762
 30
0.0
 11
548.029974
 21
-193.419762
 31
0.0
  0
LINE
  8
0
  6
CONTINUOUS
 62
     7
  5
39F
 10
534.029974
 20
-176.41976
 30
0.0
 11
534.029974
 21
-193.419762
 31
0.0
  0
LINE
  8
0
  6
CONTINUOUS
 62
     7
  5
3A0
 10
548.029974
 20
-193.419762
 30
0.0
 11
548.029974
 21
-171.419762
 31
0.0
  0
LINE
  8
0
  6
CONTINUOUS
 62
     7
  5
3A1
 10
-211.970026
 20
-193.419762
 30
0.0
 11
-225.970026
 21
-193.419762
 31
0.0
  0
LINE
  8
0
  6
CONTINUOUS
 62
     7
  5
3A2
 10
-225.970026
 20
-193.419762
 30
0.0
 11
-225.970026
 21
-171.419762
 31
0.0
  0
LINE
  8
0
  6
CONTINUOUS
 62
     7
  5
3A3
 10
-225.970026
 20
-171.419762
 30
0.0
 11
-216.970026
 21
-171.419762
 31
0.0
  0
LINE
  8
0
  6
CONTINUOUS
 62
     7
  5
3A4
 10
-211.970026
 20
-176.41976
 30
0.0
 11
-211.970026
 21
-193.419762
 31
0.0
  0
LINE
  8
0
  6
CONTINUOUS
 62
     7
  5
3A5
 10
-225.970026
 20
-171.419762
 30
0.0
 11
-225.970026
 21
-156.419762
 31
0.0
  0
LINE
  8
0
  6
CONTINUOUS
 62
     7
  5
3A6
 10
548.029974
 20
-171.419762
 30
0.0
 11
548.029974
 21
-156.419762
 31
0.0
  0
LINE
  8
0
  6
CONTINUOUS
 62
     7
  5
3A7
 10
499.750135
 20
-187.378748
 30
0.0
 11
500.114255
 21
-186.844469
 31
0.0
  0
LINE
  8
0
  6
CONTINUOUS
 62
     7
  5
3A8
 10
500.114255
 20
-183.995048
 30
0.0
 11
499.750135
 21
-183.460768
 31
0.0
  0
LINE
  8
0
  6
CONTINUOUS
 62
     7
  5
3A9
 10
282.309813
 20
-183.460768
 30
0.0
 11
281.945692
 21
-183.995048
 31
0.0
  0
LINE
  8
0
  6
CONTINUOUS
 62
     7
  5
3AA
 10
281.945692
 20
-186.844469
 30
0.0
 11
282.309813
 21
-187.378748
 31
0.0
  0
LINE
  8
0
  6
CONTINUOUS
 62
     7
  5
3AB
 10
497.296329
 20
-182.119739
 30
0.0
 11
497.267843
 21
-182.119865
 31
0.0
  0
ARC
  8
0
  6
CONTINUOUS
 62
     7
  5
3AC
 10
497.296653
 20
-185.419758
 30
0.0
 40
3.300019
 50
92.913999
 51
180.000013
210
0.0
220
0.0
230
1.0
  0
ARC
  8
0
  6
CONTINUOUS
 62
     7
  5
3AD
 10
497.296653
 20
-185.419759
 30
0.0
 40
3.300019
 50
179.999987
 51
267.061948
210
0.0
220
0.0
230
1.0
  0
LINE
  8
0
  6
CONTINUOUS
 62
     7
  5
3AE
 10
497.263875
 20
-188.719615
 30
0.0
 11
497.296671
 21
-188.719778
 31
0.0
  0
ARC
  8
0
  6
CONTINUOUS
 62
     7
  5
3AF
 10
284.763293
 20
-185.419758
 30
0.0
 40
3.300019
 50
272.949831
 51
87.061128
210
0.0
220
0.0
230
1.0
  0
LINE
  8
0
  6
CONTINUOUS
 62
     7
  5
3B0
 10
286.601655
 20
-181.378323
 30
0.0
 11
286.187024
 21
-181.378323
 31
0.0
  0
LINE
  8
0
  6
CONTINUOUS
 62
     7
  5
3B1
 10
286.187024
 20
-189.461194
 30
0.0
 11
286.601655
 21
-189.461194
 31
0.0
  0
LINE
  8
0
  6
CONTINUOUS
 62
     7
  5
3B2
 10
495.458292
 20
-189.461194
 30
0.0
 11
495.872923
 21
-189.461194
 31
0.0
  0
LINE
  8
0
  6
CONTINUOUS
 62
     7
  5
3B3
 10
495.872923
 20
-181.378323
 30
0.0
 11
495.458292
 21
-181.378323
 31
0.0
  0
LINE
  8
0
  6
CONTINUOUS
 62
     7
  5
3B4
 10
491.029974
 20
-189.419759
 30
0.0
 11
494.329884
 21
-189.419759
 31
0.0
  0
LINE
  8
0
  6
CONTINUOUS
 62
     7
  5
3B5
 10
494.329884
 20
-181.419757
 30
0.0
 11
491.029974
 21
-181.419757
 31
0.0
  0
LINE
  8
0
  6
CONTINUOUS
 62
     7
  5
3B6
 10
291.029974
 20
-181.419757
 30
0.0
 11
287.730064
 21
-181.419757
 31
0.0
  0
LINE
  8
0
  6
CONTINUOUS
 62
     7
  5
3B7
 10
287.730064
 20
-189.419759
 30
0.0
 11
291.029974
 21
-189.419759
 31
0.0
  0
ARC
  8
0
  6
CONTINUOUS
 62
     7
  5
3B8
 10
494.329884
 20
-185.419758
 30
0.0
 40
4.0
 50
270.0
 51
276.479714
210
0.0
220
0.0
230
1.0
  0
ARC
  8
0
  6
CONTINUOUS
 62
     7
  5
3B9
 10
494.329884
 20
-185.419758
 30
0.0
 40
4.0
 50
83.520286
 51
90.0
210
0.0
220
0.0
230
1.0
  0
ARC
  8
0
  6
CONTINUOUS
 62
     7
  5
3BA
 10
287.730064
 20
-185.419758
 30
0.0
 40
4.0
 50
90.0
 51
96.479714
210
0.0
220
0.0
230
1.0
  0
ARC
  8
0
  6
CONTINUOUS
 62
     7
  5
3BB
 10
287.730064
 20
-185.419758
 30
0.0
 40
4.0
 50
263.520286
 51
270.0
210
0.0
220
0.0
230
1.0
  0
LINE
  8
0
  6
CONTINUOUS
 62
     7
  5
3BC
 10
497.739794
 20
-188.919762
 30
0.0
 11
534.029974
 21
-188.919762
 31
0.0
  0
ENDBLK
  8
0
  5
3BD
  0
BLOCK
  8
0
  5
3C0
  2
AID805
 70
     0
 10
0.0
 20
0.0
 30
0.0
  3
#auxiliary draft view
  0
LINE
  8
0
  6
CONTINUOUS
 62
     7
  5
3C1
 10
291.029974
 20
598.041031
 30
0.0
 11
491.029974
 21
598.041031
 31
0.0
  0
LINE
  8
0
  6
CONTINUOUS
 62
     7
  5
3C2
 10
491.029974
 20
606.041031
 30
0.0
 11
476.029974
 21
606.041031
 31
0.0
  0
LINE
  8
0
  6
CONTINUOUS
 62
     7
  5
3C3
 10
476.029974
 20
611.041031
 30
0.0
 11
476.029974
 21
606.041031
 31
0.0
  0
LINE
  8
0
  6
CONTINUOUS
 62
     7
  5
3C4
 10
491.029974
 20
598.041031
 30
0.0
 11
491.029974
 21
606.041031
 31
0.0
  0
LINE
  8
0
  6
CONTINUOUS
 62
     7
  5
3C5
 10
306.029974
 20
606.041031
 30
0.0
 11
291.029974
 21
606.041031
 31
0.0
  0
LINE
  8
0
  6
CONTINUOUS
 62
     7
  5
3C6
 10
306.029974
 20
611.041031
 30
0.0
 11
306.029974
 21
606.041031
 31
0.0
  0
LINE
  8
0
  6
CONTINUOUS
 62
     7
  5
3C7
 10
291.029974
 20
598.041031
 30
0.0
 11
291.029974
 21
606.041031
 31
0.0
  0
LINE
  8
0
  6
CONTINUOUS
 62
     7
  5
3C8
 10
476.029974
 20
611.041031
 30
0.0
 11
306.029974
 21
611.041031
 31
0.0
  0
CIRCLE
  8
0
  6
CONTINUOUS
 62
     7
  5
3C9
 10
456.029974
 20
593.041031
 30
0.0
 40
2.0
210
0.0
220
0.0
230
1.0
  0
CIRCLE
  8
0
  6
CONTINUOUS
 62
     7
  5
3CA
 10
424.029974
 20
593.041031
 30
0.0
 40
2.0
210
0.0
220
0.0
230
1.0
  0
CIRCLE
  8
0
  6
CONTINUOUS
 62
     7
  5
3CB
 10
386.029974
 20
593.041031
 30
0.0
 40
2.0
210
0.0
220
0.0
230
1.0
  0
CIRCLE
  8
0
  6
CONTINUOUS
 62
     7
  5
3CC
 10
354.029974
 20
593.041031
 30
0.0
 40
2.0
210
0.0
220
0.0
230
1.0
  0
LINE
  8
0
  6
CONTINUOUS
 62
     7
  5
3CD
 10
291.029974
 20
554.541031
 30
0.0
 11
491.029974
 21
554.541031
 31
0.0
  0
LINE
  8
0
  6
CONTINUOUS
 62
     7
  5
3CE
 10
491.029974
 20
554.541031
 30
0.0
 11
491.029974
 21
598.041031
 31
0.0
  0
LINE
  8
0
  6
CONTINUOUS
 62
     7
  5
3CF
 10
291.029974
 20
598.041031
 30
0.0
 11
291.029974
 21
554.541031
 31
0.0
  0
CIRCLE
  8
0
  6
CONTINUOUS
 62
     7
  5
3D0
 10
386.029974
 20
593.041031
 30
0.0
 40
1.621
210
0.0
220
0.0
230
1.0
  0
CIRCLE
  8
0
  6
CONTINUOUS
 62
     7
  5
3D1
 10
354.029974
 20
593.041031
 30
0.0
 40
1.621
210
0.0
220
0.0
230
1.0
  0
CIRCLE
  8
0
  6
CONTINUOUS
 62
     7
  5
3D2
 10
424.029974
 20
593.041031
 30
0.0
 40
1.621
210
0.0
220
0.0
230
1.0
  0
CIRCLE
  8
0
  6
CONTINUOUS
 62
     7
  5
3D3
 10
456.029974
 20
593.041031
 30
0.0
 40
1.621
210
0.0
220
0.0
230
1.0
  0
LINE
  8
0
  6
CONTINUOUS
 62
     9
  5
3D4
 10
484.029974
 20
611.041031
 30
0.0
 11
484.029974
 21
606.041031
 31
0.0
  0
LINE
  8
0
  6
CONTINUOUS
 62
     7
  5
3D5
 10
476.029974
 20
611.041031
 30
0.0
 11
484.029974
 21
611.041031
 31
0.0
  0
LINE
  8
0
  6
CONTINUOUS
 62
     9
  5
3D6
 10
298.029974
 20
611.041031
 30
0.0
 11
298.029974
 21
606.041031
 31
0.0
  0
LINE
  8
0
  6
CONTINUOUS
 62
     7
  5
3D7
 10
298.029974
 20
611.041031
 30
0.0
 11
306.029974
 21
611.041031
 31
0.0
  0
LINE
  8
0
  6
CONTINUOUS
 62
     7
  5
3D8
 10
291.029974
 20
611.041031
 30
0.0
 11
291.029974
 21
606.041031
 31
0.0
  0
LINE
  8
0
  6
CONTINUOUS
 62
     7
  5
3D9
 10
298.029974
 20
611.041031
 30
0.0
 11
291.029974
 21
611.041031
 31
0.0
  0
LINE
  8
0
  6
CONTINUOUS
 62
     7
  5
3DA
 10
491.029974
 20
611.041031
 30
0.0
 11
491.029974
 21
606.041031
 31
0.0
  0
LINE
  8
0
  6
CONTINUOUS
 62
     7
  5
3DB
 10
491.029974
 20
611.041031
 30
0.0
 11
484.029974
 21
611.041031
 31
0.0
  0
LINE
  8
0
  6
CONTINUOUS
 62
     7
  5
3DC
 10
288.529974
 20
556.041031
 30
0.0
 11
288.529974
 21
568.041031
 31
0.0
  0
LINE
  8
0
  6
CONTINUOUS
 62
     9
  5
3DD
 10
494.329884
 20
585.041028
 30
0.0
 11
494.329884
 21
584.541031
 31
0.0
  0
LINE
  8
0
  6
CONTINUOUS
 62
     9
  5
3DE
 10
287.730064
 20
585.041028
 30
0.0
 11
287.730064
 21
577.041026
 31
0.0
  0
POLYLINE
  8
0
  6
CONTINUOUS
 62
     7
  5
3DF
 66
     1
 10
0.0
 20
0.0
 30
0.0
 40
0.5
 41
0.5
  0
VERTEX
  8
0
 62
     7
  5
3E0
 10
494.781289
 20
585.015475
 30
0.0
  0
VERTEX
  8
0
 62
     7
  5
3E1
 10
495.118379
 20
585.065681
 30
0.0
  0
VERTEX
  8
0
 62
     7
  5
3E2
 10
495.458292
 20
585.082463
 30
0.0
  0
SEQEND
  8
0
  5
3E3
  0
POLYLINE
  8
0
  6
CONTINUOUS
 62
     7
  5
3E4
 66
     1
 10
0.0
 20
0.0
 30
0.0
 40
0.5
 41
0.5
  0
VERTEX
  8
0
 62
     7
  5
3E5
 10
282.867856
 20
581.041027
 30
0.0
  0
VERTEX
  8
0
 62
     7
  5
3E6
 10
282.879366
 20
580.72394
 30
0.0
  0
VERTEX
  8
0
 62
     7
  5
3E7
 10
282.913825
 20
580.408807
 30
0.0
  0
VERTEX
  8
0
 62
     7
  5
3E8
 10
282.971021
 20
580.097573
 30
0.0
  0
VERTEX
  8
0
 62
     7
  5
3E9
 10
283.050601
 20
579.792155
 30
0.0
  0
VERTEX
  8
0
 62
     7
  5
3EA
 10
283.152074
 20
579.494436
 30
0.0
  0
VERTEX
  8
0
 62
     7
  5
3EB
 10
283.274815
 20
579.206254
 30
0.0
  0
VERTEX
  8
0
 62
     7
  5
3EC
 10
283.418068
 20
578.929383
 30
0.0
  0
VERTEX
  8
0
 62
     7
  5
3ED
 10
283.580948
 20
578.665531
 30
0.0
  0
VERTEX
  8
0
 62
     7
  5
3EE
 10
283.762452
 20
578.416324
 30
0.0
  0
VERTEX
  8
0
 62
     7
  5
3EF
 10
283.96146
 20
578.1833
 30
0.0
  0
VERTEX
  8
0
 62
     7
  5
3F0
 10
284.176746
 20
577.967895
 30
0.0
  0
VERTEX
  8
0
 62
     7
  5
3F1
 10
284.406983
 20
577.771437
 30
0.0
  0
VERTEX
  8
0
 62
     7
  5
3F2
 10
284.65075
 20
577.595136
 30
0.0
  0
VERTEX
  8
0
 62
     7
  5
3F3
 10
284.906546
 20
577.440081
 30
0.0
  0
VERTEX
  8
0
 62
     7
  5
3F4
 10
285.172792
 20
577.307227
 30
0.0
  0
VERTEX
  8
0
 62
     7
  5
3F5
 10
285.447847
 20
577.197393
 30
0.0
  0
VERTEX
  8
0
 62
     7
  5
3F6
 10
285.730017
 20
577.111256
 30
0.0
  0
VERTEX
  8
0
 62
     7
  5
3F7
 10
286.01756
 20
577.049348
 30
0.0
  0
VERTEX
  8
0
 62
     7
  5
3F8
 10
286.308704
 20
577.01205
 30
0.0
  0
VERTEX
  8
0
 62
     7
  5
3F9
 10
286.601655
 20
576.999591
 30
0.0
  0
SEQEND
  8
0
  5
3FA
  0
POLYLINE
  8
0
  6
CONTINUOUS
 62
     7
  5
3FB
 66
     1
 10
0.0
 20
0.0
 30
0.0
 40
0.5
 41
0.5
  0
VERTEX
  8
0
 62
     7
  5
3FC
 10
495.872923
 20
585.082463
 30
0.0
  0
VERTEX
  8
0
 62
     7
  5
3FD
 10
496.117121
 20
585.07381
 30
0.0
  0
VERTEX
  8
0
 62
     7
  5
3FE
 10
496.360273
 20
585.047889
 30
0.0
  0
VERTEX
  8
0
 62
     7
  5
3FF
 10
496.601339
 20
585.00481
 30
0.0
  0
VERTEX
  8
0
 62
     7
  5
400
 10
496.839285
 20
584.944759
 30
0.0
  0
VERTEX
  8
0
 62
     7
  5
401
 10
497.073094
 20
584.867992
 30
0.0
  0
VERTEX
  8
0
 62
     7
  5
402
 10
497.301763
 20
584.774837
 30
0.0
  0
VERTEX
  8
0
 62
     7
  5
403
 10
497.524314
 20
584.665695
 30
0.0
  0
VERTEX
  8
0
 62
     7
  5
404
 10
497.739794
 20
584.541031
 30
0.0
  0
SEQEND
  8
0
  5
405
  0
POLYLINE
  8
0
  6
CONTINUOUS
 62
     7
  5
406
 66
     1
 10
0.0
 20
0.0
 30
0.0
 40
0.5
 41
0.5
  0
VERTEX
  8
0
 62
     7
  5
407
 10
495.458292
 20
585.082463
 30
0.0
  0
VERTEX
  8
0
 62
     7
  5
408
 10
495.70249
 20
585.07381
 30
0.0
  0
VERTEX
  8
0
 62
     7
  5
409
 10
495.945643
 20
585.047889
 30
0.0
  0
VERTEX
  8
0
 62
     7
  5
40A
 10
496.186708
 20
585.00481
 30
0.0
  0
VERTEX
  8
0
 62
     7
  5
40B
 10
496.424655
 20
584.944759
 30
0.0
  0
VERTEX
  8
0
 62
     7
  5
40C
 10
496.658463
 20
584.867992
 30
0.0
  0
VERTEX
  8
0
 62
     7
  5
40D
 10
496.887132
 20
584.774837
 30
0.0
  0
VERTEX
  8
0
 62
     7
  5
40E
 10
497.109683
 20
584.665695
 30
0.0
  0
VERTEX
  8
0
 62
     7
  5
40F
 10
497.325163
 20
584.541031
 30
0.0
  0
SEQEND
  8
0
  5
410
  0
POLYLINE
  8
0
  6
CONTINUOUS
 62
     7
  5
411
 66
     1
 10
0.0
 20
0.0
 30
0.0
 40
0.5
 41
0.5
  0
VERTEX
  8
0
 62
     7
  5
412
 10
286.187024
 20
585.082463
 30
0.0
  0
VERTEX
  8
0
 62
     7
  5
413
 10
285.894074
 20
585.070004
 30
0.0
  0
VERTEX
  8
0
 62
     7
  5
414
 10
285.602929
 20
585.032706
 30
0.0
  0
VERTEX
  8
0
 62
     7
  5
415
 10
285.315386
 20
584.970798
 30
0.0
  0
VERTEX
  8
0
 62
     7
  5
416
 10
285.033217
 20
584.884661
 30
0.0
  0
VERTEX
  8
0
 62
     7
  5
417
 10
284.758161
 20
584.774827
 30
0.0
  0
VERTEX
  8
0
 62
     7
  5
418
 10
284.491915
 20
584.641973
 30
0.0
  0
VERTEX
  8
0
 62
     7
  5
419
 10
284.23612
 20
584.486918
 30
0.0
  0
VERTEX
  8
0
 62
     7
  5
41A
 10
283.992352
 20
584.310617
 30
0.0
  0
VERTEX
  8
0
 62
     7
  5
41B
 10
283.762116
 20
584.114159
 30
0.0
  0
VERTEX
  8
0
 62
     7
  5
41C
 10
283.54683
 20
583.898754
 30
0.0
  0
VERTEX
  8
0
 62
     7
  5
41D
 10
283.347821
 20
583.66573
 30
0.0
  0
VERTEX
  8
0
 62
     7
  5
41E
 10
283.166317
 20
583.416523
 30
0.0
  0
VERTEX
  8
0
 62
     7
  5
41F
 10
283.003437
 20
583.152671
 30
0.0
  0
VERTEX
  8
0
 62
     7
  5
420
 10
282.860185
 20
582.8758
 30
0.0
  0
VERTEX
  8
0
 62
     7
  5
421
 10
282.737444
 20
582.587618
 30
0.0
  0
VERTEX
  8
0
 62
     7
  5
422
 10
282.63597
 20
582.289899
 30
0.0
  0
VERTEX
  8
0
 62
     7
  5
423
 10
282.55639
 20
581.984481
 30
0.0
  0
VERTEX
  8
0
 62
     7
  5
424
 10
282.499194
 20
581.673247
 30
0.0
  0
VERTEX
  8
0
 62
     7
  5
425
 10
282.464735
 20
581.358114
 30
0.0
  0
VERTEX
  8
0
 62
     7
  5
426
 10
282.453225
 20
581.041027
 30
0.0
  0
SEQEND
  8
0
  5
427
  0
POLYLINE
  8
0
  6
CONTINUOUS
 62
     7
  5
428
 66
     1
 10
0.0
 20
0.0
 30
0.0
 40
0.5
 41
0.5
  0
VERTEX
  8
0
 62
     7
  5
429
 10
286.601655
 20
585.082463
 30
0.0
  0
VERTEX
  8
0
 62
     7
  5
42A
 10
286.308704
 20
585.070004
 30
0.0
  0
VERTEX
  8
0
 62
     7
  5
42B
 10
286.01756
 20
585.032706
 30
0.0
  0
VERTEX
  8
0
 62
     7
  5
42C
 10
285.730017
 20
584.970798
 30
0.0
  0
VERTEX
  8
0
 62
     7
  5
42D
 10
285.447847
 20
584.884661
 30
0.0
  0
VERTEX
  8
0
 62
     7
  5
42E
 10
285.172792
 20
584.774827
 30
0.0
  0
VERTEX
  8
0
 62
     7
  5
42F
 10
284.906546
 20
584.641973
 30
0.0
  0
VERTEX
  8
0
 62
     7
  5
430
 10
284.65075
 20
584.486918
 30
0.0
  0
VERTEX
  8
0
 62
     7
  5
431
 10
284.406983
 20
584.310617
 30
0.0
  0
VERTEX
  8
0
 62
     7
  5
432
 10
284.176746
 20
584.114159
 30
0.0
  0
VERTEX
  8
0
 62
     7
  5
433
 10
283.96146
 20
583.898754
 30
0.0
  0
VERTEX
  8
0
 62
     7
  5
434
 10
283.762452
 20
583.66573
 30
0.0
  0
VERTEX
  8
0
 62
     7
  5
435
 10
283.580948
 20
583.416523
 30
0.0
  0
VERTEX
  8
0
 62
     7
  5
436
 10
283.418068
 20
583.152671
 30
0.0
  0
VERTEX
  8
0
 62
     7
  5
437
 10
283.274815
 20
582.8758
 30
0.0
  0
VERTEX
  8
0
 62
     7
  5
438
 10
283.152074
 20
582.587618
 30
0.0
  0
VERTEX
  8
0
 62
     7
  5
439
 10
283.050601
 20
582.289899
 30
0.0
  0
VERTEX
  8
0
 62
     7
  5
43A
 10
282.971021
 20
581.984481
 30
0.0
  0
VERTEX
  8
0
 62
     7
  5
43B
 10
282.913825
 20
581.673247
 30
0.0
  0
VERTEX
  8
0
 62
     7
  5
43C
 10
282.879366
 20
581.358114
 30
0.0
  0
VERTEX
  8
0
 62
     7
  5
43D
 10
282.867856
 20
581.041027
 30
0.0
  0
SEQEND
  8
0
  5
43E
  0
POLYLINE
  8
0
  6
CONTINUOUS
 62
     7
  5
43F
 66
     1
 10
0.0
 20
0.0
 30
0.0
 40
0.5
 41
0.5
  0
VERTEX
  8
0
 62
     7
  5
440
 10
286.601655
 20
576.999591
 30
0.0
  0
VERTEX
  8
0
 62
     7
  5
441
 10
286.941568
 20
577.016373
 30
0.0
  0
VERTEX
  8
0
 62
     7
  5
442
 10
287.278658
 20
577.06658
 30
0.0
  0
SEQEND
  8
0
  5
443
  0
POLYLINE
  8
0
  6
CONTINUOUS
 62
     7
  5
444
 66
     1
 10
0.0
 20
0.0
 30
0.0
 40
0.5
 41
0.5
  0
VERTEX
  8
0
 62
     7
  5
445
 10
287.278658
 20
585.015475
 30
0.0
  0
VERTEX
  8
0
 62
     7
  5
446
 10
286.941568
 20
585.065681
 30
0.0
  0
VERTEX
  8
0
 62
     7
  5
447
 10
286.601655
 20
585.082463
 30
0.0
  0
SEQEND
  8
0
  5
448
  0
POLYLINE
  8
0
  6
CONTINUOUS
 62
     7
  5
449
 66
     1
 10
0.0
 20
0.0
 30
0.0
 40
0.5
 41
0.5
  0
VERTEX
  8
0
 62
     7
  5
44A
 10
282.453225
 20
581.041027
 30
0.0
  0
VERTEX
  8
0
 62
     7
  5
44B
 10
282.464735
 20
580.72394
 30
0.0
  0
VERTEX
  8
0
 62
     7
  5
44C
 10
282.499194
 20
580.408807
 30
0.0
  0
VERTEX
  8
0
 62
     7
  5
44D
 10
282.55639
 20
580.097573
 30
0.0
  0
VERTEX
  8
0
 62
     7
  5
44E
 10
282.63597
 20
579.792155
 30
0.0
  0
VERTEX
  8
0
 62
     7
  5
44F
 10
282.737444
 20
579.494436
 30
0.0
  0
VERTEX
  8
0
 62
     7
  5
450
 10
282.860185
 20
579.206254
 30
0.0
  0
VERTEX
  8
0
 62
     7
  5
451
 10
283.003437
 20
578.929383
 30
0.0
  0
VERTEX
  8
0
 62
     7
  5
452
 10
283.166317
 20
578.665531
 30
0.0
  0
VERTEX
  8
0
 62
     7
  5
453
 10
283.347821
 20
578.416324
 30
0.0
  0
VERTEX
  8
0
 62
     7
  5
454
 10
283.54683
 20
578.1833
 30
0.0
  0
VERTEX
  8
0
 62
     7
  5
455
 10
283.762116
 20
577.967895
 30
0.0
  0
VERTEX
  8
0
 62
     7
  5
456
 10
283.992352
 20
577.771437
 30
0.0
  0
VERTEX
  8
0
 62
     7
  5
457
 10
284.23612
 20
577.595136
 30
0.0
  0
VERTEX
  8
0
 62
     7
  5
458
 10
284.491915
 20
577.440081
 30
0.0
  0
VERTEX
  8
0
 62
     7
  5
459
 10
284.758161
 20
577.307227
 30
0.0
  0
VERTEX
  8
0
 62
     7
  5
45A
 10
285.033217
 20
577.197393
 30
0.0
  0
VERTEX
  8
0
 62
     7
  5
45B
 10
285.315386
 20
577.111256
 30
0.0
  0
VERTEX
  8
0
 62
     7
  5
45C
 10
285.602929
 20
577.049348
 30
0.0
  0
VERTEX
  8
0
 62
     7
  5
45D
 10
285.894074
 20
577.01205
 30
0.0
  0
VERTEX
  8
0
 62
     7
  5
45E
 10
286.187024
 20
576.999591
 30
0.0
  0
SEQEND
  8
0
  5
45F
  0
POLYLINE
  8
0
  6
CONTINUOUS
 62
     7
  5
460
 66
     1
 10
0.0
 20
0.0
 30
0.0
 40
0.5
 41
0.5
  0
VERTEX
  8
0
 62
     7
  5
461
 10
283.843533
 20
584.187291
 30
0.0
  0
VERTEX
  8
0
 62
     7
  5
462
 10
283.618144
 20
584.099411
 30
0.0
  0
VERTEX
  8
0
 62
     7
  5
463
 10
283.399827
 20
583.992646
 30
0.0
  0
VERTEX
  8
0
 62
     7
  5
464
 10
283.189927
 20
583.867658
 30
0.0
  0
VERTEX
  8
0
 62
     7
  5
465
 10
282.989743
 20
583.725217
 30
0.0
  0
VERTEX
  8
0
 62
     7
  5
466
 10
282.800509
 20
583.566204
 30
0.0
  0
VERTEX
  8
0
 62
     7
  5
467
 10
282.623393
 20
583.391599
 30
0.0
  0
VERTEX
  8
0
 62
     7
  5
468
 10
282.459491
 20
583.20248
 30
0.0
  0
VERTEX
  8
0
 62
     7
  5
469
 10
282.309813
 20
583.000017
 30
0.0
  0
SEQEND
  8
0
  5
46A
  0
POLYLINE
  8
0
  6
CONTINUOUS
 62
     7
  5
46B
 66
     1
 10
0.0
 20
0.0
 30
0.0
 40
0.5
 41
0.5
  0
VERTEX
  8
0
 62
     7
  5
46C
 10
281.714495
 20
581.041027
 30
0.0
  0
VERTEX
  8
0
 62
     7
  5
46D
 10
281.724111
 20
580.779132
 30
0.0
  0
VERTEX
  8
0
 62
     7
  5
46E
 10
281.752899
 20
580.518889
 30
0.0
  0
VERTEX
  8
0
 62
     7
  5
46F
 10
281.800678
 20
580.26194
 30
0.0
  0
VERTEX
  8
0
 62
     7
  5
470
 10
281.867146
 20
580.009905
 30
0.0
  0
VERTEX
  8
0
 62
     7
  5
471
 10
281.951883
 20
579.764375
 30
0.0
  0
VERTEX
  8
0
 62
     7
  5
472
 10
282.054356
 20
579.526898
 30
0.0
  0
VERTEX
  8
0
 62
     7
  5
473
 10
282.173917
 20
579.298973
 30
0.0
  0
VERTEX
  8
0
 62
     7
  5
474
 10
282.309813
 20
579.082037
 30
0.0
  0
SEQEND
  8
0
  5
475
  0
POLYLINE
  8
0
  6
CONTINUOUS
 62
     7
  5
476
 66
     1
 10
0.0
 20
0.0
 30
0.0
 40
0.5
 41
0.5
  0
VERTEX
  8
0
 62
     7
  5
477
 10
281.945692
 20
582.465737
 30
0.0
  0
VERTEX
  8
0
 62
     7
  5
478
 10
281.84686
 20
582.307967
 30
0.0
  0
VERTEX
  8
0
 62
     7
  5
479
 10
281.759907
 20
582.142204
 30
0.0
  0
VERTEX
  8
0
 62
     7
  5
47A
 10
281.685382
 20
581.969495
 30
0.0
  0
VERTEX
  8
0
 62
     7
  5
47B
 10
281.623755
 20
581.790929
 30
0.0
  0
VERTEX
  8
0
 62
     7
  5
47C
 10
281.575415
 20
581.607632
 30
0.0
  0
VERTEX
  8
0
 62
     7
  5
47D
 10
281.540667
 20
581.420761
 30
0.0
  0
VERTEX
  8
0
 62
     7
  5
47E
 10
281.51973
 20
581.231495
 30
0.0
  0
VERTEX
  8
0
 62
     7
  5
47F
 10
281.512737
 20
581.041027
 30
0.0
  0
VERTEX
  8
0
 62
     7
  5
480
 10
281.51973
 20
580.850559
 30
0.0
  0
VERTEX
  8
0
 62
     7
  5
481
 10
281.540667
 20
580.661293
 30
0.0
  0
VERTEX
  8
0
 62
     7
  5
482
 10
281.575415
 20
580.474422
 30
0.0
  0
VERTEX
  8
0
 62
     7
  5
483
 10
281.623755
 20
580.291125
 30
0.0
  0
VERTEX
  8
0
 62
     7
  5
484
 10
281.685382
 20
580.112559
 30
0.0
  0
VERTEX
  8
0
 62
     7
  5
485
 10
281.759907
 20
579.93985
 30
0.0
  0
VERTEX
  8
0
 62
     7
  5
486
 10
281.84686
 20
579.774087
 30
0.0
  0
VERTEX
  8
0
 62
     7
  5
487
 10
281.945692
 20
579.616317
 30
0.0
  0
SEQEND
  8
0
  5
488
  0
POLYLINE
  8
0
  6
CONTINUOUS
 62
     7
  5
489
 66
     1
 10
0.0
 20
0.0
 30
0.0
 40
0.5
 41
0.5
  0
VERTEX
  8
0
 62
     7
  5
48A
 10
282.309813
 20
583.000017
 30
0.0
  0
VERTEX
  8
0
 62
     7
  5
48B
 10
282.173917
 20
582.783081
 30
0.0
  0
VERTEX
  8
0
 62
     7
  5
48C
 10
282.054356
 20
582.555156
 30
0.0
  0
VERTEX
  8
0
 62
     7
  5
48D
 10
281.951883
 20
582.317679
 30
0.0
  0
VERTEX
  8
0
 62
     7
  5
48E
 10
281.867146
 20
582.072149
 30
0.0
  0
VERTEX
  8
0
 62
     7
  5
48F
 10
281.800678
 20
581.820114
 30
0.0
  0
VERTEX
  8
0
 62
     7
  5
490
 10
281.752899
 20
581.563165
 30
0.0
  0
VERTEX
  8
0
 62
     7
  5
491
 10
281.724111
 20
581.302922
 30
0.0
  0
VERTEX
  8
0
 62
     7
  5
492
 10
281.714495
 20
581.041027
 30
0.0
  0
SEQEND
  8
0
  5
493
  0
POLYLINE
  8
0
  6
CONTINUOUS
 62
     7
  5
494
 66
     1
 10
0.0
 20
0.0
 30
0.0
 40
0.5
 41
0.5
  0
VERTEX
  8
0
 62
     7
  5
495
 10
282.309813
 20
579.082037
 30
0.0
  0
VERTEX
  8
0
 62
     7
  5
496
 10
282.459491
 20
578.879574
 30
0.0
  0
VERTEX
  8
0
 62
     7
  5
497
 10
282.623393
 20
578.690455
 30
0.0
  0
VERTEX
  8
0
 62
     7
  5
498
 10
282.800509
 20
578.515851
 30
0.0
  0
VERTEX
  8
0
 62
     7
  5
499
 10
282.989743
 20
578.356837
 30
0.0
  0
VERTEX
  8
0
 62
     7
  5
49A
 10
283.189927
 20
578.214396
 30
0.0
  0
VERTEX
  8
0
 62
     7
  5
49B
 10
283.399827
 20
578.089408
 30
0.0
  0
VERTEX
  8
0
 62
     7
  5
49C
 10
283.618144
 20
577.982644
 30
0.0
  0
VERTEX
  8
0
 62
     7
  5
49D
 10
283.843533
 20
577.894763
 30
0.0
  0
SEQEND
  8
0
  5
49E
  0
LINE
  8
0
  6
CONTINUOUS
 62
     9
  5
49F
 10
-229.970026
 20
512.041031
 30
0.0
 11
-229.970026
 21
514.041031
 31
0.0
  0
LINE
  8
0
  6
CONTINUOUS
 62
     9
  5
4A0
 10
-229.970026
 20
514.041031
 30
0.0
 11
552.029974
 21
514.041031
 31
0.0
  0
LINE
  8
0
  6
CONTINUOUS
 62
     9
  5
4A1
 10
552.029974
 20
512.041031
 30
0.0
 11
552.029974
 21
514.041031
 31
0.0
  0
LINE
  8
0
  6
CONTINUOUS
 62
     7
  5
4A2
 10
552.029974
 20
512.041031
 30
0.0
 11
-229.970026
 21
512.041031
 31
0.0
  0
LINE
  8
0
  6
CONTINUOUS
 62
     9
  5
4A3
 10
-229.970026
 20
550.041031
 30
0.0
 11
-231.970026
 21
550.041031
 31
0.0
  0
ARC
  8
0
  6
CONTINUOUS
 62
     7
  5
4A4
 10
-229.970026
 20
550.041031
 30
0.0
 40
2.0
 50
90.0
 51
180.0
210
0.0
220
0.0
230
1.0
  0
LINE
  8
0
  6
CONTINUOUS
 62
     9
  5
4A5
 10
-229.970026
 20
550.041031
 30
0.0
 11
-229.970026
 21
552.041031
 31
0.0
  0
ARC
  8
0
  6
CONTINUOUS
 62
     7
  5
4A6
 10
-229.970026
 20
514.041031
 30
0.0
 40
2.0
 50
180.0
 51
270.0
210
0.0
220
0.0
230
1.0
  0
LINE
  8
0
  6
CONTINUOUS
 62
     9
  5
4A7
 10
-229.970026
 20
514.041031
 30
0.0
 11
-231.970026
 21
514.041031
 31
0.0
  0
LINE
  8
0
  6
CONTINUOUS
 62
     7
  5
4A8
 10
-229.970026
 20
552.041031
 30
0.0
 11
552.029974
 21
552.041031
 31
0.0
  0
LINE
  8
0
  6
CONTINUOUS
 62
     9
  5
4A9
 10
552.029974
 20
550.041031
 30
0.0
 11
552.029974
 21
552.041031
 31
0.0
  0
LINE
  8
0
  6
CONTINUOUS
 62
     9
  5
4AA
 10
552.029974
 20
550.041031
 30
0.0
 11
-229.970026
 21
550.041031
 31
0.0
  0
ARC
  8
0
  6
CONTINUOUS
 62
     7
  5
4AB
 10
552.029974
 20
550.041031
 30
0.0
 40
2.0
 50
360.0
 51
90.0
210
0.0
220
0.0
230
1.0
  0
LINE
  8
0
  6
CONTINUOUS
 62
     9
  5
4AC
 10
552.029974
 20
550.041031
 30
0.0
 11
554.029974
 21
550.041031
 31
0.0
  0
LINE
  8
0
  6
CONTINUOUS
 62
     7
  5
4AD
 10
-231.970026
 20
550.041031
 30
0.0
 11
-231.970026
 21
514.041031
 31
0.0
  0
LINE
  8
0
  6
CONTINUOUS
 62
     9
  5
4AE
 10
-229.970026
 20
514.041031
 30
0.0
 11
-229.970026
 21
550.041031
 31
0.0
  0
LINE
  8
0
  6
CONTINUOUS
 62
     9
  5
4AF
 10
552.029974
 20
514.041031
 30
0.0
 11
552.029974
 21
550.041031
 31
0.0
  0
LINE
  8
0
  6
CONTINUOUS
 62
     7
  5
4B0
 10
554.029974
 20
550.041031
 30
0.0
 11
554.029974
 21
514.041031
 31
0.0
  0
LINE
  8
0
  6
CONTINUOUS
 62
     9
  5
4B1
 10
552.029974
 20
514.041031
 30
0.0
 11
554.029974
 21
514.041031
 31
0.0
  0
ARC
  8
0
  6
CONTINUOUS
 62
     7
  5
4B2
 10
552.029974
 20
514.041031
 30
0.0
 40
2.0
 50
270.0
 51
360.0
210
0.0
220
0.0
230
1.0
  0
LINE
  8
0
  6
CONTINUOUS
 62
     7
  5
4B3
 10
550.029974
 20
536.141031
 30
0.0
 11
550.029974
 21
527.941031
 31
0.0
  0
LINE
  8
0
  6
CONTINUOUS
 62
     7
  5
4B4
 10
550.029974
 20
536.141031
 30
0.0
 11
-227.970026
 21
536.141031
 31
0.0
  0
LINE
  8
0
  6
CONTINUOUS
 62
     7
  5
4B5
 10
550.029974
 20
527.941031
 30
0.0
 11
-227.970026
 21
527.941031
 31
0.0
  0
LINE
  8
0
  6
CONTINUOUS
 62
     7
  5
4B6
 10
-227.970026
 20
536.141031
 30
0.0
 11
-227.970026
 21
527.941031
 31
0.0
  0
LINE
  8
0
  6
CONTINUOUS
 62
     7
  5
4B7
 10
534.029974
 20
567.041031
 30
0.0
 11
548.029974
 21
567.041031
 31
0.0
  0
LINE
  8
0
  6
CONTINUOUS
 62
     7
  5
4B8
 10
534.029974
 20
589.041031
 30
0.0
 11
534.029974
 21
567.041031
 31
0.0
  0
LINE
  8
0
  6
CONTINUOUS
 62
     7
  5
4B9
 10
548.029974
 20
589.041031
 30
0.0
 11
534.029974
 21
589.041031
 31
0.0
  0
LINE
  8
0
  6
CONTINUOUS
 62
     7
  5
4BA
 10
548.029974
 20
567.041031
 30
0.0
 11
548.029974
 21
589.041031
 31
0.0
  0
LINE
  8
0
  6
CONTINUOUS
 62
     7
  5
4BB
 10
-225.970026
 20
589.041031
 30
0.0
 11
-211.970026
 21
589.041031
 31
0.0
  0
LINE
  8
0
  6
CONTINUOUS
 62
     7
  5
4BC
 10
-211.970026
 20
589.041031
 30
0.0
 11
-211.970026
 21
567.041031
 31
0.0
  0
LINE
  8
0
  6
CONTINUOUS
 62
     7
  5
4BD
 10
-211.970026
 20
567.041031
 30
0.0
 11
-225.970026
 21
567.041031
 31
0.0
  0
LINE
  8
0
  6
CONTINUOUS
 62
     7
  5
4BE
 10
-225.970026
 20
567.041031
 30
0.0
 11
-225.970026
 21
589.041031
 31
0.0
  0
LINE
  8
0
  6
CONTINUOUS
 62
     7
  5
4BF
 10
534.029974
 20
567.041031
 30
0.0
 11
534.029974
 21
552.041031
 31
0.0
  0
LINE
  8
0
  6
CONTINUOUS
 62
     7
  5
4C0
 10
548.029974
 20
567.041031
 30
0.0
 11
548.029974
 21
552.041031
 31
0.0
  0
LINE
  8
0
  6
CONTINUOUS
 62
     7
  5
4C1
 10
-211.970026
 20
567.041031
 30
0.0
 11
-211.970026
 21
552.041031
 31
0.0
  0
LINE
  8
0
  6
CONTINUOUS
 62
     7
  5
4C2
 10
-225.970026
 20
567.041031
 30
0.0
 11
-225.970026
 21
552.041031
 31
0.0
  0
LINE
  8
0
  6
CONTINUOUS
 62
     7
  5
4C3
 10
497.529974
 20
564.041031
 30
0.0
 11
521.529974
 21
564.041031
 31
0.0
  0
LINE
  8
0
  6
CONTINUOUS
 62
     7
  5
4C4
 10
521.529974
 20
564.041031
 30
0.0
 11
521.529974
 21
552.041031
 31
0.0
  0
LINE
  8
0
  6
CONTINUOUS
 62
     7
  5
4C5
 10
497.529974
 20
564.041031
 30
0.0
 11
497.529974
 21
552.041031
 31
0.0
  0
LINE
  8
0
  6
CONTINUOUS
 62
     7
  5
4C6
 10
521.529974
 20
567.041031
 30
0.0
 11
497.529974
 21
567.041031
 31
0.0
  0
LINE
  8
0
  6
CONTINUOUS
 62
     7
  5
4C7
 10
521.529974
 20
564.041031
 30
0.0
 11
521.529974
 21
567.041031
 31
0.0
  0
LINE
  8
0
  6
CONTINUOUS
 62
     7
  5
4C8
 10
497.529974
 20
567.041031
 30
0.0
 11
497.529974
 21
564.041031
 31
0.0
  0
LINE
  8
0
  6
CONTINUOUS
 62
     7
  5
4C9
 10
491.529974
 20
565.041031
 30
0.0
 11
491.529974
 21
553.041031
 31
0.0
  0
LINE
  8
0
  6
CONTINUOUS
 62
     7
  5
4CA
 10
288.529974
 20
567.804932
 30
0.0
 11
-211.970026
 21
567.804932
 31
0.0
  0
LINE
  8
0
  6
CONTINUOUS
 62
     7
  5
4CB
 10
534.029974
 20
567.506131
 30
0.0
 11
491.029974
 21
567.506131
 31
0.0
  0
LINE
  8
0
  6
CONTINUOUS
 62
     7
  5
4CC
 10
288.529974
 20
567.506131
 30
0.0
 11
-211.970026
 21
567.506131
 31
0.0
  0
LINE
  8
0
  6
CONTINUOUS
 62
     7
  5
4CD
 10
291.029974
 20
569.785172
 30
0.0
 11
-211.970026
 21
569.785172
 31
0.0
  0
LINE
  8
0
  6
CONTINUOUS
 62
     7
  5
4CE
 10
291.029974
 20
570.075601
 30
0.0
 11
-211.970026
 21
570.075601
 31
0.0
  0
LINE
  8
0
  6
CONTINUOUS
 62
     7
  5
4CF
 10
534.029974
 20
553.241049
 30
0.0
 11
521.529974
 21
553.241049
 31
0.0
  0
LINE
  8
0
  6
CONTINUOUS
 62
     7
  5
4D0
 10
491.529974
 20
553.241049
 30
0.0
 11
-211.970026
 21
553.241049
 31
0.0
  0
LINE
  8
0
  6
CONTINUOUS
 62
     7
  5
4D1
 10
534.029974
 20
559.841055
 30
0.0
 11
521.529974
 21
559.841055
 31
0.0
  0
LINE
  8
0
  6
CONTINUOUS
 62
     7
  5
4D2
 10
491.529974
 20
559.841055
 30
0.0
 11
491.029974
 21
559.841055
 31
0.0
  0
LINE
  8
0
  6
CONTINUOUS
 62
     7
  5
4D3
 10
288.529974
 20
559.841055
 30
0.0
 11
-211.970026
 21
559.841055
 31
0.0
  0
LINE
  8
0
  6
CONTINUOUS
 62
     7
  5
4D4
 10
534.029974
 20
557.141063
 30
0.0
 11
521.529974
 21
557.141063
 31
0.0
  0
LINE
  8
0
  6
CONTINUOUS
 62
     7
  5
4D5
 10
491.529974
 20
557.141063
 30
0.0
 11
491.029974
 21
557.141063
 31
0.0
  0
LINE
  8
0
  6
CONTINUOUS
 62
     7
  5
4D6
 10
288.529974
 20
557.141063
 30
0.0
 11
-211.970026
 21
557.141063
 31
0.0
  0
LINE
  8
0
  6
CONTINUOUS
 62
     7
  5
4D7
 10
534.029974
 20
565.732686
 30
0.0
 11
521.529974
 21
565.732686
 31
0.0
  0
LINE
  8
0
  6
CONTINUOUS
 62
     7
  5
4D8
 10
497.529974
 20
565.732686
 30
0.0
 11
491.029974
 21
565.732686
 31
0.0
  0
LINE
  8
0
  6
CONTINUOUS
 62
     7
  5
4D9
 10
288.529974
 20
565.732686
 30
0.0
 11
-211.970026
 21
565.732686
 31
0.0
  0
LINE
  8
0
  6
CONTINUOUS
 62
     7
  5
4DA
 10
291.029974
 20
571.78816
 30
0.0
 11
-211.970026
 21
571.78816
 31
0.0
  0
LINE
  8
0
  6
CONTINUOUS
 62
     7
  5
4DB
 10
291.029974
 20
572.041029
 30
0.0
 11
-211.970026
 21
572.041029
 31
0.0
  0
LINE
  8
0
  6
CONTINUOUS
 62
     7
  5
4DC
 10
534.029974
 20
564.921065
 30
0.0
 11
521.529974
 21
564.921065
 31
0.0
  0
LINE
  8
0
  6
CONTINUOUS
 62
     7
  5
4DD
 10
491.529974
 20
564.921065
 30
0.0
 11
491.029974
 21
564.921065
 31
0.0
  0
LINE
  8
0
  6
CONTINUOUS
 62
     7
  5
4DE
 10
288.529974
 20
564.921065
 30
0.0
 11
-211.970026
 21
564.921065
 31
0.0
  0
LINE
  8
0
  6
CONTINUOUS
 62
     7
  5
4DF
 10
291.029974
 20
568.041031
 30
0.0
 11
288.529974
 21
568.041031
 31
0.0
  0
LINE
  8
0
  6
CONTINUOUS
 62
     7
  5
4E0
 10
288.529974
 20
556.041031
 30
0.0
 11
291.029974
 21
556.041031
 31
0.0
  0
ARC
  8
0
  6
CONTINUOUS
 62
     7
  5
4E1
 10
494.329884
 20
581.041027
 30
0.0
 40
4.0
 50
61.045094
 51
90.0
210
0.0
220
0.0
230
1.0
  0
LINE
  8
0
  6
CONTINUOUS
 62
     7
  5
4E2
 10
291.029974
 20
585.041028
 30
0.0
 11
287.730064
 21
585.041028
 31
0.0
  0
LINE
  8
0
  6
CONTINUOUS
 62
     7
  5
4E3
 10
287.730064
 20
577.041026
 30
0.0
 11
291.029974
 21
577.041026
 31
0.0
  0
ARC
  8
0
  6
CONTINUOUS
 62
     7
  5
4E4
 10
287.730064
 20
581.041027
 30
0.0
 40
4.0
 50
90.0
 51
270.0
210
0.0
220
0.0
230
1.0
  0
LINE
  8
0
  6
CONTINUOUS
 62
     7
  5
4E5
 10
494.329884
 20
585.041028
 30
0.0
 11
491.029974
 21
585.041028
 31
0.0
  0
LINE
  8
0
  6
CONTINUOUS
 62
     7
  5
4E6
 10
495.872923
 20
585.082463
 30
0.0
 11
495.458292
 21
585.082463
 31
0.0
  0
LINE
  8
0
  6
CONTINUOUS
 62
     7
  5
4E7
 10
286.601655
 20
585.082463
 30
0.0
 11
286.187024
 21
585.082463
 31
0.0
  0
LINE
  8
0
  6
CONTINUOUS
 62
     7
  5
4E8
 10
286.187024
 20
576.999591
 30
0.0
 11
286.601655
 21
576.999591
 31
0.0
  0
LINE
  8
0
  6
CONTINUOUS
 62
     7
  5
4E9
 10
282.309813
 20
583.000017
 30
0.0
 11
281.945692
 21
582.465737
 31
0.0
  0
LINE
  8
0
  6
CONTINUOUS
 62
     7
  5
4EA
 10
281.945692
 20
579.616317
 30
0.0
 11
282.309813
 21
579.082037
 31
0.0
  0
LINE
  8
0
  6
CONTINUOUS
 62
     7
  5
4EB
 10
534.029974
 20
584.541031
 30
0.0
 11
491.029974
 21
584.541031
 31
0.0
  0
LINE
  8
0
  6
CONTINUOUS
 62
     7
  5
4EC
 10
491.029974
 20
567.541031
 30
0.0
 11
534.029974
 21
567.541031
 31
0.0
  0
LINE
  8
0
  6
CONTINUOUS
 62
     7
  5
4ED
 10
491.529974
 20
553.041031
 30
0.0
 11
497.529974
 21
553.041031
 31
0.0
  0
LINE
  8
0
  6
CONTINUOUS
 62
     7
  5
4EE
 10
497.529974
 20
565.041031
 30
0.0
 11
491.529974
 21
565.041031
 31
0.0
  0
ENDBLK
  8
0
  5
4EF
  0
BLOCK
  8
0
  5
4F2
  2
AID1057
 70
     0
 10
0.0
 20
0.0
 30
0.0
  3
#auxiliary draft view
  0
POLYLINE
  8
0
  6
CONTINUOUS
 62
     7
  5
4F3
 66
     1
 10
0.0
 20
0.0
 30
0.0
 40
0.5
 41
0.5
  0
VERTEX
  8
0
 62
     7
  5
4F4
 10
836.663696
 20
219.297322
 30
0.0
  0
VERTEX
  8
0
 62
     7
  5
4F5
 10
836.6935
 20
219.362084
 30
0.0
  0
VERTEX
  8
0
 62
     7
  5
4F6
 10
836.735336
 20
219.425865
 30
0.0
  0
VERTEX
  8
0
 62
     7
  5
4F7
 10
836.78899
 20
219.488336
 30
0.0
  0
VERTEX
  8
0
 62
     7
  5
4F8
 10
836.854187
 20
219.549178
 30
0.0
  0
VERTEX
  8
0
 62
     7
  5
4F9
 10
836.930594
 20
219.608079
 30
0.0
  0
VERTEX
  8
0
 62
     7
  5
4FA
 10
837.017818
 20
219.664737
 30
0.0
  0
VERTEX
  8
0
 62
     7
  5
4FB
 10
837.115411
 20
219.718862
 30
0.0
  0
VERTEX
  8
0
 62
     7
  5
4FC
 10
837.222875
 20
219.770175
 30
0.0
  0
VERTEX
  8
0
 62
     7
  5
4FD
 10
837.339657
 20
219.818414
 30
0.0
  0
VERTEX
  8
0
 62
     7
  5
4FE
 10
837.46516
 20
219.863332
 30
0.0
  0
VERTEX
  8
0
 62
     7
  5
4FF
 10
837.59874
 20
219.904698
 30
0.0
  0
VERTEX
  8
0
 62
     7
  5
500
 10
837.739712
 20
219.9423
 30
0.0
  0
VERTEX
  8
0
 62
     7
  5
501
 10
837.887353
 20
219.975946
 30
0.0
  0
VERTEX
  8
0
 62
     7
  5
502
 10
838.040906
 20
220.005463
 30
0.0
  0
VERTEX
  8
0
 62
     7
  5
503
 10
838.199586
 20
220.030699
 30
0.0
  0
VERTEX
  8
0
 62
     7
  5
504
 10
838.362577
 20
220.051526
 30
0.0
  0
VERTEX
  8
0
 62
     7
  5
505
 10
838.529044
 20
220.067837
 30
0.0
  0
VERTEX
  8
0
 62
     7
  5
506
 10
838.698134
 20
220.079547
 30
0.0
  0
VERTEX
  8
0
 62
     7
  5
507
 10
838.868981
 20
220.086597
 30
0.0
  0
VERTEX
  8
0
 62
     7
  5
508
 10
839.040707
 20
220.088951
 30
0.0
  0
SEQEND
  8
0
  5
509
  0
POLYLINE
  8
0
  6
CONTINUOUS
 62
     7
  5
50A
 66
     1
 10
0.0
 20
0.0
 30
0.0
 40
0.5
 41
0.5
  0
VERTEX
  8
0
 62
     7
  5
50B
 10
841.417719
 20
219.297322
 30
0.0
  0
VERTEX
  8
0
 62
     7
  5
50C
 10
841.437329
 20
219.21921
 30
0.0
  0
VERTEX
  8
0
 62
     7
  5
50D
 10
841.439444
 20
219.140743
 30
0.0
  0
VERTEX
  8
0
 62
     7
  5
50E
 10
841.424049
 20
219.062493
 30
0.0
  0
VERTEX
  8
0
 62
     7
  5
50F
 10
841.391256
 20
218.985032
 30
0.0
  0
VERTEX
  8
0
 62
     7
  5
510
 10
841.341303
 20
218.908925
 30
0.0
  0
VERTEX
  8
0
 62
     7
  5
511
 10
841.274557
 20
218.834728
 30
0.0
  0
VERTEX
  8
0
 62
     7
  5
512
 10
841.191504
 20
218.762981
 30
0.0
  0
VERTEX
  8
0
 62
     7
  5
513
 10
841.09275
 20
218.69421
 30
0.0
  0
VERTEX
  8
0
 62
     7
  5
514
 10
840.979016
 20
218.628915
 30
0.0
  0
VERTEX
  8
0
 62
     7
  5
515
 10
840.851133
 20
218.567574
 30
0.0
  0
VERTEX
  8
0
 62
     7
  5
516
 10
840.710034
 20
218.510635
 30
0.0
  0
VERTEX
  8
0
 62
     7
  5
517
 10
840.556749
 20
218.458512
 30
0.0
  0
VERTEX
  8
0
 62
     7
  5
518
 10
840.392397
 20
218.411587
 30
0.0
  0
VERTEX
  8
0
 62
     7
  5
519
 10
840.218178
 20
218.370202
 30
0.0
  0
VERTEX
  8
0
 62
     7
  5
51A
 10
840.035363
 20
218.33466
 30
0.0
  0
VERTEX
  8
0
 62
     7
  5
51B
 10
839.845288
 20
218.305219
 30
0.0
  0
VERTEX
  8
0
 62
     7
  5
51C
 10
839.649339
 20
218.282094
 30
0.0
  0
VERTEX
  8
0
 62
     7
  5
51D
 10
839.448947
 20
218.265455
 30
0.0
  0
VERTEX
  8
0
 62
     7
  5
51E
 10
839.245575
 20
218.255423
 30
0.0
  0
VERTEX
  8
0
 62
     7
  5
51F
 10
839.040707
 20
218.25207
 30
0.0
  0
VERTEX
  8
0
 62
     7
  5
520
 10
838.83584
 20
218.255423
 30
0.0
  0
VERTEX
  8
0
 62
     7
  5
521
 10
838.632468
 20
218.265455
 30
0.0
  0
VERTEX
  8
0
 62
     7
  5
522
 10
838.432076
 20
218.282094
 30
0.0
  0
VERTEX
  8
0
 62
     7
  5
523
 10
838.236127
 20
218.305219
 30
0.0
  0
VERTEX
  8
0
 62
     7
  5
524
 10
838.046052
 20
218.33466
 30
0.0
  0
VERTEX
  8
0
 62
     7
  5
525
 10
837.863237
 20
218.370202
 30
0.0
  0
VERTEX
  8
0
 62
     7
  5
526
 10
837.689018
 20
218.411587
 30
0.0
  0
VERTEX
  8
0
 62
     7
  5
527
 10
837.524666
 20
218.458512
 30
0.0
  0
VERTEX
  8
0
 62
     7
  5
528
 10
837.371381
 20
218.510635
 30
0.0
  0
VERTEX
  8
0
 62
     7
  5
529
 10
837.230282
 20
218.567574
 30
0.0
  0
VERTEX
  8
0
 62
     7
  5
52A
 10
837.102399
 20
218.628915
 30
0.0
  0
VERTEX
  8
0
 62
     7
  5
52B
 10
836.988665
 20
218.69421
 30
0.0
  0
VERTEX
  8
0
 62
     7
  5
52C
 10
836.889911
 20
218.762981
 30
0.0
  0
VERTEX
  8
0
 62
     7
  5
52D
 10
836.806858
 20
218.834728
 30
0.0
  0
VERTEX
  8
0
 62
     7
  5
52E
 10
836.740112
 20
218.908925
 30
0.0
  0
VERTEX
  8
0
 62
     7
  5
52F
 10
836.690159
 20
218.985032
 30
0.0
  0
VERTEX
  8
0
 62
     7
  5
530
 10
836.657366
 20
219.062493
 30
0.0
  0
VERTEX
  8
0
 62
     7
  5
531
 10
836.641971
 20
219.140743
 30
0.0
  0
VERTEX
  8
0
 62
     7
  5
532
 10
836.644086
 20
219.21921
 30
0.0
  0
VERTEX
  8
0
 62
     7
  5
533
 10
836.663696
 20
219.297322
 30
0.0
  0
SEQEND
  8
0
  5
534
  0
LINE
  8
0
  6
CONTINUOUS
 62
     7
  5
536
 10
842.30912
 20
216.850348
 30
0.0
 11
842.340727
 21
216.675972
 31
0.0
  0
POLYLINE
  8
0
  6
CONTINUOUS
 62
     7
  5
537
 66
     1
 10
0.0
 20
0.0
 30
0.0
 40
0.5
 41
0.5
  0
VERTEX
  8
0
 62
     7
  5
538
 10
839.040707
 20
220.088951
 30
0.0
  0
VERTEX
  8
0
 62
     7
  5
539
 10
839.212434
 20
220.086597
 30
0.0
  0
VERTEX
  8
0
 62
     7
  5
53A
 10
839.383281
 20
220.079547
 30
0.0
  0
VERTEX
  8
0
 62
     7
  5
53B
 10
839.552371
 20
220.067837
 30
0.0
  0
VERTEX
  8
0
 62
     7
  5
53C
 10
839.718838
 20
220.051526
 30
0.0
  0
VERTEX
  8
0
 62
     7
  5
53D
 10
839.881829
 20
220.030699
 30
0.0
  0
VERTEX
  8
0
 62
     7
  5
53E
 10
840.040509
 20
220.005463
 30
0.0
  0
VERTEX
  8
0
 62
     7
  5
53F
 10
840.194062
 20
219.975946
 30
0.0
  0
VERTEX
  8
0
 62
     7
  5
540
 10
840.341703
 20
219.9423
 30
0.0
  0
VERTEX
  8
0
 62
     7
  5
541
 10
840.482675
 20
219.904698
 30
0.0
  0
VERTEX
  8
0
 62
     7
  5
542
 10
840.616255
 20
219.863332
 30
0.0
  0
VERTEX
  8
0
 62
     7
  5
543
 10
840.741758
 20
219.818414
 30
0.0
  0
VERTEX
  8
0
 62
     7
  5
544
 10
840.85854
 20
219.770175
 30
0.0
  0
VERTEX
  8
0
 62
     7
  5
545
 10
840.966004
 20
219.718862
 30
0.0
  0
VERTEX
  8
0
 62
     7
  5
546
 10
841.063597
 20
219.664737
 30
0.0
  0
VERTEX
  8
0
 62
     7
  5
547
 10
841.150821
 20
219.608079
 30
0.0
  0
VERTEX
  8
0
 62
     7
  5
548
 10
841.227228
 20
219.549178
 30
0.0
  0
VERTEX
  8
0
 62
     7
  5
549
 10
841.292425
 20
219.488336
 30
0.0
  0
VERTEX
  8
0
 62
     7
  5
54A
 10
841.346079
 20
219.425865
 30
0.0
  0
VERTEX
  8
0
 62
     7
  5
54B
 10
841.387915
 20
219.362084
 30
0.0
  0
VERTEX
  8
0
 62
     7
  5
54C
 10
841.417719
 20
219.297322
 30
0.0
  0
SEQEND
  8
0
  5
54D
  0
POLYLINE
  8
0
  6
CONTINUOUS
 62
     7
  5
54E
 66
     1
 10
0.0
 20
0.0
 30
0.0
 40
0.5
 41
0.5
  0
VERTEX
  8
0
 62
     7
  5
54F
 10
839.040707
 20
215.413118
 30
0.0
  0
VERTEX
  8
0
 62
     7
  5
550
 10
838.781793
 20
215.417011
 30
0.0
  0
VERTEX
  8
0
 62
     7
  5
551
 10
838.524476
 20
215.428665
 30
0.0
  0
VERTEX
  8
0
 62
     7
  5
552
 10
838.270341
 20
215.44801
 30
0.0
  0
VERTEX
  8
0
 62
     7
  5
553
 10
838.020955
 20
215.474925
 30
0.0
  0
VERTEX
  8
0
 62
     7
  5
554
 10
837.777857
 20
215.509246
 30
0.0
  0
VERTEX
  8
0
 62
     7
  5
555
 10
837.542544
 20
215.550759
 30
0.0
  0
VERTEX
  8
0
 62
     7
  5
556
 10
837.316467
 20
215.59921
 30
0.0
  0
VERTEX
  8
0
 62
     7
  5
557
 10
837.101021
 20
215.654299
 30
0.0
  0
VERTEX
  8
0
 62
     7
  5
558
 10
836.897534
 20
215.715687
 30
0.0
  0
VERTEX
  8
0
 62
     7
  5
559
 10
836.707259
 20
215.782995
 30
0.0
  0
VERTEX
  8
0
 62
     7
  5
55A
 10
836.531371
 20
215.855809
 30
0.0
  0
VERTEX
  8
0
 62
     7
  5
55B
 10
836.370954
 20
215.93368
 30
0.0
  0
VERTEX
  8
0
 62
     7
  5
55C
 10
836.226996
 20
216.016126
 30
0.0
  0
VERTEX
  8
0
 62
     7
  5
55D
 10
836.100385
 20
216.102641
 30
0.0
  0
VERTEX
  8
0
 62
     7
  5
55E
 10
835.991902
 20
216.192691
 30
0.0
  0
VERTEX
  8
0
 62
     7
  5
55F
 10
835.902215
 20
216.285721
 30
0.0
  0
VERTEX
  8
0
 62
     7
  5
560
 10
835.831878
 20
216.381156
 30
0.0
  0
VERTEX
  8
0
 62
     7
  5
561
 10
835.781324
 20
216.478409
 30
0.0
  0
VERTEX
  8
0
 62
     7
  5
562
 10
835.750865
 20
216.57688
 30
0.0
  0
VERTEX
  8
0
 62
     7
  5
563
 10
835.740688
 20
216.675963
 30
0.0
  0
SEQEND
  8
0
  5
564
  0
POLYLINE
  8
0
  6
CONTINUOUS
 62
     7
  5
565
 66
     1
 10
0.0
 20
0.0
 30
0.0
 40
0.5
 41
0.5
  0
VERTEX
  8
0
 62
     7
  5
566
 10
842.340727
 20
216.675972
 30
0.0
  0
VERTEX
  8
0
 62
     7
  5
567
 10
842.330552
 20
216.576889
 30
0.0
  0
VERTEX
  8
0
 62
     7
  5
568
 10
842.300094
 20
216.478418
 30
0.0
  0
VERTEX
  8
0
 62
     7
  5
569
 10
842.249542
 20
216.381164
 30
0.0
  0
VERTEX
  8
0
 62
     7
  5
56A
 10
842.179206
 20
216.285728
 30
0.0
  0
VERTEX
  8
0
 62
     7
  5
56B
 10
842.08952
 20
216.192698
 30
0.0
  0
VERTEX
  8
0
 62
     7
  5
56C
 10
841.981038
 20
216.102647
 30
0.0
  0
VERTEX
  8
0
 62
     7
  5
56D
 10
841.854428
 20
216.016132
 30
0.0
  0
VERTEX
  8
0
 62
     7
  5
56E
 10
841.71047
 20
215.933684
 30
0.0
  0
VERTEX
  8
0
 62
     7
  5
56F
 10
841.550053
 20
215.855813
 30
0.0
  0
VERTEX
  8
0
 62
     7
  5
570
 10
841.374164
 20
215.782999
 30
0.0
  0
VERTEX
  8
0
 62
     7
  5
571
 10
841.18389
 20
215.71569
 30
0.0
  0
VERTEX
  8
0
 62
     7
  5
572
 10
840.980402
 20
215.654301
 30
0.0
  0
VERTEX
  8
0
 62
     7
  5
573
 10
840.764955
 20
215.599211
 30
0.0
  0
VERTEX
  8
0
 62
     7
  5
574
 10
840.538878
 20
215.55076
 30
0.0
  0
VERTEX
  8
0
 62
     7
  5
575
 10
840.303564
 20
215.509247
 30
0.0
  0
VERTEX
  8
0
 62
     7
  5
576
 10
840.060465
 20
215.474926
 30
0.0
  0
VERTEX
  8
0
 62
     7
  5
577
 10
839.811078
 20
215.44801
 30
0.0
  0
VERTEX
  8
0
 62
     7
  5
578
 10
839.556942
 20
215.428665
 30
0.0
  0
VERTEX
  8
0
 62
     7
  5
579
 10
839.299623
 20
215.417011
 30
0.0
  0
VERTEX
  8
0
 62
     7
  5
57A
 10
839.040707
 20
215.413118
 30
0.0
  0
SEQEND
  8
0
  5
57B
  0
LINE
  8
0
  6
CONTINUOUS
 62
     7
  5
57D
 10
835.740688
 20
216.675963
 30
0.0
 11
835.772295
 21
216.850348
 31
0.0
  0
POLYLINE
  8
0
  6
CONTINUOUS
 62
     7
  5
57E
 66
     1
 10
0.0
 20
0.0
 30
0.0
 40
0.5
 41
0.5
  0
VERTEX
  8
0
 62
     7
  5
57F
 10
841.745634
 20
214.785664
 30
0.0
  0
VERTEX
  8
0
 62
     7
  5
580
 10
841.677441
 20
214.701969
 30
0.0
  0
VERTEX
  8
0
 62
     7
  5
581
 10
841.591596
 20
214.620686
 30
0.0
  0
VERTEX
  8
0
 62
     7
  5
582
 10
841.488675
 20
214.542362
 30
0.0
  0
VERTEX
  8
0
 62
     7
  5
583
 10
841.369366
 20
214.467519
 30
0.0
  0
VERTEX
  8
0
 62
     7
  5
584
 10
841.234469
 20
214.396659
 30
0.0
  0
VERTEX
  8
0
 62
     7
  5
585
 10
841.084886
 20
214.330257
 30
0.0
  0
VERTEX
  8
0
 62
     7
  5
586
 10
840.921618
 20
214.268757
 30
0.0
  0
VERTEX
  8
0
 62
     7
  5
587
 10
840.745759
 20
214.21257
 30
0.0
  0
VERTEX
  8
0
 62
     7
  5
588
 10
840.558485
 20
214.162073
 30
0.0
  0
VERTEX
  8
0
 62
     7
  5
589
 10
840.361052
 20
214.117604
 30
0.0
  0
VERTEX
  8
0
 62
     7
  5
58A
 10
840.154779
 20
214.07946
 30
0.0
  0
VERTEX
  8
0
 62
     7
  5
58B
 10
839.941048
 20
214.047898
 30
0.0
  0
VERTEX
  8
0
 62
     7
  5
58C
 10
839.72129
 20
214.023127
 30
0.0
  0
VERTEX
  8
0
 62
     7
  5
58D
 10
839.496976
 20
214.005314
 30
0.0
  0
VERTEX
  8
0
 62
     7
  5
58E
 10
839.269608
 20
213.994578
 30
0.0
  0
VERTEX
  8
0
 62
     7
  5
58F
 10
839.040707
 20
213.990992
 30
0.0
  0
SEQEND
  8
0
  5
590
  0
POLYLINE
  8
0
  6
CONTINUOUS
 62
     7
  5
591
 66
     1
 10
0.0
 20
0.0
 30
0.0
 40
0.5
 41
0.5
  0
VERTEX
  8
0
 62
     7
  5
592
 10
839.040707
 20
213.990992
 30
0.0
  0
VERTEX
  8
0
 62
     7
  5
593
 10
838.811806
 20
213.994578
 30
0.0
  0
VERTEX
  8
0
 62
     7
  5
594
 10
838.584437
 20
214.005314
 30
0.0
  0
VERTEX
  8
0
 62
     7
  5
595
 10
838.360122
 20
214.023127
 30
0.0
  0
VERTEX
  8
0
 62
     7
  5
596
 10
838.140363
 20
214.047898
 30
0.0
  0
VERTEX
  8
0
 62
     7
  5
597
 10
837.926632
 20
214.079461
 30
0.0
  0
VERTEX
  8
0
 62
     7
  5
598
 10
837.720359
 20
214.117605
 30
0.0
  0
VERTEX
  8
0
 62
     7
  5
599
 10
837.522924
 20
214.162075
 30
0.0
  0
VERTEX
  8
0
 62
     7
  5
59A
 10
837.335651
 20
214.212572
 30
0.0
  0
VERTEX
  8
0
 62
     7
  5
59B
 10
837.159791
 20
214.268759
 30
0.0
  0
VERTEX
  8
0
 62
     7
  5
59C
 10
836.996523
 20
214.33026
 30
0.0
  0
VERTEX
  8
0
 62
     7
  5
59D
 10
836.84694
 20
214.396662
 30
0.0
  0
VERTEX
  8
0
 62
     7
  5
59E
 10
836.712043
 20
214.467522
 30
0.0
  0
VERTEX
  8
0
 62
     7
  5
59F
 10
836.592734
 20
214.542365
 30
0.0
  0
VERTEX
  8
0
 62
     7
  5
5A0
 10
836.489814
 20
214.620691
 30
0.0
  0
VERTEX
  8
0
 62
     7
  5
5A1
 10
836.40397
 20
214.701973
 30
0.0
  0
VERTEX
  8
0
 62
     7
  5
5A2
 10
836.335777
 20
214.78567
 30
0.0
  0
SEQEND
  8
0
  5
5A3
  0
POLYLINE
  8
0
  6
CONTINUOUS
 62
     7
  5
5A4
 66
     1
 10
0.0
 20
0.0
 30
0.0
 40
0.5
 41
0.5
  0
VERTEX
  8
0
 62
     7
  5
5A5
 10
842.759797
 20
213.844114
 30
0.0
  0
VERTEX
  8
0
 62
     7
  5
5A6
 10
842.834564
 20
213.771844
 30
0.0
  0
VERTEX
  8
0
 62
     7
  5
5A7
 10
842.899749
 20
213.698227
 30
0.0
  0
VERTEX
  8
0
 62
     7
  5
5A8
 10
842.955187
 20
213.62345
 30
0.0
  0
VERTEX
  8
0
 62
     7
  5
5A9
 10
843.000737
 20
213.547702
 30
0.0
  0
VERTEX
  8
0
 62
     7
  5
5AA
 10
843.036285
 20
213.471174
 30
0.0
  0
VERTEX
  8
0
 62
     7
  5
5AB
 10
843.06174
 20
213.394058
 30
0.0
  0
VERTEX
  8
0
 62
     7
  5
5AC
 10
843.077039
 20
213.316551
 30
0.0
  0
VERTEX
  8
0
 62
     7
  5
5AD
 10
843.082143
 20
213.238847
 30
0.0
  0
SEQEND
  8
0
  5
5AE
  0
POLYLINE
  8
0
  6
CONTINUOUS
 62
     7
  5
5AF
 66
     1
 10
0.0
 20
0.0
 30
0.0
 40
0.5
 41
0.5
  0
VERTEX
  8
0
 62
     7
  5
5B0
 10
839.040707
 20
211.692255
 30
0.0
  0
VERTEX
  8
0
 62
     7
  5
5B1
 10
838.72362
 20
211.697022
 30
0.0
  0
VERTEX
  8
0
 62
     7
  5
5B2
 10
838.408488
 20
211.711296
 30
0.0
  0
VERTEX
  8
0
 62
     7
  5
5B3
 10
838.097253
 20
211.734987
 30
0.0
  0
VERTEX
  8
0
 62
     7
  5
5B4
 10
837.791835
 20
211.76795
 30
0.0
  0
VERTEX
  8
0
 62
     7
  5
5B5
 10
837.494117
 20
211.809982
 30
0.0
  0
VERTEX
  8
0
 62
     7
  5
5B6
 10
837.205934
 20
211.860823
 30
0.0
  0
VERTEX
  8
0
 62
     7
  5
5B7
 10
836.929063
 20
211.92016
 30
0.0
  0
VERTEX
  8
0
 62
     7
  5
5B8
 10
836.665211
 20
211.987628
 30
0.0
  0
VERTEX
  8
0
 62
     7
  5
5B9
 10
836.416005
 20
212.062809
 30
0.0
  0
VERTEX
  8
0
 62
     7
  5
5BA
 10
836.182981
 20
212.145241
 30
0.0
  0
VERTEX
  8
0
 62
     7
  5
5BB
 10
835.967576
 20
212.234416
 30
0.0
  0
VERTEX
  8
0
 62
     7
  5
5BC
 10
835.771117
 20
212.329783
 30
0.0
  0
VERTEX
  8
0
 62
     7
  5
5BD
 10
835.594817
 20
212.430755
 30
0.0
  0
VERTEX
  8
0
 62
     7
  5
5BE
 10
835.439762
 20
212.536709
 30
0.0
  0
VERTEX
  8
0
 62
     7
  5
5BF
 10
835.306908
 20
212.646992
 30
0.0
  0
VERTEX
  8
0
 62
     7
  5
5C0
 10
835.197074
 20
212.760924
 30
0.0
  0
VERTEX
  8
0
 62
     7
  5
5C1
 10
835.110937
 20
212.877802
 30
0.0
  0
VERTEX
  8
0
 62
     7
  5
5C2
 10
835.049028
 20
212.996907
 30
0.0
  0
VERTEX
  8
0
 62
     7
  5
5C3
 10
835.01173
 20
213.117503
 30
0.0
  0
VERTEX
  8
0
 62
     7
  5
5C4
 10
834.999272
 20
213.238847
 30
0.0
  0
SEQEND
  8
0
  5
5C5
  0
POLYLINE
  8
0
  6
CONTINUOUS
 62
     7
  5
5C6
 66
     1
 10
0.0
 20
0.0
 30
0.0
 40
0.5
 41
0.5
  0
VERTEX
  8
0
 62
     7
  5
5C7
 10
843.082143
 20
213.238847
 30
0.0
  0
VERTEX
  8
0
 62
     7
  5
5C8
 10
843.069685
 20
213.117503
 30
0.0
  0
VERTEX
  8
0
 62
     7
  5
5C9
 10
843.032387
 20
212.996907
 30
0.0
  0
VERTEX
  8
0
 62
     7
  5
5CA
 10
842.970478
 20
212.877802
 30
0.0
  0
VERTEX
  8
0
 62
     7
  5
5CB
 10
842.884341
 20
212.760924
 30
0.0
  0
VERTEX
  8
0
 62
     7
  5
5CC
 10
842.774507
 20
212.646992
 30
0.0
  0
VERTEX
  8
0
 62
     7
  5
5CD
 10
842.641653
 20
212.536709
 30
0.0
  0
VERTEX
  8
0
 62
     7
  5
5CE
 10
842.486598
 20
212.430755
 30
0.0
  0
VERTEX
  8
0
 62
     7
  5
5CF
 10
842.310298
 20
212.329783
 30
0.0
  0
VERTEX
  8
0
 62
     7
  5
5D0
 10
842.113839
 20
212.234416
 30
0.0
  0
VERTEX
  8
0
 62
     7
  5
5D1
 10
841.898434
 20
212.145241
 30
0.0
  0
VERTEX
  8
0
 62
     7
  5
5D2
 10
841.66541
 20
212.062809
 30
0.0
  0
VERTEX
  8
0
 62
     7
  5
5D3
 10
841.416204
 20
211.987628
 30
0.0
  0
VERTEX
  8
0
 62
     7
  5
5D4
 10
841.152352
 20
211.92016
 30
0.0
  0
VERTEX
  8
0
 62
     7
  5
5D5
 10
840.875481
 20
211.860823
 30
0.0
  0
VERTEX
  8
0
 62
     7
  5
5D6
 10
840.587298
 20
211.809982
 30
0.0
  0
VERTEX
  8
0
 62
     7
  5
5D7
 10
840.28958
 20
211.76795
 30
0.0
  0
VERTEX
  8
0
 62
     7
  5
5D8
 10
839.984162
 20
211.734987
 30
0.0
  0
VERTEX
  8
0
 62
     7
  5
5D9
 10
839.672927
 20
211.711296
 30
0.0
  0
VERTEX
  8
0
 62
     7
  5
5DA
 10
839.357795
 20
211.697022
 30
0.0
  0
VERTEX
  8
0
 62
     7
  5
5DB
 10
839.040707
 20
211.692255
 30
0.0
  0
SEQEND
  8
0
  5
5DC
  0
POLYLINE
  8
0
  6
CONTINUOUS
 62
     7
  5
5DD
 66
     1
 10
0.0
 20
0.0
 30
0.0
 40
0.5
 41
0.5
  0
VERTEX
  8
0
 62
     7
  5
5DE
 10
834.999272
 20
213.238847
 30
0.0
  0
VERTEX
  8
0
 62
     7
  5
5DF
 10
835.004376
 20
213.316551
 30
0.0
  0
VERTEX
  8
0
 62
     7
  5
5E0
 10
835.019675
 20
213.394059
 30
0.0
  0
VERTEX
  8
0
 62
     7
  5
5E1
 10
835.045131
 20
213.471174
 30
0.0
  0
VERTEX
  8
0
 62
     7
  5
5E2
 10
835.080678
 20
213.547703
 30
0.0
  0
VERTEX
  8
0
 62
     7
  5
5E3
 10
835.126229
 20
213.623451
 30
0.0
  0
VERTEX
  8
0
 62
     7
  5
5E4
 10
835.181667
 20
213.698228
 30
0.0
  0
VERTEX
  8
0
 62
     7
  5
5E5
 10
835.246852
 20
213.771845
 30
0.0
  0
VERTEX
  8
0
 62
     7
  5
5E6
 10
835.321619
 20
213.844116
 30
0.0
  0
SEQEND
  8
0
  5
5E7
  0
POLYLINE
  8
0
  6
CONTINUOUS
 62
     7
  5
5E8
 66
     1
 10
0.0
 20
0.0
 30
0.0
 40
0.5
 41
0.5
  0
VERTEX
  8
0
 62
     7
  5
5E9
 10
843.082143
 20
212.237842
 30
0.0
  0
VERTEX
  8
0
 62
     7
  5
5EA
 10
843.076386
 20
212.155317
 30
0.0
  0
VERTEX
  8
0
 62
     7
  5
5EB
 10
843.05913
 20
212.073026
 30
0.0
  0
VERTEX
  8
0
 62
     7
  5
5EC
 10
843.030424
 20
211.991206
 30
0.0
  0
VERTEX
  8
0
 62
     7
  5
5ED
 10
842.99035
 20
211.910088
 30
0.0
  0
VERTEX
  8
0
 62
     7
  5
5EE
 10
842.939023
 20
211.829904
 30
0.0
  0
VERTEX
  8
0
 62
     7
  5
5EF
 10
842.876589
 20
211.750883
 30
0.0
  0
VERTEX
  8
0
 62
     7
  5
5F0
 10
842.803225
 20
211.673248
 30
0.0
  0
VERTEX
  8
0
 62
     7
  5
5F1
 10
842.719141
 20
211.597223
 30
0.0
  0
SEQEND
  8
0
  5
5F2
  0
POLYLINE
  8
0
  6
CONTINUOUS
 62
     7
  5
5F3
 66
     1
 10
0.0
 20
0.0
 30
0.0
 40
0.5
 41
0.5
  0
VERTEX
  8
0
 62
     7
  5
5F4
 10
839.040707
 20
210.691249
 30
0.0
  0
VERTEX
  8
0
 62
     7
  5
5F5
 10
838.752062
 20
210.695199
 30
0.0
  0
VERTEX
  8
0
 62
     7
  5
5F6
 10
838.464891
 20
210.707028
 30
0.0
  0
VERTEX
  8
0
 62
     7
  5
5F7
 10
838.18066
 20
210.726675
 30
0.0
  0
VERTEX
  8
0
 62
     7
  5
5F8
 10
837.900823
 20
210.754041
 30
0.0
  0
VERTEX
  8
0
 62
     7
  5
5F9
 10
837.626807
 20
210.788986
 30
0.0
  0
VERTEX
  8
0
 62
     7
  5
5FA
 10
837.360014
 20
210.83133
 30
0.0
  0
VERTEX
  8
0
 62
     7
  5
5FB
 10
837.101804
 20
210.880859
 30
0.0
  0
VERTEX
  8
0
 62
     7
  5
5FC
 10
836.853497
 20
210.937318
 30
0.0
  0
VERTEX
  8
0
 62
     7
  5
5FD
 10
836.616362
 20
211.00042
 30
0.0
  0
VERTEX
  8
0
 62
     7
  5
5FE
 10
836.391609
 20
211.069842
 30
0.0
  0
VERTEX
  8
0
 62
     7
  5
5FF
 10
836.180387
 20
211.145229
 30
0.0
  0
VERTEX
  8
0
 62
     7
  5
600
 10
835.983774
 20
211.226198
 30
0.0
  0
VERTEX
  8
0
 62
     7
  5
601
 10
835.802774
 20
211.312333
 30
0.0
  0
VERTEX
  8
0
 62
     7
  5
602
 10
835.638312
 20
211.403195
 30
0.0
  0
VERTEX
  8
0
 62
     7
  5
603
 10
835.491228
 20
211.498321
 30
0.0
  0
VERTEX
  8
0
 62
     7
  5
604
 10
835.362274
 20
211.597223
 30
0.0
  0
SEQEND
  8
0
  5
605
  0
ARC
  8
0
  6
CONTINUOUS
 62
     7
  5
606
 10
839.040705
 20
216.665452
 30
0.0
 40
6.449791
 50
244.364145
 51
295.635987
210
0.0
220
0.0
230
1.0
  0
POLYLINE
  8
0
  6
CONTINUOUS
 62
     7
  5
607
 66
     1
 10
0.0
 20
0.0
 30
0.0
 40
0.5
 41
0.5
  0
VERTEX
  8
0
 62
     7
  5
608
 10
842.719141
 20
211.597223
 30
0.0
  0
VERTEX
  8
0
 62
     7
  5
609
 10
842.590187
 20
211.498321
 30
0.0
  0
VERTEX
  8
0
 62
     7
  5
60A
 10
842.443103
 20
211.403195
 30
0.0
  0
VERTEX
  8
0
 62
     7
  5
60B
 10
842.278641
 20
211.312333
 30
0.0
  0
VERTEX
  8
0
 62
     7
  5
60C
 10
842.097641
 20
211.226198
 30
0.0
  0
VERTEX
  8
0
 62
     7
  5
60D
 10
841.901028
 20
211.145229
 30
0.0
  0
VERTEX
  8
0
 62
     7
  5
60E
 10
841.689806
 20
211.069842
 30
0.0
  0
VERTEX
  8
0
 62
     7
  5
60F
 10
841.465053
 20
211.00042
 30
0.0
  0
VERTEX
  8
0
 62
     7
  5
610
 10
841.227918
 20
210.937318
 30
0.0
  0
VERTEX
  8
0
 62
     7
  5
611
 10
840.979611
 20
210.880859
 30
0.0
  0
VERTEX
  8
0
 62
     7
  5
612
 10
840.721401
 20
210.83133
 30
0.0
  0
VERTEX
  8
0
 62
     7
  5
613
 10
840.454608
 20
210.788986
 30
0.0
  0
VERTEX
  8
0
 62
     7
  5
614
 10
840.180592
 20
210.754041
 30
0.0
  0
VERTEX
  8
0
 62
     7
  5
615
 10
839.900755
 20
210.726675
 30
0.0
  0
VERTEX
  8
0
 62
     7
  5
616
 10
839.616524
 20
210.707028
 30
0.0
  0
VERTEX
  8
0
 62
     7
  5
617
 10
839.329353
 20
210.695199
 30
0.0
  0
VERTEX
  8
0
 62
     7
  5
618
 10
839.040707
 20
210.691249
 30
0.0
  0
SEQEND
  8
0
  5
619
  0
POLYLINE
  8
0
  6
CONTINUOUS
 62
     7
  5
61A
 66
     1
 10
0.0
 20
0.0
 30
0.0
 40
0.5
 41
0.5
  0
VERTEX
  8
0
 62
     7
  5
61B
 10
835.362274
 20
211.597223
 30
0.0
  0
VERTEX
  8
0
 62
     7
  5
61C
 10
835.27819
 20
211.673248
 30
0.0
  0
VERTEX
  8
0
 62
     7
  5
61D
 10
835.204826
 20
211.750883
 30
0.0
  0
VERTEX
  8
0
 62
     7
  5
61E
 10
835.142392
 20
211.829904
 30
0.0
  0
VERTEX
  8
0
 62
     7
  5
61F
 10
835.091065
 20
211.910088
 30
0.0
  0
VERTEX
  8
0
 62
     7
  5
620
 10
835.050991
 20
211.991206
 30
0.0
  0
VERTEX
  8
0
 62
     7
  5
621
 10
835.022285
 20
212.073026
 30
0.0
  0
VERTEX
  8
0
 62
     7
  5
622
 10
835.005029
 20
212.155317
 30
0.0
  0
VERTEX
  8
0
 62
     7
  5
623
 10
834.999272
 20
212.237842
 30
0.0
  0
SEQEND
  8
0
  5
624
  0
ARC
  8
0
  6
CONTINUOUS
 62
     7
  5
625
 10
839.040707
 20
208.730511
 30
0.0
 40
4.000001
 50
142.423233
 51
360.0
210
0.0
220
0.0
230
1.0
  0
ARC
  8
0
  6
CONTINUOUS
 62
     7
  5
626
 10
839.040707
 20
208.730511
 30
0.0
 40
4.000001
 50
360.0
 51
37.576767
210
0.0
220
0.0
230
1.0
  0
LINE
  8
0
  6
CONTINUOUS
 62
     7
  5
627
 10
845.040707
 20
230.430481
 30
0.0
 11
845.040707
 21
187.03054
 31
0.0
  0
LINE
  8
0
  6
CONTINUOUS
 62
     7
  5
628
 10
845.040707
 20
187.03054
 30
0.0
 11
843.040684
 21
185.030519
 31
0.0
  0
LINE
  8
0
  6
CONTINUOUS
 62
     7
  5
629
 10
843.040684
 20
185.030519
 30
0.0
 11
817.840714
 21
185.030519
 31
0.0
  0
LINE
  8
0
  6
CONTINUOUS
 62
     7
  5
62A
 10
817.840714
 20
185.030519
 30
0.0
 11
815.840712
 21
187.030521
 31
0.0
  0
LINE
  8
0
  6
CONTINUOUS
 62
     7
  5
62B
 10
815.840712
 20
187.030521
 30
0.0
 11
815.840712
 21
197.930479
 31
0.0
  0
LINE
  8
0
  6
CONTINUOUS
 62
     7
  5
62C
 10
815.840712
 20
219.530549
 30
0.0
 11
815.840712
 21
230.430486
 31
0.0
  0
LINE
  8
0
  6
CONTINUOUS
 62
     7
  5
62D
 10
815.840712
 20
230.430486
 30
0.0
 11
817.840727
 21
232.430501
 31
0.0
  0
LINE
  8
0
  6
CONTINUOUS
 62
     7
  5
62E
 10
817.840727
 20
232.430501
 30
0.0
 11
843.040685
 21
232.430501
 31
0.0
  0
LINE
  8
0
  6
CONTINUOUS
 62
     7
  5
62F
 10
843.040685
 20
232.430501
 30
0.0
 11
845.040707
 21
230.430481
 31
0.0
  0
LINE
  8
0
  6
CONTINUOUS
 62
     7
  5
630
 10
829.040711
 20
123.23051
 30
0.0
 11
839.040711
 21
123.23051
 31
0.0
  0
ARC
  8
0
  6
CONTINUOUS
 62
     7
  5
631
 10
839.040711
 20
124.23051
 30
0.0
 40
1.0
 50
270.0
 51
360.0
210
0.0
220
0.0
230
1.0
  0
LINE
  8
0
  6
CONTINUOUS
 62
     7
  5
632
 10
840.040711
 20
124.23051
 30
0.0
 11
840.040711
 21
125.855924
 31
0.0
  0
ARC
  8
0
  6
CONTINUOUS
 62
     7
  5
633
 10
834.040711
 20
144.73051
 30
0.0
 40
18.5
 50
292.971353
 51
45.355754
210
0.0
220
0.0
230
1.0
  0
LINE
  8
0
  6
CONTINUOUS
 62
     7
  5
634
 10
845.040711
 20
184.73051
 30
0.0
 11
845.040711
 21
174.73051
 31
0.0
  0
LINE
  8
0
  6
CONTINUOUS
 62
     7
  5
635
 10
845.040711
 20
184.73051
 30
0.0
 11
850.040711
 21
184.73051
 31
0.0
  0
LINE
  8
0
  6
CONTINUOUS
 62
     7
  5
636
 10
869.040711
 20
136.73051
 30
0.0
 11
869.040711
 21
232.73051
 31
0.0
  0
LINE
  8
0
  6
CONTINUOUS
 62
     7
  5
637
 10
864.040711
 20
104.73051
 30
0.0
 11
864.040711
 21
136.73051
 31
0.0
  0
LINE
  8
0
  6
CONTINUOUS
 62
     7
  5
638
 10
856.040711
 20
104.73051
 30
0.0
 11
864.040711
 21
104.73051
 31
0.0
  0
LINE
  8
0
  6
CONTINUOUS
 62
     7
  5
639
 10
856.040711
 20
104.73051
 30
0.0
 11
856.040711
 21
118.73051
 31
0.0
  0
LINE
  8
0
  6
CONTINUOUS
 62
     7
  5
63A
 10
856.040711
 20
118.73051
 30
0.0
 11
812.540711
 21
118.73051
 31
0.0
  0
LINE
  8
0
  6
CONTINUOUS
 62
     7
  5
63B
 10
812.540711
 20
118.73051
 30
0.0
 11
812.540711
 21
121.73051
 31
0.0
  0
ARC
  8
0
  6
CONTINUOUS
 62
     7
  5
63C
 10
842.040711
 20
125.855924
 30
0.0
 40
2.0
 50
112.954168
 51
180.0
210
0.0
220
0.0
230
1.0
  0
LINE
  8
0
  6
CONTINUOUS
 62
     7
  5
63D
 10
850.040711
 20
232.73051
 30
0.0
 11
869.040711
 21
232.73051
 31
0.0
  0
LINE
  8
0
  6
CONTINUOUS
 62
     7
  5
63E
 10
850.040711
 20
184.73051
 30
0.0
 11
850.040711
 21
232.73051
 31
0.0
  0
ARC
  8
0
  6
CONTINUOUS
 62
     7
  5
63F
 10
829.040711
 20
124.23051
 30
0.0
 40
1.0
 50
196.707206
 51
270.0
210
0.0
220
0.0
230
1.0
  0
LINE
  8
0
  6
CONTINUOUS
 62
     7
  5
640
 10
869.040711
 20
136.73051
 30
0.0
 11
864.040711
 21
136.73051
 31
0.0
  0
LINE
  8
0
  6
CONTINUOUS
 62
     7
  5
641
 10
826.415711
 20
174.73051
 30
0.0
 11
845.040711
 21
174.73051
 31
0.0
  0
LINE
  8
0
  6
CONTINUOUS
 62
     9
  5
642
 10
869.040711
 20
128.73051
 30
0.0
 11
864.040711
 21
128.73051
 31
0.0
  0
LINE
  8
0
  6
CONTINUOUS
 62
     7
  5
643
 10
869.040711
 20
136.73051
 30
0.0
 11
869.040711
 21
128.73051
 31
0.0
  0
LINE
  8
0
  6
CONTINUOUS
 62
     7
  5
644
 10
842.040755
 20
232.730506
 30
0.0
 11
841.79076
 21
232.48051
 31
0.0
  0
LINE
  8
0
  6
CONTINUOUS
 62
     7
  5
645
 10
850.040711
 20
231.230486
 30
0.0
 11
848.540688
 21
232.730506
 31
0.0
  0
LINE
  8
0
  6
CONTINUOUS
 62
     7
  5
646
 10
848.540693
 20
184.73051
 30
0.0
 11
850.040711
 21
186.230531
 31
0.0
  0
LINE
  8
0
  6
CONTINUOUS
 62
     7
  5
647
 10
842.040741
 20
184.73051
 30
0.0
 11
845.040711
 21
184.73051
 31
0.0
  0
LINE
  8
0
  6
CONTINUOUS
 62
     7
  5
648
 10
841.79074
 20
184.98051
 30
0.0
 11
842.040741
 21
184.73051
 31
0.0
  0
LINE
  8
0
  6
CONTINUOUS
 62
     7
  5
649
 10
824.340716
 20
184.73051
 30
0.0
 11
824.590716
 21
184.98051
 31
0.0
  0
LINE
  8
0
  6
CONTINUOUS
 62
     7
  5
64A
 10
818.19073
 20
184.73051
 30
0.0
 11
824.340716
 21
184.73051
 31
0.0
  0
LINE
  8
0
  6
CONTINUOUS
 62
     7
  5
64B
 10
817.890721
 20
185.030519
 30
0.0
 11
818.19073
 21
184.73051
 31
0.0
  0
LINE
  8
0
  6
CONTINUOUS
 62
     7
  5
64C
 10
841.79076
 20
232.48051
 30
0.0
 11
824.590694
 21
232.48051
 31
0.0
  0
LINE
  8
0
  6
CONTINUOUS
 62
     7
  5
64D
 10
824.590716
 20
184.98051
 30
0.0
 11
841.79074
 21
184.98051
 31
0.0
  0
LINE
  8
0
  6
CONTINUOUS
 62
     7
  5
64E
 10
848.540688
 20
232.730506
 30
0.0
 11
842.040755
 21
232.730506
 31
0.0
  0
LINE
  8
0
  6
CONTINUOUS
 62
     7
  5
64F
 10
824.240697
 20
232.830507
 30
0.0
 11
818.240732
 21
232.830507
 31
0.0
  0
LINE
  8
0
  6
CONTINUOUS
 62
     7
  5
650
 10
824.590694
 20
232.48051
 30
0.0
 11
824.240697
 21
232.830507
 31
0.0
  0
LINE
  8
0
  6
CONTINUOUS
 62
     7
  5
651
 10
818.240732
 20
232.830507
 30
0.0
 11
817.840727
 21
232.430501
 31
0.0
  0
LINE
  8
0
  6
CONTINUOUS
 62
     7
  5
652
 10
869.040711
 20
104.73051
 30
0.0
 11
869.040711
 21
128.73051
 31
0.0
  0
LINE
  8
0
  6
CONTINUOUS
 62
     7
  5
653
 10
869.040711
 20
104.73051
 30
0.0
 11
864.040711
 21
104.73051
 31
0.0
  0
ARC
  8
0
  6
CONTINUOUS
 62
     7
  5
654
 10
808.040711
 20
226.73051
 30
0.0
 40
2.0
 50
0.0
 51
90.0
210
0.0
220
0.0
230
1.0
  0
LINE
  8
0
  6
CONTINUOUS
 62
     9
  5
655
 10
808.040711
 20
226.73051
 30
0.0
 11
810.040711
 21
226.73051
 31
0.0
  0
LINE
  8
0
  6
CONTINUOUS
 62
     9
  5
656
 10
808.040711
 20
226.73051
 30
0.0
 11
808.040711
 21
228.73051
 31
0.0
  0
LINE
  8
0
  6
CONTINUOUS
 62
     7
  5
657
 10
808.040711
 20
228.73051
 30
0.0
 11
772.040711
 21
228.73051
 31
0.0
  0
LINE
  8
0
  6
CONTINUOUS
 62
     9
  5
658
 10
772.040711
 20
226.73051
 30
0.0
 11
808.040711
 21
226.73051
 31
0.0
  0
LINE
  8
0
  6
CONTINUOUS
 62
     9
  5
659
 10
772.040711
 20
226.73051
 30
0.0
 11
772.040711
 21
228.73051
 31
0.0
  0
ARC
  8
0
  6
CONTINUOUS
 62
     7
  5
65A
 10
772.040711
 20
226.73051
 30
0.0
 40
2.0
 50
90.0
 51
180.0
210
0.0
220
0.0
230
1.0
  0
LINE
  8
0
  6
CONTINUOUS
 62
     9
  5
65B
 10
772.040711
 20
226.73051
 30
0.0
 11
770.040711
 21
226.73051
 31
0.0
  0
LINE
  8
0
  6
CONTINUOUS
 62
     9
  5
65C
 10
770.040711
 20
110.73051
 30
0.0
 11
772.040711
 21
110.73051
 31
0.0
  0
LINE
  8
0
  6
CONTINUOUS
 62
     9
  5
65D
 10
772.040711
 20
108.73051
 30
0.0
 11
772.040711
 21
110.73051
 31
0.0
  0
ARC
  8
0
  6
CONTINUOUS
 62
     7
  5
65E
 10
772.040711
 20
110.73051
 30
0.0
 40
2.0
 50
180.0
 51
270.0
210
0.0
220
0.0
230
1.0
  0
LINE
  8
0
  6
CONTINUOUS
 62
     7
  5
65F
 10
810.040711
 20
110.73051
 30
0.0
 11
810.040711
 21
226.73051
 31
0.0
  0
LINE
  8
0
  6
CONTINUOUS
 62
     9
  5
660
 10
810.040711
 20
110.73051
 30
0.0
 11
808.040711
 21
110.73051
 31
0.0
  0
LINE
  8
0
  6
CONTINUOUS
 62
     9
  5
661
 10
808.040711
 20
226.73051
 30
0.0
 11
808.040711
 21
110.73051
 31
0.0
  0
LINE
  8
0
  6
CONTINUOUS
 62
     9
  5
662
 10
808.040711
 20
110.73051
 30
0.0
 11
772.040711
 21
110.73051
 31
0.0
  0
LINE
  8
0
  6
CONTINUOUS
 62
     9
  5
663
 10
808.040711
 20
108.73051
 30
0.0
 11
808.040711
 21
110.73051
 31
0.0
  0
LINE
  8
0
  6
CONTINUOUS
 62
     7
  5
664
 10
772.040711
 20
108.73051
 30
0.0
 11
808.040711
 21
108.73051
 31
0.0
  0
ARC
  8
0
  6
CONTINUOUS
 62
     7
  5
665
 10
808.040711
 20
110.73051
 30
0.0
 40
2.0
 50
270.0
 51
360.0
210
0.0
220
0.0
230
1.0
  0
LINE
  8
0
  6
CONTINUOUS
 62
     9
  5
666
 10
772.040711
 20
110.73051
 30
0.0
 11
772.040711
 21
226.73051
 31
0.0
  0
LINE
  8
0
  6
CONTINUOUS
 62
     7
  5
667
 10
770.040711
 20
226.73051
 30
0.0
 11
770.040711
 21
110.73051
 31
0.0
  0
LINE
  8
0
  6
CONTINUOUS
 62
     7
  5
668
 10
847.040711
 20
159.73051
 30
0.0
 11
825.040711
 21
175.73051
 31
0.0
  0
LINE
  8
0
  6
CONTINUOUS
 62
     7
  5
669
 10
847.040711
 20
159.73051
 30
0.0
 11
847.040711
 21
137.73051
 31
0.0
  0
LINE
  8
0
  6
CONTINUOUS
 62
     7
  5
66A
 10
825.040711
 20
121.73051
 30
0.0
 11
847.040711
 21
137.73051
 31
0.0
  0
LINE
  8
0
  6
CONTINUOUS
 62
     7
  5
66B
 10
825.040711
 20
121.73051
 30
0.0
 11
810.040711
 21
121.73051
 31
0.0
  0
LINE
  8
0
  6
CONTINUOUS
 62
     7
  5
66C
 10
825.040711
 20
175.73051
 30
0.0
 11
810.040711
 21
175.73051
 31
0.0
  0
LINE
  8
0
  6
CONTINUOUS
 62
     7
  5
66D
 10
811.240714
 20
220.23051
 30
0.0
 11
810.040711
 21
219.030506
 31
0.0
  0
ARC
  8
0
  6
CONTINUOUS
 62
     7
  5
66E
 10
825.80023
 20
219.930624
 30
0.0
 40
0.3
 50
90.0
 51
169.128609
210
0.0
220
0.0
230
1.0
  0
LINE
  8
0
  6
CONTINUOUS
 62
     7
  5
66F
 10
827.78047
 20
220.230624
 30
0.0
 11
825.80023
 21
220.230632
 31
0.0
  0
ARC
  8
0
  6
CONTINUOUS
 62
     7
  5
670
 10
827.78047
 20
219.930624
 30
0.0
 40
0.3
 50
10.871391
 51
90.0
210
0.0
220
0.0
230
1.0
  0
ARC
  8
0
  6
CONTINUOUS
 62
     7
  5
671
 10
830.082442
 20
220.372722
 30
0.0
 40
2.044035
 50
190.871391
 51
261.521338
210
0.0
220
0.0
230
1.0
  0
ARC
  8
0
  6
CONTINUOUS
 62
     7
  5
672
 10
829.740721
 20
218.053752
 30
0.0
 40
0.3
 50
0.512471
 51
82.271009
210
0.0
220
0.0
230
1.0
  0
LINE
  8
0
  6
CONTINUOUS
 62
     7
  5
673
 10
810.540726
 20
205.480553
 30
0.0
 11
810.040711
 21
204.98054
 31
0.0
  0
LINE
  8
0
  6
CONTINUOUS
 62
     7
  5
674
 10
810.040711
 20
198.430528
 30
0.0
 11
811.240729
 21
197.23051
 31
0.0
  0
LINE
  8
0
  6
CONTINUOUS
 62
     7
  5
675
 10
810.040711
 20
212.480461
 30
0.0
 11
810.540726
 21
211.980446
 31
0.0
  0
LINE
  8
0
  6
CONTINUOUS
 62
     7
  5
676
 10
822.920745
 20
199.930502
 30
0.0
 11
823.732366
 21
199.118883
 31
0.0
  0
LINE
  8
0
  6
CONTINUOUS
 62
     7
  5
677
 10
817.840735
 20
199.930502
 30
0.0
 11
822.920745
 21
199.930502
 31
0.0
  0
LINE
  8
0
  6
CONTINUOUS
 62
     7
  5
678
 10
817.840783
 20
217.530478
 30
0.0
 11
815.140751
 21
220.23051
 31
0.0
  0
LINE
  8
0
  6
CONTINUOUS
 62
     7
  5
679
 10
815.140743
 20
197.23051
 30
0.0
 11
817.840735
 21
199.930502
 31
0.0
  0
LINE
  8
0
  6
CONTINUOUS
 62
     7
  5
67A
 10
811.240729
 20
197.23051
 30
0.0
 11
815.140743
 21
197.23051
 31
0.0
  0
LINE
  8
0
  6
CONTINUOUS
 62
     7
  5
67B
 10
830.040709
 20
199.409952
 30
0.0
 11
830.040709
 21
218.056436
 31
0.0
  0
ARC
  8
0
  6
CONTINUOUS
 62
     7
  5
67C
 10
823.498258
 20
220.372722
 30
0.0
 40
2.044035
 50
276.577246
 51
349.128609
210
0.0
220
0.0
230
1.0
  0
LINE
  8
0
  6
CONTINUOUS
 62
     7
  5
67D
 10
815.140751
 20
220.23051
 30
0.0
 11
811.240714
 21
220.23051
 31
0.0
  0
ARC
  8
0
  6
CONTINUOUS
 62
     7
  5
67E
 10
829.740721
 20
199.407268
 30
0.0
 40
0.3
 50
279.036445
 51
0.512471
210
0.0
220
0.0
230
1.0
  0
ARC
  8
0
  6
CONTINUOUS
 62
     7
  5
67F
 10
827.78047
 20
197.530356
 30
0.0
 40
0.3
 50
270.836866
 51
349.328458
210
0.0
220
0.0
230
0.9999999999999999
  0
LINE
  8
0
  6
CONTINUOUS
 62
     7
  5
680
 10
822.920725
 20
217.530478
 30
0.0
 11
817.840783
 21
217.530478
 31
0.0
  0
LINE
  8
0
  6
CONTINUOUS
 62
     7
  5
681
 10
810.540726
 20
211.980446
 30
0.0
 11
810.540726
 21
205.480553
 31
0.0
  0
ARC
  8
0
  6
CONTINUOUS
 62
     7
  5
682
 10
823.498258
 20
197.088298
 30
0.0
 40
2.044035
 50
10.84124
 51
83.423356
210
0.0
220
0.0
230
1.0
  0
LINE
  8
0
  6
CONTINUOUS
 62
     7
  5
683
 10
825.804612
 20
197.230388
 30
0.0
 11
827.784852
 21
197.230388
 31
0.0
  0
LINE
  8
0
  6
CONTINUOUS
 62
     7
  5
684
 10
823.732388
 20
218.34214
 30
0.0
 11
822.920725
 21
217.530478
 31
0.0
  0
ARC
  8
0
  6
CONTINUOUS
 62
     7
  5
685
 10
830.082442
 20
197.088298
 30
0.0
 40
2.044035
 50
98.286773
 51
169.100379
210
0.0
220
0.0
230
1.0
  0
ARC
  8
0
  6
CONTINUOUS
 62
     7
  5
686
 10
825.80023
 20
197.530356
 30
0.0
 40
0.3
 50
191.06932
 51
270.836866
210
0.0
220
0.0
230
1.0
  0
LINE
  8
0
  6
CONTINUOUS
 62
     7
  5
687
 10
822.040711
 20
176.73051
 30
0.0
 11
810.040711
 21
176.73051
 31
0.0
  0
LINE
  8
0
  6
CONTINUOUS
 62
     7
  5
688
 10
822.040711
 20
176.73051
 30
0.0
 11
823.040711
 21
175.73051
 31
0.0
  0
LINE
  8
0
  6
CONTINUOUS
 62
     7
  5
689
 10
842.30912
 20
216.850348
 30
0.0
 11
841.417719
 21
219.297322
 31
0.0
  0
LINE
  8
0
  6
CONTINUOUS
 62
     7
  5
68A
 10
836.663696
 20
219.297322
 30
0.0
 11
835.772295
 21
216.850348
 31
0.0
  0
ARC
  8
0
  6
CONTINUOUS
 62
     7
  5
68B
 10
839.040691
 20
216.676029
 30
0.0
 40
3.300002
 50
180.001029
 51
214.962921
210
0.0
220
0.0
230
1.0
  0
ARC
  8
0
  6
CONTINUOUS
 62
     7
  5
68C
 10
839.040724
 20
216.676029
 30
0.0
 40
3.300002
 50
325.046086
 51
359.998939
210
0.0
220
0.0
230
1.0
  0
ARC
  8
0
  6
CONTINUOUS
 62
     7
  5
68D
 10
832.696663
 20
216.662714
 30
0.0
 40
3.851609
 50
312.96298
 51
334.858958
210
0.0
220
0.0
230
1.0
  0
ARC
  8
0
  6
CONTINUOUS
 62
     7
  5
68E
 10
845.346661
 20
216.634945
 30
0.0
 40
3.805338
 50
205.007427
 51
227.17174
210
0.0
220
0.0
230
1.0
  0
LINE
  8
0
  6
CONTINUOUS
 62
     7
  5
68F
 10
843.082143
 20
212.237842
 30
0.0
 11
843.082143
 21
213.238847
 31
0.0
  0
LINE
  8
0
  6
CONTINUOUS
 62
     7
  5
690
 10
834.999272
 20
213.238847
 30
0.0
 11
834.999272
 21
212.237842
 31
0.0
  0
LINE
  8
0
  6
CONTINUOUS
 62
     7
  5
691
 10
835.362274
 20
211.597223
 30
0.0
 11
836.250322
 21
210.850464
 31
0.0
  0
LINE
  8
0
  6
CONTINUOUS
 62
     7
  5
692
 10
841.83091
 20
210.850311
 30
0.0
 11
842.719141
 21
211.597223
 31
0.0
  0
ENDBLK
  8
0
  5
693
  0
BLOCK
  8
0
  5
696
  2
AID1317
 70
     0
 10
0.0
 20
0.0
 30
0.0
  3
#auxiliary draft view
  0
POLYLINE
  8
0
  6
CONTINUOUS
 62
     7
  5
697
 66
     1
 10
0.0
 20
0.0
 30
0.0
 40
0.5
 41
0.5
  0
VERTEX
  8
0
 62
     7
  5
698
 10
-503.568983
 20
219.297322
 30
0.0
  0
VERTEX
  8
0
 62
     7
  5
699
 10
-503.588593
 20
219.21921
 30
0.0
  0
VERTEX
  8
0
 62
     7
  5
69A
 10
-503.590708
 20
219.140743
 30
0.0
  0
VERTEX
  8
0
 62
     7
  5
69B
 10
-503.575313
 20
219.062493
 30
0.0
  0
VERTEX
  8
0
 62
     7
  5
69C
 10
-503.542519
 20
218.985032
 30
0.0
  0
VERTEX
  8
0
 62
     7
  5
69D
 10
-503.492567
 20
218.908925
 30
0.0
  0
VERTEX
  8
0
 62
     7
  5
69E
 10
-503.425821
 20
218.834728
 30
0.0
  0
VERTEX
  8
0
 62
     7
  5
69F
 10
-503.342767
 20
218.762981
 30
0.0
  0
VERTEX
  8
0
 62
     7
  5
6A0
 10
-503.244014
 20
218.69421
 30
0.0
  0
VERTEX
  8
0
 62
     7
  5
6A1
 10
-503.13028
 20
218.628915
 30
0.0
  0
VERTEX
  8
0
 62
     7
  5
6A2
 10
-503.002397
 20
218.567574
 30
0.0
  0
VERTEX
  8
0
 62
     7
  5
6A3
 10
-502.861298
 20
218.510635
 30
0.0
  0
VERTEX
  8
0
 62
     7
  5
6A4
 10
-502.708013
 20
218.458512
 30
0.0
  0
VERTEX
  8
0
 62
     7
  5
6A5
 10
-502.543661
 20
218.411587
 30
0.0
  0
VERTEX
  8
0
 62
     7
  5
6A6
 10
-502.369442
 20
218.370202
 30
0.0
  0
VERTEX
  8
0
 62
     7
  5
6A7
 10
-502.186627
 20
218.33466
 30
0.0
  0
VERTEX
  8
0
 62
     7
  5
6A8
 10
-501.996551
 20
218.305219
 30
0.0
  0
VERTEX
  8
0
 62
     7
  5
6A9
 10
-501.800603
 20
218.282094
 30
0.0
  0
VERTEX
  8
0
 62
     7
  5
6AA
 10
-501.600211
 20
218.265455
 30
0.0
  0
VERTEX
  8
0
 62
     7
  5
6AB
 10
-501.396839
 20
218.255423
 30
0.0
  0
VERTEX
  8
0
 62
     7
  5
6AC
 10
-501.191971
 20
218.25207
 30
0.0
  0
SEQEND
  8
0
  5
6AD
  0
POLYLINE
  8
0
  6
CONTINUOUS
 62
     7
  5
6AE
 66
     1
 10
0.0
 20
0.0
 30
0.0
 40
0.5
 41
0.5
  0
VERTEX
  8
0
 62
     7
  5
6AF
 10
-498.81496
 20
219.297322
 30
0.0
  0
VERTEX
  8
0
 62
     7
  5
6B0
 10
-498.848821
 20
219.369225
 30
0.0
  0
VERTEX
  8
0
 62
     7
  5
6B1
 10
-498.89751
 20
219.439872
 30
0.0
  0
VERTEX
  8
0
 62
     7
  5
6B2
 10
-498.960719
 20
219.508814
 30
0.0
  0
VERTEX
  8
0
 62
     7
  5
6B3
 10
-499.038048
 20
219.575614
 30
0.0
  0
VERTEX
  8
0
 62
     7
  5
6B4
 10
-499.129007
 20
219.639852
 30
0.0
  0
VERTEX
  8
0
 62
     7
  5
6B5
 10
-499.233021
 20
219.701119
 30
0.0
  0
VERTEX
  8
0
 62
     7
  5
6B6
 10
-499.349432
 20
219.759028
 30
0.0
  0
VERTEX
  8
0
 62
     7
  5
6B7
 10
-499.477503
 20
219.813214
 30
0.0
  0
VERTEX
  8
0
 62
     7
  5
6B8
 10
-499.616424
 20
219.863332
 30
0.0
  0
VERTEX
  8
0
 62
     7
  5
6B9
 10
-499.765315
 20
219.909065
 30
0.0
  0
VERTEX
  8
0
 62
     7
  5
6BA
 10
-499.923234
 20
219.950125
 30
0.0
  0
VERTEX
  8
0
 62
     7
  5
6BB
 10
-500.089182
 20
219.986251
 30
0.0
  0
VERTEX
  8
0
 62
     7
  5
6BC
 10
-500.262109
 20
220.017215
 30
0.0
  0
VERTEX
  8
0
 62
     7
  5
6BD
 10
-500.440921
 20
220.042821
 30
0.0
  0
VERTEX
  8
0
 62
     7
  5
6BE
 10
-500.624485
 20
220.062907
 30
0.0
  0
VERTEX
  8
0
 62
     7
  5
6BF
 10
-500.81164
 20
220.077346
 30
0.0
  0
VERTEX
  8
0
 62
     7
  5
6C0
 10
-501.001202
 20
220.086045
 30
0.0
  0
VERTEX
  8
0
 62
     7
  5
6C1
 10
-501.191971
 20
220.088951
 30
0.0
  0
VERTEX
  8
0
 62
     7
  5
6C2
 10
-501.382741
 20
220.086045
 30
0.0
  0
VERTEX
  8
0
 62
     7
  5
6C3
 10
-501.572303
 20
220.077346
 30
0.0
  0
VERTEX
  8
0
 62
     7
  5
6C4
 10
-501.759458
 20
220.062907
 30
0.0
  0
VERTEX
  8
0
 62
     7
  5
6C5
 10
-501.943022
 20
220.042821
 30
0.0
  0
VERTEX
  8
0
 62
     7
  5
6C6
 10
-502.121833
 20
220.017215
 30
0.0
  0
VERTEX
  8
0
 62
     7
  5
6C7
 10
-502.29476
 20
219.986251
 30
0.0
  0
VERTEX
  8
0
 62
     7
  5
6C8
 10
-502.460708
 20
219.950125
 30
0.0
  0
VERTEX
  8
0
 62
     7
  5
6C9
 10
-502.618627
 20
219.909065
 30
0.0
  0
VERTEX
  8
0
 62
     7
  5
6CA
 10
-502.767519
 20
219.863332
 30
0.0
  0
VERTEX
  8
0
 62
     7
  5
6CB
 10
-502.906439
 20
219.813214
 30
0.0
  0
VERTEX
  8
0
 62
     7
  5
6CC
 10
-503.03451
 20
219.759028
 30
0.0
  0
VERTEX
  8
0
 62
     7
  5
6CD
 10
-503.150921
 20
219.701119
 30
0.0
  0
VERTEX
  8
0
 62
     7
  5
6CE
 10
-503.254935
 20
219.639852
 30
0.0
  0
VERTEX
  8
0
 62
     7
  5
6CF
 10
-503.345895
 20
219.575614
 30
0.0
  0
VERTEX
  8
0
 62
     7
  5
6D0
 10
-503.423224
 20
219.508814
 30
0.0
  0
VERTEX
  8
0
 62
     7
  5
6D1
 10
-503.486433
 20
219.439872
 30
0.0
  0
VERTEX
  8
0
 62
     7
  5
6D2
 10
-503.535122
 20
219.369225
 30
0.0
  0
VERTEX
  8
0
 62
     7
  5
6D3
 10
-503.568983
 20
219.297322
 30
0.0
  0
SEQEND
  8
0
  5
6D4
  0
LINE
  8
0
  6
CONTINUOUS
 62
     7
  5
6D6
 10
-504.460384
 20
216.850348
 30
0.0
 11
-504.491991
 21
216.67597
 31
0.0
  0
POLYLINE
  8
0
  6
CONTINUOUS
 62
     7
  5
6D7
 66
     1
 10
0.0
 20
0.0
 30
0.0
 40
0.5
 41
0.5
  0
VERTEX
  8
0
 62
     7
  5
6D8
 10
-501.191971
 20
218.25207
 30
0.0
  0
VERTEX
  8
0
 62
     7
  5
6D9
 10
-500.987104
 20
218.255423
 30
0.0
  0
VERTEX
  8
0
 62
     7
  5
6DA
 10
-500.783732
 20
218.265455
 30
0.0
  0
VERTEX
  8
0
 62
     7
  5
6DB
 10
-500.58334
 20
218.282094
 30
0.0
  0
VERTEX
  8
0
 62
     7
  5
6DC
 10
-500.387391
 20
218.305219
 30
0.0
  0
VERTEX
  8
0
 62
     7
  5
6DD
 10
-500.197316
 20
218.33466
 30
0.0
  0
VERTEX
  8
0
 62
     7
  5
6DE
 10
-500.014501
 20
218.370202
 30
0.0
  0
VERTEX
  8
0
 62
     7
  5
6DF
 10
-499.840282
 20
218.411587
 30
0.0
  0
VERTEX
  8
0
 62
     7
  5
6E0
 10
-499.67593
 20
218.458512
 30
0.0
  0
VERTEX
  8
0
 62
     7
  5
6E1
 10
-499.522645
 20
218.510635
 30
0.0
  0
VERTEX
  8
0
 62
     7
  5
6E2
 10
-499.381546
 20
218.567574
 30
0.0
  0
VERTEX
  8
0
 62
     7
  5
6E3
 10
-499.253663
 20
218.628915
 30
0.0
  0
VERTEX
  8
0
 62
     7
  5
6E4
 10
-499.139929
 20
218.69421
 30
0.0
  0
VERTEX
  8
0
 62
     7
  5
6E5
 10
-499.041175
 20
218.762981
 30
0.0
  0
VERTEX
  8
0
 62
     7
  5
6E6
 10
-498.958122
 20
218.834728
 30
0.0
  0
VERTEX
  8
0
 62
     7
  5
6E7
 10
-498.891375
 20
218.908925
 30
0.0
  0
VERTEX
  8
0
 62
     7
  5
6E8
 10
-498.841423
 20
218.985032
 30
0.0
  0
VERTEX
  8
0
 62
     7
  5
6E9
 10
-498.80863
 20
219.062493
 30
0.0
  0
VERTEX
  8
0
 62
     7
  5
6EA
 10
-498.793234
 20
219.140743
 30
0.0
  0
VERTEX
  8
0
 62
     7
  5
6EB
 10
-498.79535
 20
219.21921
 30
0.0
  0
VERTEX
  8
0
 62
     7
  5
6EC
 10
-498.81496
 20
219.297322
 30
0.0
  0
SEQEND
  8
0
  5
6ED
  0
LINE
  8
0
  6
CONTINUOUS
 62
     7
  5
6EF
 10
-497.891952
 20
216.675985
 30
0.0
 11
-497.923559
 21
216.850348
 31
0.0
  0
POLYLINE
  8
0
  6
CONTINUOUS
 62
     7
  5
6F0
 66
     1
 10
0.0
 20
0.0
 30
0.0
 40
0.5
 41
0.5
  0
VERTEX
  8
0
 62
     7
  5
6F1
 10
-504.491991
 20
216.67597
 30
0.0
  0
VERTEX
  8
0
 62
     7
  5
6F2
 10
-504.47943
 20
216.565905
 30
0.0
  0
VERTEX
  8
0
 62
     7
  5
6F3
 10
-504.441851
 20
216.456677
 30
0.0
  0
VERTEX
  8
0
 62
     7
  5
6F4
 10
-504.379538
 20
216.349118
 30
0.0
  0
VERTEX
  8
0
 62
     7
  5
6F5
 10
-504.292966
 20
216.244047
 30
0.0
  0
VERTEX
  8
0
 62
     7
  5
6F6
 10
-504.182793
 20
216.142263
 30
0.0
  0
VERTEX
  8
0
 62
     7
  5
6F7
 10
-504.049858
 20
216.044541
 30
0.0
  0
VERTEX
  8
0
 62
     7
  5
6F8
 10
-503.895174
 20
215.951625
 30
0.0
  0
VERTEX
  8
0
 62
     7
  5
6F9
 10
-503.719916
 20
215.864221
 30
0.0
  0
VERTEX
  8
0
 62
     7
  5
6FA
 10
-503.52542
 20
215.782995
 30
0.0
  0
VERTEX
  8
0
 62
     7
  5
6FB
 10
-503.313164
 20
215.708566
 30
0.0
  0
VERTEX
  8
0
 62
     7
  5
6FC
 10
-503.084765
 20
215.641499
 30
0.0
  0
VERTEX
  8
0
 62
     7
  5
6FD
 10
-502.841961
 20
215.582305
 30
0.0
  0
VERTEX
  8
0
 62
     7
  5
6FE
 10
-502.586599
 20
215.531435
 30
0.0
  0
VERTEX
  8
0
 62
     7
  5
6FF
 10
-502.320624
 20
215.489275
 30
0.0
  0
VERTEX
  8
0
 62
     7
  5
700
 10
-502.046058
 20
215.456147
 30
0.0
  0
VERTEX
  8
0
 62
     7
  5
701
 10
-501.764993
 20
215.432302
 30
0.0
  0
VERTEX
  8
0
 62
     7
  5
702
 10
-501.479567
 20
215.417923
 30
0.0
  0
VERTEX
  8
0
 62
     7
  5
703
 10
-501.191952
 20
215.413118
 30
0.0
  0
VERTEX
  8
0
 62
     7
  5
704
 10
-500.904337
 20
215.417924
 30
0.0
  0
VERTEX
  8
0
 62
     7
  5
705
 10
-500.618911
 20
215.432305
 30
0.0
  0
VERTEX
  8
0
 62
     7
  5
706
 10
-500.337846
 20
215.45615
 30
0.0
  0
VERTEX
  8
0
 62
     7
  5
707
 10
-500.063282
 20
215.48928
 30
0.0
  0
VERTEX
  8
0
 62
     7
  5
708
 10
-499.797308
 20
215.531441
 30
0.0
  0
VERTEX
  8
0
 62
     7
  5
709
 10
-499.541948
 20
215.582312
 30
0.0
  0
VERTEX
  8
0
 62
     7
  5
70A
 10
-499.299145
 20
215.641507
 30
0.0
  0
VERTEX
  8
0
 62
     7
  5
70B
 10
-499.070748
 20
215.708575
 30
0.0
  0
VERTEX
  8
0
 62
     7
  5
70C
 10
-498.858495
 20
215.783006
 30
0.0
  0
VERTEX
  8
0
 62
     7
  5
70D
 10
-498.664001
 20
215.864232
 30
0.0
  0
VERTEX
  8
0
 62
     7
  5
70E
 10
-498.488746
 20
215.951637
 30
0.0
  0
VERTEX
  8
0
 62
     7
  5
70F
 10
-498.334065
 20
216.044554
 30
0.0
  0
VERTEX
  8
0
 62
     7
  5
710
 10
-498.201133
 20
216.142277
 30
0.0
  0
VERTEX
  8
0
 62
     7
  5
711
 10
-498.090964
 20
216.244061
 30
0.0
  0
VERTEX
  8
0
 62
     7
  5
712
 10
-498.004395
 20
216.349133
 30
0.0
  0
VERTEX
  8
0
 62
     7
  5
713
 10
-497.942085
 20
216.456692
 30
0.0
  0
VERTEX
  8
0
 62
     7
  5
714
 10
-497.904509
 20
216.56592
 30
0.0
  0
VERTEX
  8
0
 62
     7
  5
715
 10
-497.891952
 20
216.675985
 30
0.0
  0
SEQEND
  8
0
  5
716
  0
POLYLINE
  8
0
  6
CONTINUOUS
 62
     7
  5
717
 66
     1
 10
0.0
 20
0.0
 30
0.0
 40
0.5
 41
0.5
  0
VERTEX
  8
0
 62
     7
  5
718
 10
-503.896902
 20
214.78567
 30
0.0
  0
VERTEX
  8
0
 62
     7
  5
719
 10
-503.828709
 20
214.701974
 30
0.0
  0
VERTEX
  8
0
 62
     7
  5
71A
 10
-503.742865
 20
214.620691
 30
0.0
  0
VERTEX
  8
0
 62
     7
  5
71B
 10
-503.639945
 20
214.542366
 30
0.0
  0
VERTEX
  8
0
 62
     7
  5
71C
 10
-503.520636
 20
214.467523
 30
0.0
  0
VERTEX
  8
0
 62
     7
  5
71D
 10
-503.385739
 20
214.396662
 30
0.0
  0
VERTEX
  8
0
 62
     7
  5
71E
 10
-503.236156
 20
214.33026
 30
0.0
  0
VERTEX
  8
0
 62
     7
  5
71F
 10
-503.072888
 20
214.268759
 30
0.0
  0
VERTEX
  8
0
 62
     7
  5
720
 10
-502.897029
 20
214.212572
 30
0.0
  0
VERTEX
  8
0
 62
     7
  5
721
 10
-502.709755
 20
214.162075
 30
0.0
  0
VERTEX
  8
0
 62
     7
  5
722
 10
-502.51232
 20
214.117605
 30
0.0
  0
VERTEX
  8
0
 62
     7
  5
723
 10
-502.306047
 20
214.079461
 30
0.0
  0
VERTEX
  8
0
 62
     7
  5
724
 10
-502.092316
 20
214.047898
 30
0.0
  0
VERTEX
  8
0
 62
     7
  5
725
 10
-501.872557
 20
214.023127
 30
0.0
  0
VERTEX
  8
0
 62
     7
  5
726
 10
-501.648242
 20
214.005314
 30
0.0
  0
VERTEX
  8
0
 62
     7
  5
727
 10
-501.420873
 20
213.994578
 30
0.0
  0
VERTEX
  8
0
 62
     7
  5
728
 10
-501.191971
 20
213.990992
 30
0.0
  0
VERTEX
  8
0
 62
     7
  5
729
 10
-500.96307
 20
213.994579
 30
0.0
  0
VERTEX
  8
0
 62
     7
  5
72A
 10
-500.7357
 20
214.005314
 30
0.0
  0
VERTEX
  8
0
 62
     7
  5
72B
 10
-500.511385
 20
214.023127
 30
0.0
  0
VERTEX
  8
0
 62
     7
  5
72C
 10
-500.291627
 20
214.047898
 30
0.0
  0
VERTEX
  8
0
 62
     7
  5
72D
 10
-500.077895
 20
214.079461
 30
0.0
  0
VERTEX
  8
0
 62
     7
  5
72E
 10
-499.871622
 20
214.117605
 30
0.0
  0
VERTEX
  8
0
 62
     7
  5
72F
 10
-499.674188
 20
214.162075
 30
0.0
  0
VERTEX
  8
0
 62
     7
  5
730
 10
-499.486914
 20
214.212572
 30
0.0
  0
VERTEX
  8
0
 62
     7
  5
731
 10
-499.311054
 20
214.268759
 30
0.0
  0
VERTEX
  8
0
 62
     7
  5
732
 10
-499.147787
 20
214.33026
 30
0.0
  0
VERTEX
  8
0
 62
     7
  5
733
 10
-498.998203
 20
214.396663
 30
0.0
  0
VERTEX
  8
0
 62
     7
  5
734
 10
-498.863306
 20
214.467523
 30
0.0
  0
VERTEX
  8
0
 62
     7
  5
735
 10
-498.743998
 20
214.542366
 30
0.0
  0
VERTEX
  8
0
 62
     7
  5
736
 10
-498.641077
 20
214.620691
 30
0.0
  0
VERTEX
  8
0
 62
     7
  5
737
 10
-498.555233
 20
214.701974
 30
0.0
  0
VERTEX
  8
0
 62
     7
  5
738
 10
-498.48704
 20
214.78567
 30
0.0
  0
SEQEND
  8
0
  5
739
  0
POLYLINE
  8
0
  6
CONTINUOUS
 62
     7
  5
73A
 66
     1
 10
0.0
 20
0.0
 30
0.0
 40
0.5
 41
0.5
  0
VERTEX
  8
0
 62
     7
  5
73B
 10
-504.911059
 20
213.844116
 30
0.0
  0
VERTEX
  8
0
 62
     7
  5
73C
 10
-504.985827
 20
213.771845
 30
0.0
  0
VERTEX
  8
0
 62
     7
  5
73D
 10
-505.051012
 20
213.698228
 30
0.0
  0
VERTEX
  8
0
 62
     7
  5
73E
 10
-505.10645
 20
213.623451
 30
0.0
  0
VERTEX
  8
0
 62
     7
  5
73F
 10
-505.152
 20
213.547703
 30
0.0
  0
VERTEX
  8
0
 62
     7
  5
740
 10
-505.187548
 20
213.471174
 30
0.0
  0
VERTEX
  8
0
 62
     7
  5
741
 10
-505.213004
 20
213.394059
 30
0.0
  0
VERTEX
  8
0
 62
     7
  5
742
 10
-505.228303
 20
213.316551
 30
0.0
  0
VERTEX
  8
0
 62
     7
  5
743
 10
-505.233407
 20
213.238847
 30
0.0
  0
SEQEND
  8
0
  5
744
  0
POLYLINE
  8
0
  6
CONTINUOUS
 62
     7
  5
745
 66
     1
 10
0.0
 20
0.0
 30
0.0
 40
0.5
 41
0.5
  0
VERTEX
  8
0
 62
     7
  5
746
 10
-497.150535
 20
213.238847
 30
0.0
  0
VERTEX
  8
0
 62
     7
  5
747
 10
-497.155639
 20
213.316551
 30
0.0
  0
VERTEX
  8
0
 62
     7
  5
748
 10
-497.170939
 20
213.394058
 30
0.0
  0
VERTEX
  8
0
 62
     7
  5
749
 10
-497.196394
 20
213.471174
 30
0.0
  0
VERTEX
  8
0
 62
     7
  5
74A
 10
-497.231942
 20
213.547702
 30
0.0
  0
VERTEX
  8
0
 62
     7
  5
74B
 10
-497.277492
 20
213.62345
 30
0.0
  0
VERTEX
  8
0
 62
     7
  5
74C
 10
-497.33293
 20
213.698227
 30
0.0
  0
VERTEX
  8
0
 62
     7
  5
74D
 10
-497.398114
 20
213.771844
 30
0.0
  0
VERTEX
  8
0
 62
     7
  5
74E
 10
-497.472882
 20
213.844114
 30
0.0
  0
SEQEND
  8
0
  5
74F
  0
POLYLINE
  8
0
  6
CONTINUOUS
 62
     7
  5
750
 66
     1
 10
0.0
 20
0.0
 30
0.0
 40
0.5
 41
0.5
  0
VERTEX
  8
0
 62
     7
  5
751
 10
-505.233407
 20
213.238847
 30
0.0
  0
VERTEX
  8
0
 62
     7
  5
752
 10
-505.218028
 20
213.104053
 30
0.0
  0
VERTEX
  8
0
 62
     7
  5
753
 10
-505.172009
 20
212.970284
 30
0.0
  0
VERTEX
  8
0
 62
     7
  5
754
 10
-505.095699
 20
212.83856
 30
0.0
  0
VERTEX
  8
0
 62
     7
  5
755
 10
-504.989679
 20
212.709881
 30
0.0
  0
VERTEX
  8
0
 62
     7
  5
756
 10
-504.854756
 20
212.585229
 30
0.0
  0
VERTEX
  8
0
 62
     7
  5
757
 10
-504.691957
 20
212.465551
 30
0.0
  0
VERTEX
  8
0
 62
     7
  5
758
 10
-504.502522
 20
212.351758
 30
0.0
  0
VERTEX
  8
0
 62
     7
  5
759
 10
-504.287891
 20
212.244717
 30
0.0
  0
VERTEX
  8
0
 62
     7
  5
75A
 10
-504.049698
 20
212.145241
 30
0.0
  0
VERTEX
  8
0
 62
     7
  5
75B
 10
-503.789756
 20
212.054089
 30
0.0
  0
VERTEX
  8
0
 62
     7
  5
75C
 10
-503.510044
 20
211.971953
 30
0.0
  0
VERTEX
  8
0
 62
     7
  5
75D
 10
-503.212689
 20
211.899459
 30
0.0
  0
VERTEX
  8
0
 62
     7
  5
75E
 10
-502.899956
 20
211.837158
 30
0.0
  0
VERTEX
  8
0
 62
     7
  5
75F
 10
-502.574224
 20
211.785526
 30
0.0
  0
VERTEX
  8
0
 62
     7
  5
760
 10
-502.237972
 20
211.744954
 30
0.0
  0
VERTEX
  8
0
 62
     7
  5
761
 10
-501.893759
 20
211.715751
 30
0.0
  0
VERTEX
  8
0
 62
     7
  5
762
 10
-501.544206
 20
211.69814
 30
0.0
  0
VERTEX
  8
0
 62
     7
  5
763
 10
-501.191971
 20
211.692255
 30
0.0
  0
VERTEX
  8
0
 62
     7
  5
764
 10
-500.839737
 20
211.69814
 30
0.0
  0
VERTEX
  8
0
 62
     7
  5
765
 10
-500.490183
 20
211.715751
 30
0.0
  0
VERTEX
  8
0
 62
     7
  5
766
 10
-500.145971
 20
211.744954
 30
0.0
  0
VERTEX
  8
0
 62
     7
  5
767
 10
-499.809719
 20
211.785526
 30
0.0
  0
VERTEX
  8
0
 62
     7
  5
768
 10
-499.483987
 20
211.837158
 30
0.0
  0
VERTEX
  8
0
 62
     7
  5
769
 10
-499.171253
 20
211.899459
 30
0.0
  0
VERTEX
  8
0
 62
     7
  5
76A
 10
-498.873899
 20
211.971953
 30
0.0
  0
VERTEX
  8
0
 62
     7
  5
76B
 10
-498.594186
 20
212.054089
 30
0.0
  0
VERTEX
  8
0
 62
     7
  5
76C
 10
-498.334245
 20
212.145241
 30
0.0
  0
VERTEX
  8
0
 62
     7
  5
76D
 10
-498.096052
 20
212.244717
 30
0.0
  0
VERTEX
  8
0
 62
     7
  5
76E
 10
-497.881421
 20
212.351758
 30
0.0
  0
VERTEX
  8
0
 62
     7
  5
76F
 10
-497.691985
 20
212.465551
 30
0.0
  0
VERTEX
  8
0
 62
     7
  5
770
 10
-497.529186
 20
212.585229
 30
0.0
  0
VERTEX
  8
0
 62
     7
  5
771
 10
-497.394264
 20
212.709881
 30
0.0
  0
VERTEX
  8
0
 62
     7
  5
772
 10
-497.288244
 20
212.83856
 30
0.0
  0
VERTEX
  8
0
 62
     7
  5
773
 10
-497.211934
 20
212.970284
 30
0.0
  0
VERTEX
  8
0
 62
     7
  5
774
 10
-497.165914
 20
213.104053
 30
0.0
  0
VERTEX
  8
0
 62
     7
  5
775
 10
-497.150535
 20
213.238847
 30
0.0
  0
SEQEND
  8
0
  5
776
  0
POLYLINE
  8
0
  6
CONTINUOUS
 62
     7
  5
777
 66
     1
 10
0.0
 20
0.0
 30
0.0
 40
0.5
 41
0.5
  0
VERTEX
  8
0
 62
     7
  5
778
 10
-505.233407
 20
212.237842
 30
0.0
  0
VERTEX
  8
0
 62
     7
  5
779
 10
-505.22765
 20
212.155317
 30
0.0
  0
VERTEX
  8
0
 62
     7
  5
77A
 10
-505.210393
 20
212.073026
 30
0.0
  0
VERTEX
  8
0
 62
     7
  5
77B
 10
-505.181688
 20
211.991206
 30
0.0
  0
VERTEX
  8
0
 62
     7
  5
77C
 10
-505.141614
 20
211.910088
 30
0.0
  0
VERTEX
  8
0
 62
     7
  5
77D
 10
-505.090287
 20
211.829904
 30
0.0
  0
VERTEX
  8
0
 62
     7
  5
77E
 10
-505.027853
 20
211.750883
 30
0.0
  0
VERTEX
  8
0
 62
     7
  5
77F
 10
-504.954489
 20
211.673248
 30
0.0
  0
VERTEX
  8
0
 62
     7
  5
780
 10
-504.870405
 20
211.597223
 30
0.0
  0
SEQEND
  8
0
  5
781
  0
POLYLINE
  8
0
  6
CONTINUOUS
 62
     7
  5
782
 66
     1
 10
0.0
 20
0.0
 30
0.0
 40
0.5
 41
0.5
  0
VERTEX
  8
0
 62
     7
  5
783
 10
-503.982477
 20
210.850566
 30
0.0
  0
VERTEX
  8
0
 62
     7
  5
784
 10
-503.860791
 20
210.761183
 30
0.0
 42
0.216234
  0
VERTEX
  8
0
 62
     7
  5
785
 10
-498.401462
 20
210.850569
 30
0.0
  0
SEQEND
  8
0
  5
786
  0
POLYLINE
  8
0
  6
CONTINUOUS
 62
     7
  5
787
 66
     1
 10
0.0
 20
0.0
 30
0.0
 40
0.5
 41
0.5
  0
VERTEX
  8
0
 62
     7
  5
788
 10
-497.513537
 20
211.597223
 30
0.0
  0
VERTEX
  8
0
 62
     7
  5
789
 10
-497.429453
 20
211.673248
 30
0.0
  0
VERTEX
  8
0
 62
     7
  5
78A
 10
-497.35609
 20
211.750883
 30
0.0
  0
VERTEX
  8
0
 62
     7
  5
78B
 10
-497.293655
 20
211.829904
 30
0.0
  0
VERTEX
  8
0
 62
     7
  5
78C
 10
-497.242328
 20
211.910088
 30
0.0
  0
VERTEX
  8
0
 62
     7
  5
78D
 10
-497.202255
 20
211.991206
 30
0.0
  0
VERTEX
  8
0
 62
     7
  5
78E
 10
-497.173549
 20
212.073026
 30
0.0
  0
VERTEX
  8
0
 62
     7
  5
78F
 10
-497.156293
 20
212.155317
 30
0.0
  0
VERTEX
  8
0
 62
     7
  5
790
 10
-497.150535
 20
212.237842
 30
0.0
  0
SEQEND
  8
0
  5
791
  0
POLYLINE
  8
0
  6
CONTINUOUS
 62
     7
  5
792
 66
     1
 10
0.0
 20
0.0
 30
0.0
 40
0.5
 41
0.5
  0
VERTEX
  8
0
 62
     7
  5
793
 10
-504.870405
 20
211.597223
 30
0.0
  0
VERTEX
  8
0
 62
     7
  5
794
 10
-504.721532
 20
211.484488
 30
0.0
  0
VERTEX
  8
0
 62
     7
  5
795
 10
-504.549116
 20
211.376779
 30
0.0
  0
VERTEX
  8
0
 62
     7
  5
796
 10
-504.354307
 20
211.274813
 30
0.0
  0
VERTEX
  8
0
 62
     7
  5
797
 10
-504.138404
 20
211.17927
 30
0.0
  0
VERTEX
  8
0
 62
     7
  5
798
 10
-503.902848
 20
211.090789
 30
0.0
  0
VERTEX
  8
0
 62
     7
  5
799
 10
-503.64921
 20
211.009958
 30
0.0
  0
VERTEX
  8
0
 62
     7
  5
79A
 10
-503.379181
 20
210.937318
 30
0.0
  0
VERTEX
  8
0
 62
     7
  5
79B
 10
-503.094564
 20
210.873353
 30
0.0
  0
VERTEX
  8
0
 62
     7
  5
79C
 10
-502.797255
 20
210.818489
 30
0.0
  0
VERTEX
  8
0
 62
     7
  5
79D
 10
-502.48924
 20
210.773092
 30
0.0
  0
VERTEX
  8
0
 62
     7
  5
79E
 10
-502.172571
 20
210.737466
 30
0.0
  0
VERTEX
  8
0
 62
     7
  5
79F
 10
-501.849361
 20
210.711847
 30
0.0
  0
VERTEX
  8
0
 62
     7
  5
7A0
 10
-501.521766
 20
210.696407
 30
0.0
  0
VERTEX
  8
0
 62
     7
  5
7A1
 10
-501.191971
 20
210.691249
 30
0.0
  0
VERTEX
  8
0
 62
     7
  5
7A2
 10
-500.862177
 20
210.696407
 30
0.0
  0
VERTEX
  8
0
 62
     7
  5
7A3
 10
-500.534582
 20
210.711847
 30
0.0
  0
VERTEX
  8
0
 62
     7
  5
7A4
 10
-500.211372
 20
210.737466
 30
0.0
  0
VERTEX
  8
0
 62
     7
  5
7A5
 10
-499.894703
 20
210.773092
 30
0.0
  0
VERTEX
  8
0
 62
     7
  5
7A6
 10
-499.586687
 20
210.818489
 30
0.0
  0
VERTEX
  8
0
 62
     7
  5
7A7
 10
-499.289379
 20
210.873353
 30
0.0
  0
VERTEX
  8
0
 62
     7
  5
7A8
 10
-499.004761
 20
210.937318
 30
0.0
  0
VERTEX
  8
0
 62
     7
  5
7A9
 10
-498.734733
 20
211.009958
 30
0.0
  0
VERTEX
  8
0
 62
     7
  5
7AA
 10
-498.481095
 20
211.090789
 30
0.0
  0
VERTEX
  8
0
 62
     7
  5
7AB
 10
-498.245539
 20
211.17927
 30
0.0
  0
VERTEX
  8
0
 62
     7
  5
7AC
 10
-498.029636
 20
211.274813
 30
0.0
  0
VERTEX
  8
0
 62
     7
  5
7AD
 10
-497.834827
 20
211.376779
 30
0.0
  0
VERTEX
  8
0
 62
     7
  5
7AE
 10
-497.662411
 20
211.484488
 30
0.0
  0
VERTEX
  8
0
 62
     7
  5
7AF
 10
-497.513537
 20
211.597223
 30
0.0
  0
SEQEND
  8
0
  5
7B0
  0
ARC
  8
0
  6
CONTINUOUS
 62
     7
  5
7B1
 10
-501.191971
 20
208.730511
 30
0.0
 40
4.000001
 50
0.0
 51
37.576767
210
0.0
220
0.0
230
1.0
  0
ARC
  8
0
  6
CONTINUOUS
 62
     7
  5
7B2
 10
-501.191971
 20
208.730511
 30
0.0
 40
4.000001
 50
142.423233
 51
360.0
210
0.0
220
0.0
230
1.0
  0
ARC
  8
0
  6
CONTINUOUS
 62
     7
  5
7B3
 10
-504.191975
 20
125.855924
 30
0.0
 40
2.0
 50
0.0
 51
67.045832
210
0.0
220
0.0
230
1.0
  0
LINE
  8
0
  6
CONTINUOUS
 62
     7
  5
7B4
 10
-502.191975
 20
124.23051
 30
0.0
 11
-502.191975
 21
125.855924
 31
0.0
  0
ARC
  8
0
  6
CONTINUOUS
 62
     7
  5
7B5
 10
-501.191975
 20
124.23051
 30
0.0
 40
1.0
 50
180.0
 51
270.0
210
0.0
220
0.0
230
1.0
  0
LINE
  8
0
  6
CONTINUOUS
 62
     7
  5
7B6
 10
-491.191975
 20
123.23051
 30
0.0
 11
-501.191975
 21
123.23051
 31
0.0
  0
ARC
  8
0
  6
CONTINUOUS
 62
     7
  5
7B7
 10
-491.191975
 20
124.23051
 30
0.0
 40
1.0
 50
270.0
 51
343.292794
210
0.0
220
0.0
230
1.0
  0
ARC
  8
0
  6
CONTINUOUS
 62
     7
  5
7B8
 10
-496.191975
 20
144.73051
 30
0.0
 40
18.5
 50
134.644246
 51
247.028647
210
0.0
220
0.0
230
1.0
  0
LINE
  8
0
  6
CONTINUOUS
 62
     7
  5
7B9
 10
-512.191975
 20
232.73051
 30
0.0
 11
-531.191975
 21
232.73051
 31
0.0
  0
LINE
  8
0
  6
CONTINUOUS
 62
     7
  5
7BA
 10
-512.191975
 20
232.73051
 30
0.0
 11
-512.191975
 21
184.73051
 31
0.0
  0
LINE
  8
0
  6
CONTINUOUS
 62
     7
  5
7BB
 10
-507.191975
 20
174.73051
 30
0.0
 11
-507.191975
 21
184.73051
 31
0.0
  0
LINE
  8
0
  6
CONTINUOUS
 62
     7
  5
7BC
 10
-507.191975
 20
174.73051
 30
0.0
 11
-488.566975
 21
174.73051
 31
0.0
  0
LINE
  8
0
  6
CONTINUOUS
 62
     7
  5
7BD
 10
-518.191975
 20
104.73051
 30
0.0
 11
-526.191975
 21
104.73051
 31
0.0
  0
LINE
  8
0
  6
CONTINUOUS
 62
     7
  5
7BE
 10
-526.191975
 20
136.73051
 30
0.0
 11
-526.191975
 21
104.73051
 31
0.0
  0
LINE
  8
0
  6
CONTINUOUS
 62
     7
  5
7BF
 10
-531.191975
 20
136.73051
 30
0.0
 11
-526.191975
 21
136.73051
 31
0.0
  0
LINE
  8
0
  6
CONTINUOUS
 62
     7
  5
7C0
 10
-531.191975
 20
232.73051
 30
0.0
 11
-531.191975
 21
136.73051
 31
0.0
  0
LINE
  8
0
  6
CONTINUOUS
 62
     7
  5
7C1
 10
-474.691975
 20
121.73051
 30
0.0
 11
-474.691975
 21
118.73051
 31
0.0
  0
LINE
  8
0
  6
CONTINUOUS
 62
     7
  5
7C2
 10
-507.191975
 20
184.73051
 30
0.0
 11
-512.191975
 21
184.73051
 31
0.0
  0
LINE
  8
0
  6
CONTINUOUS
 62
     7
  5
7C3
 10
-474.691975
 20
118.73051
 30
0.0
 11
-518.191975
 21
118.73051
 31
0.0
  0
LINE
  8
0
  6
CONTINUOUS
 62
     7
  5
7C4
 10
-518.191975
 20
118.73051
 30
0.0
 11
-518.191975
 21
104.73051
 31
0.0
  0
LINE
  8
0
  6
CONTINUOUS
 62
     7
  5
7C5
 10
-479.99199
 20
232.430501
 30
0.0
 11
-505.191949
 21
232.430501
 31
0.0
  0
LINE
  8
0
  6
CONTINUOUS
 62
     7
  5
7C6
 10
-477.991976
 20
230.430486
 30
0.0
 11
-479.99199
 21
232.430501
 31
0.0
  0
LINE
  8
0
  6
CONTINUOUS
 62
     7
  5
7C7
 10
-477.991976
 20
187.030521
 30
0.0
 11
-477.991976
 21
197.930479
 31
0.0
  0
LINE
  8
0
  6
CONTINUOUS
 62
     7
  5
7C8
 10
-479.991978
 20
185.030519
 30
0.0
 11
-477.991976
 21
187.030521
 31
0.0
  0
LINE
  8
0
  6
CONTINUOUS
 62
     7
  5
7C9
 10
-505.191948
 20
185.030519
 30
0.0
 11
-479.991978
 21
185.030519
 31
0.0
  0
LINE
  8
0
  6
CONTINUOUS
 62
     7
  5
7CA
 10
-507.191971
 20
187.03054
 30
0.0
 11
-505.191948
 21
185.030519
 31
0.0
  0
LINE
  8
0
  6
CONTINUOUS
 62
     7
  5
7CB
 10
-505.191949
 20
232.430501
 30
0.0
 11
-507.191971
 21
230.430481
 31
0.0
  0
LINE
  8
0
  6
CONTINUOUS
 62
     7
  5
7CC
 10
-477.991976
 20
219.530549
 30
0.0
 11
-477.991976
 21
230.430486
 31
0.0
  0
LINE
  8
0
  6
CONTINUOUS
 62
     7
  5
7CD
 10
-507.191971
 20
230.430481
 30
0.0
 11
-507.191971
 21
187.03054
 31
0.0
  0
LINE
  8
0
  6
CONTINUOUS
 62
     9
  5
7CE
 10
-531.191975
 20
128.73051
 30
0.0
 11
-526.191975
 21
128.73051
 31
0.0
  0
LINE
  8
0
  6
CONTINUOUS
 62
     7
  5
7CF
 10
-531.191975
 20
128.73051
 30
0.0
 11
-531.191975
 21
136.73051
 31
0.0
  0
LINE
  8
0
  6
CONTINUOUS
 62
     7
  5
7D0
 10
-480.041985
 20
185.030519
 30
0.0
 11
-480.341994
 21
184.73051
 31
0.0
  0
LINE
  8
0
  6
CONTINUOUS
 62
     7
  5
7D1
 10
-480.341994
 20
184.73051
 30
0.0
 11
-486.49198
 21
184.73051
 31
0.0
  0
LINE
  8
0
  6
CONTINUOUS
 62
     7
  5
7D2
 10
-486.49198
 20
184.73051
 30
0.0
 11
-486.74198
 21
184.98051
 31
0.0
  0
LINE
  8
0
  6
CONTINUOUS
 62
     7
  5
7D3
 10
-486.74198
 20
184.98051
 30
0.0
 11
-503.942004
 21
184.98051
 31
0.0
  0
LINE
  8
0
  6
CONTINUOUS
 62
     7
  5
7D4
 10
-503.942004
 20
184.98051
 30
0.0
 11
-504.192005
 21
184.73051
 31
0.0
  0
LINE
  8
0
  6
CONTINUOUS
 62
     7
  5
7D5
 10
-510.691956
 20
184.73051
 30
0.0
 11
-512.191975
 21
186.230531
 31
0.0
  0
LINE
  8
0
  6
CONTINUOUS
 62
     7
  5
7D6
 10
-512.191975
 20
231.230486
 30
0.0
 11
-510.691952
 21
232.730506
 31
0.0
  0
LINE
  8
0
  6
CONTINUOUS
 62
     7
  5
7D7
 10
-510.691952
 20
232.730506
 30
0.0
 11
-504.192019
 21
232.730506
 31
0.0
  0
LINE
  8
0
  6
CONTINUOUS
 62
     7
  5
7D8
 10
-486.391961
 20
232.830507
 30
0.0
 11
-480.391996
 21
232.830507
 31
0.0
  0
LINE
  8
0
  6
CONTINUOUS
 62
     7
  5
7D9
 10
-486.741958
 20
232.48051
 30
0.0
 11
-486.391961
 21
232.830507
 31
0.0
  0
LINE
  8
0
  6
CONTINUOUS
 62
     7
  5
7DA
 10
-504.192005
 20
184.73051
 30
0.0
 11
-507.191975
 21
184.73051
 31
0.0
  0
LINE
  8
0
  6
CONTINUOUS
 62
     7
  5
7DB
 10
-503.942024
 20
232.48051
 30
0.0
 11
-486.741958
 21
232.48051
 31
0.0
  0
LINE
  8
0
  6
CONTINUOUS
 62
     7
  5
7DC
 10
-504.192019
 20
232.730506
 30
0.0
 11
-503.942024
 21
232.48051
 31
0.0
  0
LINE
  8
0
  6
CONTINUOUS
 62
     7
  5
7DD
 10
-480.391996
 20
232.830507
 30
0.0
 11
-479.99199
 21
232.430501
 31
0.0
  0
LINE
  8
0
  6
CONTINUOUS
 62
     7
  5
7DE
 10
-531.191975
 20
128.73051
 30
0.0
 11
-531.191975
 21
104.73051
 31
0.0
  0
LINE
  8
0
  6
CONTINUOUS
 62
     7
  5
7DF
 10
-531.191975
 20
104.73051
 30
0.0
 11
-526.191975
 21
104.73051
 31
0.0
  0
LINE
  8
0
  6
CONTINUOUS
 62
     9
  5
7E0
 10
-434.191975
 20
226.73051
 30
0.0
 11
-434.191975
 21
228.73051
 31
0.0
  0
ARC
  8
0
  6
CONTINUOUS
 62
     7
  5
7E1
 10
-434.191975
 20
226.73051
 30
0.0
 40
2.0
 50
360.0
 51
90.0
210
0.0
220
0.0
230
1.0
  0
LINE
  8
0
  6
CONTINUOUS
 62
     9
  5
7E2
 10
-434.191975
 20
226.73051
 30
0.0
 11
-432.191975
 21
226.73051
 31
0.0
  0
LINE
  8
0
  6
CONTINUOUS
 62
     9
  5
7E3
 10
-470.191975
 20
226.73051
 30
0.0
 11
-470.191975
 21
110.73051
 31
0.0
  0
LINE
  8
0
  6
CONTINUOUS
 62
     9
  5
7E4
 10
-472.191975
 20
110.73051
 30
0.0
 11
-470.191975
 21
110.73051
 31
0.0
  0
LINE
  8
0
  6
CONTINUOUS
 62
     7
  5
7E5
 10
-472.191975
 20
110.73051
 30
0.0
 11
-472.191975
 21
226.73051
 31
0.0
  0
LINE
  8
0
  6
CONTINUOUS
 62
     9
  5
7E6
 10
-470.191975
 20
226.73051
 30
0.0
 11
-472.191975
 21
226.73051
 31
0.0
  0
LINE
  8
0
  6
CONTINUOUS
 62
     9
  5
7E7
 10
-434.191975
 20
226.73051
 30
0.0
 11
-470.191975
 21
226.73051
 31
0.0
  0
LINE
  8
0
  6
CONTINUOUS
 62
     9
  5
7E8
 10
-470.191975
 20
226.73051
 30
0.0
 11
-470.191975
 21
228.73051
 31
0.0
  0
LINE
  8
0
  6
CONTINUOUS
 62
     7
  5
7E9
 10
-470.191975
 20
228.73051
 30
0.0
 11
-434.191975
 21
228.73051
 31
0.0
  0
ARC
  8
0
  6
CONTINUOUS
 62
     7
  5
7EA
 10
-470.191975
 20
226.73051
 30
0.0
 40
2.0
 50
90.0
 51
180.0
210
0.0
220
0.0
230
1.0
  0
LINE
  8
0
  6
CONTINUOUS
 62
     7
  5
7EB
 10
-434.191975
 20
108.73051
 30
0.0
 11
-470.191975
 21
108.73051
 31
0.0
  0
LINE
  8
0
  6
CONTINUOUS
 62
     9
  5
7EC
 10
-470.191975
 20
108.73051
 30
0.0
 11
-470.191975
 21
110.73051
 31
0.0
  0
LINE
  8
0
  6
CONTINUOUS
 62
     9
  5
7ED
 10
-470.191975
 20
110.73051
 30
0.0
 11
-434.191975
 21
110.73051
 31
0.0
  0
LINE
  8
0
  6
CONTINUOUS
 62
     9
  5
7EE
 10
-434.191975
 20
108.73051
 30
0.0
 11
-434.191975
 21
110.73051
 31
0.0
  0
LINE
  8
0
  6
CONTINUOUS
 62
     9
  5
7EF
 10
-434.191975
 20
110.73051
 30
0.0
 11
-434.191975
 21
226.73051
 31
0.0
  0
LINE
  8
0
  6
CONTINUOUS
 62
     9
  5
7F0
 10
-432.191975
 20
110.73051
 30
0.0
 11
-434.191975
 21
110.73051
 31
0.0
  0
ARC
  8
0
  6
CONTINUOUS
 62
     7
  5
7F1
 10
-434.191975
 20
110.73051
 30
0.0
 40
2.0
 50
270.0
 51
360.0
210
0.0
220
0.0
230
1.0
  0
LINE
  8
0
  6
CONTINUOUS
 62
     7
  5
7F2
 10
-432.191975
 20
226.73051
 30
0.0
 11
-432.191975
 21
110.73051
 31
0.0
  0
ARC
  8
0
  6
CONTINUOUS
 62
     7
  5
7F3
 10
-470.191975
 20
110.73051
 30
0.0
 40
2.0
 50
180.0
 51
270.0
210
0.0
220
0.0
230
1.0
  0
LINE
  8
0
  6
CONTINUOUS
 62
     7
  5
7F4
 10
-509.191975
 20
159.73051
 30
0.0
 11
-487.191975
 21
175.73051
 31
0.0
  0
LINE
  8
0
  6
CONTINUOUS
 62
     7
  5
7F5
 10
-487.191975
 20
121.73051
 30
0.0
 11
-509.191975
 21
137.73051
 31
0.0
  0
LINE
  8
0
  6
CONTINUOUS
 62
     7
  5
7F6
 10
-509.191975
 20
159.73051
 30
0.0
 11
-509.191975
 21
137.73051
 31
0.0
  0
LINE
  8
0
  6
CONTINUOUS
 62
     7
  5
7F7
 10
-487.191975
 20
121.73051
 30
0.0
 11
-472.191975
 21
121.73051
 31
0.0
  0
LINE
  8
0
  6
CONTINUOUS
 62
     7
  5
7F8
 10
-487.191975
 20
175.73051
 30
0.0
 11
-472.191975
 21
175.73051
 31
0.0
  0
LINE
  8
0
  6
CONTINUOUS
 62
     7
  5
7F9
 10
-472.191975
 20
198.430528
 30
0.0
 11
-473.391993
 21
197.23051
 31
0.0
  0
LINE
  8
0
  6
CONTINUOUS
 62
     7
  5
7FA
 10
-479.991999
 20
199.930502
 30
0.0
 11
-485.072009
 21
199.930502
 31
0.0
  0
LINE
  8
0
  6
CONTINUOUS
 62
     7
  5
7FB
 10
-485.072009
 20
199.930502
 30
0.0
 11
-485.88363
 21
199.118883
 31
0.0
  0
ARC
  8
0
  6
CONTINUOUS
 62
     7
  5
7FC
 10
-485.649522
 20
197.088298
 30
0.0
 40
2.044035
 50
96.576644
 51
169.15876
210
0.0
220
0.0
230
1.0
  0
ARC
  8
0
  6
CONTINUOUS
 62
     7
  5
7FD
 10
-487.951494
 20
197.530356
 30
0.0
 40
0.3
 50
269.163134
 51
348.93068
210
0.0
220
0.0
230
1.0
  0
LINE
  8
0
  6
CONTINUOUS
 62
     7
  5
7FE
 10
-487.955876
 20
197.230388
 30
0.0
 11
-489.936116
 21
197.230388
 31
0.0
  0
ARC
  8
0
  6
CONTINUOUS
 62
     7
  5
7FF
 10
-489.931734
 20
197.530356
 30
0.0
 40
0.3
 50
190.671542
 51
269.163134
210
0.0
220
0.0
230
1.0
  0
ARC
  8
0
  6
CONTINUOUS
 62
     7
  5
800
 10
-492.233706
 20
197.088298
 30
0.0
 40
2.044035
 50
10.899621
 51
81.713227
210
0.0
220
0.0
230
1.0
  0
ARC
  8
0
  6
CONTINUOUS
 62
     7
  5
801
 10
-491.891985
 20
199.407268
 30
0.0
 40
0.3
 50
179.487529
 51
260.963555
210
0.0
220
0.0
230
1.0
  0
LINE
  8
0
  6
CONTINUOUS
 62
     7
  5
802
 10
-492.191973
 20
199.409952
 30
0.0
 11
-492.191973
 21
218.056436
 31
0.0
  0
ARC
  8
0
  6
CONTINUOUS
 62
     7
  5
803
 10
-491.891985
 20
218.053752
 30
0.0
 40
0.3
 50
97.728991
 51
179.487529
210
0.0
220
0.0
230
1.0
  0
ARC
  8
0
  6
CONTINUOUS
 62
     7
  5
804
 10
-492.233706
 20
220.372722
 30
0.0
 40
2.044035
 50
278.478662
 51
349.128609
210
0.0
220
0.0
230
1.0
  0
ARC
  8
0
  6
CONTINUOUS
 62
     7
  5
805
 10
-489.931734
 20
219.930624
 30
0.0
 40
0.3
 50
90.0
 51
169.128609
210
0.0
220
0.0
230
1.0
  0
LINE
  8
0
  6
CONTINUOUS
 62
     7
  5
806
 10
-489.931734
 20
220.230624
 30
0.0
 11
-487.951494
 21
220.230632
 31
0.0
  0
ARC
  8
0
  6
CONTINUOUS
 62
     7
  5
807
 10
-487.951494
 20
219.930624
 30
0.0
 40
0.3
 50
10.871391
 51
90.0
210
0.0
220
0.0
230
1.0
  0
ARC
  8
0
  6
CONTINUOUS
 62
     7
  5
808
 10
-485.649522
 20
220.372722
 30
0.0
 40
2.044035
 50
190.871391
 51
263.422754
210
0.0
220
0.0
230
1.0
  0
LINE
  8
0
  6
CONTINUOUS
 62
     7
  5
809
 10
-485.883651
 20
218.34214
 30
0.0
 11
-485.071989
 21
217.530478
 31
0.0
  0
LINE
  8
0
  6
CONTINUOUS
 62
     7
  5
80A
 10
-485.071989
 20
217.530478
 30
0.0
 11
-479.992047
 21
217.530478
 31
0.0
  0
LINE
  8
0
  6
CONTINUOUS
 62
     7
  5
80B
 10
-479.992047
 20
217.530478
 30
0.0
 11
-477.292015
 21
220.23051
 31
0.0
  0
LINE
  8
0
  6
CONTINUOUS
 62
     7
  5
80C
 10
-477.292015
 20
220.23051
 30
0.0
 11
-473.391978
 21
220.23051
 31
0.0
  0
LINE
  8
0
  6
CONTINUOUS
 62
     7
  5
80D
 10
-473.391978
 20
220.23051
 30
0.0
 11
-472.191975
 21
219.030506
 31
0.0
  0
LINE
  8
0
  6
CONTINUOUS
 62
     7
  5
80E
 10
-472.191975
 20
212.480461
 30
0.0
 11
-472.69199
 21
211.980446
 31
0.0
  0
LINE
  8
0
  6
CONTINUOUS
 62
     7
  5
80F
 10
-472.69199
 20
211.980446
 30
0.0
 11
-472.69199
 21
205.480553
 31
0.0
  0
LINE
  8
0
  6
CONTINUOUS
 62
     7
  5
810
 10
-472.69199
 20
205.480553
 30
0.0
 11
-472.191975
 21
204.98054
 31
0.0
  0
LINE
  8
0
  6
CONTINUOUS
 62
     7
  5
811
 10
-477.292007
 20
197.23051
 30
0.0
 11
-479.991999
 21
199.930502
 31
0.0
  0
LINE
  8
0
  6
CONTINUOUS
 62
     7
  5
812
 10
-473.391993
 20
197.23051
 30
0.0
 11
-477.292007
 21
197.23051
 31
0.0
  0
LINE
  8
0
  6
CONTINUOUS
 62
     7
  5
813
 10
-485.191975
 20
175.73051
 30
0.0
 11
-484.191975
 21
176.73051
 31
0.0
  0
LINE
  8
0
  6
CONTINUOUS
 62
     7
  5
814
 10
-484.191975
 20
176.73051
 30
0.0
 11
-472.191975
 21
176.73051
 31
0.0
  0
LINE
  8
0
  6
CONTINUOUS
 62
     7
  5
815
 10
-497.923559
 20
216.850348
 30
0.0
 11
-498.81496
 21
219.297322
 31
0.0
  0
LINE
  8
0
  6
CONTINUOUS
 62
     7
  5
816
 10
-503.568983
 20
219.297322
 30
0.0
 11
-504.460384
 21
216.850348
 31
0.0
  0
ARC
  8
0
  6
CONTINUOUS
 62
     7
  5
817
 10
-501.191954
 20
216.676029
 30
0.0
 40
3.300002
 50
325.03567
 51
359.999116
210
0.0
220
0.0
230
1.0
  0
ARC
  8
0
  6
CONTINUOUS
 62
     7
  5
818
 10
-501.191988
 20
216.676029
 30
0.0
 40
3.300002
 50
180.000948
 51
214.966325
210
0.0
220
0.0
230
1.0
  0
ARC
  8
0
  6
CONTINUOUS
 62
     7
  5
819
 10
-507.535991
 20
216.662691
 30
0.0
 40
3.851576
 50
312.962935
 51
334.857154
210
0.0
220
0.0
230
0.9999999999999999
  0
ARC
  8
0
  6
CONTINUOUS
 62
     7
  5
81A
 10
-494.885983
 20
216.634978
 30
0.0
 40
3.805387
 50
205.00488
 51
227.171686
210
0.0
220
0.0
230
1.0
  0
LINE
  8
0
  6
CONTINUOUS
 62
     7
  5
81B
 10
-497.150535
 20
212.237842
 30
0.0
 11
-497.150535
 21
213.238847
 31
0.0
  0
LINE
  8
0
  6
CONTINUOUS
 62
     7
  5
81C
 10
-505.233407
 20
213.238847
 30
0.0
 11
-505.233407
 21
212.237842
 31
0.0
  0
LINE
  8
0
  6
CONTINUOUS
 62
     7
  5
81D
 10
-504.870405
 20
211.597223
 30
0.0
 11
-503.982365
 21
210.850472
 31
0.0
  0
LINE
  8
0
  6
CONTINUOUS
 62
     7
  5
81E
 10
-498.401692
 20
210.850375
 30
0.0
 11
-497.513537
 21
211.597223
 31
0.0
  0
ENDBLK
  8
0
  5
81F
  0
BLOCK
  8
0
  5
822
  2
AID1569
 70
     0
 10
0.0
 20
0.0
 30
0.0
  3
#auxiliary draft view
  0
LINE
  8
0
  6
CONTINUOUS
 62
     7
  5
823
 10
291.029974
 20
-520.755071
 30
0.0
 11
383.029974
 21
-520.755071
 31
0.0
  0
LINE
  8
0
  6
CONTINUOUS
 62
     7
  5
824
 10
291.029974
 20
-519.055095
 30
0.0
 11
291.029974
 21
-520.755071
 31
0.0
  0
LINE
  8
0
  6
CONTINUOUS
 62
     7
  5
825
 10
383.029974
 20
-519.055095
 30
0.0
 11
383.029974
 21
-520.755071
 31
0.0
  0
LINE
  8
0
  6
CONTINUOUS
 62
     7
  5
826
 10
372.529974
 20
-523.155092
 30
0.0
 11
372.529974
 21
-522.755086
 31
0.0
  0
LINE
  8
0
  6
CONTINUOUS
 62
     7
  5
827
 10
301.529974
 20
-523.155092
 30
0.0
 11
372.529974
 21
-523.155092
 31
0.0
  0
LINE
  8
0
  6
CONTINUOUS
 62
     7
  5
828
 10
301.529974
 20
-523.155092
 30
0.0
 11
301.529974
 21
-522.755086
 31
0.0
  0
LINE
  8
0
  6
CONTINUOUS
 62
     7
  5
829
 10
301.529974
 20
-522.755086
 30
0.0
 11
291.029974
 21
-522.755086
 31
0.0
  0
LINE
  8
0
  6
CONTINUOUS
 62
     7
  5
82A
 10
291.029974
 20
-520.755071
 30
0.0
 11
291.029974
 21
-522.755086
 31
0.0
  0
LINE
  8
0
  6
CONTINUOUS
 62
     7
  5
82B
 10
372.529974
 20
-522.755086
 30
0.0
 11
383.029974
 21
-522.755086
 31
0.0
  0
LINE
  8
0
  6
CONTINUOUS
 62
     7
  5
82C
 10
383.029974
 20
-520.755071
 30
0.0
 11
383.029974
 21
-522.755086
 31
0.0
  0
LINE
  8
0
  6
CONTINUOUS
 62
     7
  5
82D
 10
399.029974
 20
-520.755071
 30
0.0
 11
399.029974
 21
-522.755086
 31
0.0
  0
LINE
  8
0
  6
CONTINUOUS
 62
     7
  5
82E
 10
491.029974
 20
-520.755071
 30
0.0
 11
399.029974
 21
-520.755071
 31
0.0
  0
LINE
  8
0
  6
CONTINUOUS
 62
     7
  5
82F
 10
480.529974
 20
-522.755086
 30
0.0
 11
491.029974
 21
-522.755086
 31
0.0
  0
LINE
  8
0
  6
CONTINUOUS
 62
     7
  5
830
 10
480.529974
 20
-523.155092
 30
0.0
 11
480.529974
 21
-522.755086
 31
0.0
  0
LINE
  8
0
  6
CONTINUOUS
 62
     7
  5
831
 10
480.529974
 20
-523.155092
 30
0.0
 11
409.529974
 21
-523.155092
 31
0.0
  0
LINE
  8
0
  6
CONTINUOUS
 62
     7
  5
832
 10
409.529974
 20
-523.155092
 30
0.0
 11
409.529974
 21
-522.755086
 31
0.0
  0
LINE
  8
0
  6
CONTINUOUS
 62
     7
  5
833
 10
409.529974
 20
-522.755086
 30
0.0
 11
399.029974
 21
-522.755086
 31
0.0
  0
LINE
  8
0
  6
CONTINUOUS
 62
     7
  5
834
 10
491.029974
 20
-520.755071
 30
0.0
 11
491.029974
 21
-522.755086
 31
0.0
  0
LINE
  8
0
  6
CONTINUOUS
 62
     7
  5
835
 10
399.029974
 20
-519.055095
 30
0.0
 11
399.029974
 21
-520.755071
 31
0.0
  0
LINE
  8
0
  6
CONTINUOUS
 62
     7
  5
836
 10
491.029974
 20
-519.055095
 30
0.0
 11
491.029974
 21
-520.755071
 31
0.0
  0
LINE
  8
0
  6
CONTINUOUS
 62
     7
  5
837
 10
291.029974
 20
-523.055095
 30
0.0
 11
301.529974
 21
-523.055093
 31
0.0
  0
LINE
  8
0
  6
CONTINUOUS
 62
     7
  5
838
 10
372.529974
 20
-523.055093
 30
0.0
 11
409.529974
 21
-523.055093
 31
0.0
  0
LINE
  8
0
  6
CONTINUOUS
 62
     7
  5
839
 10
480.529974
 20
-523.055095
 30
0.0
 11
491.029974
 21
-523.055095
 31
0.0
  0
LINE
  8
0
  6
CONTINUOUS
 62
     7
  5
83A
 10
291.029974
 20
-522.755086
 30
0.0
 11
291.029974
 21
-523.055095
 31
0.0
  0
LINE
  8
0
  6
CONTINUOUS
 62
     7
  5
83B
 10
491.029974
 20
-523.055095
 30
0.0
 11
491.029974
 21
-522.755086
 31
0.0
  0
ARC
  8
0
  6
CONTINUOUS
 62
     7
  5
83C
 10
298.529974
 20
-400.055095
 30
0.0
 40
2.459
 50
23.995781
 51
156.004219
210
0.0
220
0.0
230
1.0
  0
LINE
  8
0
  6
CONTINUOUS
 62
     7
  5
83D
 10
291.029974
 20
-395.055095
 30
0.0
 11
491.029974
 21
-395.055095
 31
0.0
  0
ARC
  8
0
  6
CONTINUOUS
 62
     7
  5
83E
 10
483.529974
 20
-400.055095
 30
0.0
 40
2.459
 50
23.995781
 51
156.004219
210
0.0
220
0.0
230
1.0
  0
LINE
  8
0
  6
CONTINUOUS
 62
     7
  5
83F
 10
291.029974
 20
-395.055095
 30
0.0
 11
291.029974
 21
-399.055095
 31
0.0
  0
LINE
  8
0
  6
CONTINUOUS
 62
     7
  5
840
 10
491.029974
 20
-399.055095
 30
0.0
 11
491.029974
 21
-395.055095
 31
0.0
  0
CIRCLE
  8
0
  6
CONTINUOUS
 62
     7
  5
841
 10
476.529974
 20
-419.055095
 30
0.0
 40
3.3235
210
0.0
220
0.0
230
1.0
  0
CIRCLE
  8
0
  6
CONTINUOUS
 62
     7
  5
842
 10
476.529974
 20
-419.055095
 30
0.0
 40
4.0
210
0.0
220
0.0
230
1.0
  0
CIRCLE
  8
0
  6
CONTINUOUS
 62
     7
  5
843
 10
516.529974
 20
-419.055095
 30
0.0
 40
3.3235
210
0.0
220
0.0
230
1.0
  0
CIRCLE
  8
0
  6
CONTINUOUS
 62
     7
  5
844
 10
516.529974
 20
-419.055095
 30
0.0
 40
4.0
210
0.0
220
0.0
230
1.0
  0
LINE
  8
0
  6
CONTINUOUS
 62
     7
  5
845
 10
468.529974
 20
-414.955095
 30
0.0
 11
468.529974
 21
-423.155095
 31
0.0
  0
LINE
  8
0
  6
CONTINUOUS
 62
     7
  5
846
 10
524.529974
 20
-423.155095
 30
0.0
 11
524.529974
 21
-414.955095
 31
0.0
  0
CIRCLE
  8
0
  6
CONTINUOUS
 62
     7
  5
847
 10
-194.470026
 20
-419.055095
 30
0.0
 40
4.0
210
0.0
220
0.0
230
1.0
  0
CIRCLE
  8
0
  6
CONTINUOUS
 62
     7
  5
848
 10
-154.470026
 20
-419.055095
 30
0.0
 40
4.0
210
0.0
220
0.0
230
1.0
  0
LINE
  8
0
  6
CONTINUOUS
 62
     7
  5
849
 10
-146.470026
 20
-414.955095
 30
0.0
 11
-146.470026
 21
-423.155095
 31
0.0
  0
LINE
  8
0
  6
CONTINUOUS
 62
     7
  5
84A
 10
-202.470026
 20
-423.155095
 30
0.0
 11
-202.470026
 21
-414.955095
 31
0.0
  0
CIRCLE
  8
0
  6
CONTINUOUS
 62
     7
  5
84B
 10
-154.470026
 20
-419.055095
 30
0.0
 40
3.3235
210
0.0
220
0.0
230
1.0
  0
CIRCLE
  8
0
  6
CONTINUOUS
 62
     7
  5
84C
 10
-194.470026
 20
-419.055095
 30
0.0
 40
3.3235
210
0.0
220
0.0
230
1.0
  0
CIRCLE
  8
0
  6
CONTINUOUS
 62
     7
  5
84D
 10
516.529974
 20
-499.055095
 30
0.0
 40
4.0
210
0.0
220
0.0
230
1.0
  0
CIRCLE
  8
0
  6
CONTINUOUS
 62
     7
  5
84E
 10
476.529974
 20
-499.055095
 30
0.0
 40
4.0
210
0.0
220
0.0
230
1.0
  0
LINE
  8
0
  6
CONTINUOUS
 62
     7
  5
84F
 10
468.529974
 20
-503.155095
 30
0.0
 11
468.529974
 21
-494.955095
 31
0.0
  0
LINE
  8
0
  6
CONTINUOUS
 62
     7
  5
850
 10
524.529974
 20
-494.955095
 30
0.0
 11
524.529974
 21
-503.155095
 31
0.0
  0
CIRCLE
  8
0
  6
CONTINUOUS
 62
     7
  5
851
 10
516.529974
 20
-499.055095
 30
0.0
 40
3.3235
210
0.0
220
0.0
230
1.0
  0
CIRCLE
  8
0
  6
CONTINUOUS
 62
     7
  5
852
 10
476.529974
 20
-499.055095
 30
0.0
 40
3.3235
210
0.0
220
0.0
230
1.0
  0
CIRCLE
  8
0
  6
CONTINUOUS
 62
     7
  5
853
 10
-194.470026
 20
-499.055095
 30
0.0
 40
4.0
210
0.0
220
0.0
230
1.0
  0
CIRCLE
  8
0
  6
CONTINUOUS
 62
     7
  5
854
 10
-154.470026
 20
-499.055095
 30
0.0
 40
4.0
210
0.0
220
0.0
230
1.0
  0
LINE
  8
0
  6
CONTINUOUS
 62
     7
  5
855
 10
-146.470026
 20
-503.155095
 30
0.0
 11
-146.470026
 21
-494.955095
 31
0.0
  0
LINE
  8
0
  6
CONTINUOUS
 62
     7
  5
856
 10
-202.470026
 20
-494.955095
 30
0.0
 11
-202.470026
 21
-503.155095
 31
0.0
  0
CIRCLE
  8
0
  6
CONTINUOUS
 62
     7
  5
857
 10
-154.470026
 20
-499.055095
 30
0.0
 40
3.3235
210
0.0
220
0.0
230
1.0
  0
CIRCLE
  8
0
  6
CONTINUOUS
 62
     7
  5
858
 10
-194.470026
 20
-499.055095
 30
0.0
 40
3.3235
210
0.0
220
0.0
230
1.0
  0
ARC
  8
0
  6
CONTINUOUS
 62
     7
  5
859
 10
552.029974
 20
-517.055095
 30
0.0
 40
2.0
 50
270.0
 51
360.0
210
0.0
220
0.0
230
1.0
  0
LINE
  8
0
  6
CONTINUOUS
 62
     9
  5
85A
 10
552.029974
 20
-519.055095
 30
0.0
 11
552.029974
 21
-517.055095
 31
0.0
  0
LINE
  8
0
  6
CONTINUOUS
 62
     9
  5
85B
 10
554.029974
 20
-517.055095
 30
0.0
 11
552.029974
 21
-517.055095
 31
0.0
  0
LINE
  8
0
  6
CONTINUOUS
 62
     9
  5
85C
 10
-229.970026
 20
-519.055095
 30
0.0
 11
-229.970026
 21
-517.055095
 31
0.0
  0
LINE
  8
0
  6
CONTINUOUS
 62
     9
  5
85D
 10
-229.970026
 20
-517.055095
 30
0.0
 11
552.029974
 21
-517.055095
 31
0.0
  0
LINE
  8
0
  6
CONTINUOUS
 62
     7
  5
85E
 10
552.029974
 20
-519.055095
 30
0.0
 11
-229.970026
 21
-519.055095
 31
0.0
  0
ARC
  8
0
  6
CONTINUOUS
 62
     7
  5
85F
 10
-229.970026
 20
-517.055095
 30
0.0
 40
2.0
 50
180.0
 51
270.0
210
0.0
220
0.0
230
1.0
  0
LINE
  8
0
  6
CONTINUOUS
 62
     9
  5
860
 10
-231.970026
 20
-517.055095
 30
0.0
 11
-229.970026
 21
-517.055095
 31
0.0
  0
LINE
  8
0
  6
CONTINUOUS
 62
     9
  5
861
 10
-229.970026
 20
-517.055095
 30
0.0
 11
-229.970026
 21
-401.055095
 31
0.0
  0
LINE
  8
0
  6
CONTINUOUS
 62
     7
  5
862
 10
-231.970026
 20
-401.055095
 30
0.0
 11
-231.970026
 21
-517.055095
 31
0.0
  0
LINE
  8
0
  6
CONTINUOUS
 62
     9
  5
863
 10
-229.970026
 20
-401.055095
 30
0.0
 11
-231.970026
 21
-401.055095
 31
0.0
  0
LINE
  8
0
  6
CONTINUOUS
 62
     7
  5
864
 10
554.029974
 20
-401.055095
 30
0.0
 11
554.029974
 21
-517.055095
 31
0.0
  0
LINE
  8
0
  6
CONTINUOUS
 62
     9
  5
865
 10
552.029974
 20
-517.055095
 30
0.0
 11
552.029974
 21
-401.055095
 31
0.0
  0
LINE
  8
0
  6
CONTINUOUS
 62
     9
  5
866
 10
552.029974
 20
-401.055095
 30
0.0
 11
554.029974
 21
-401.055095
 31
0.0
  0
LINE
  8
0
  6
CONTINUOUS
 62
     7
  5
867
 10
-227.970026
 20
-494.955095
 30
0.0
 11
-227.970026
 21
-503.155095
 31
0.0
  0
LINE
  8
0
  6
CONTINUOUS
 62
     7
  5
868
 10
550.029974
 20
-503.155095
 30
0.0
 11
-227.970026
 21
-503.155095
 31
0.0
  0
LINE
  8
0
  6
CONTINUOUS
 62
     7
  5
869
 10
550.029974
 20
-494.955095
 30
0.0
 11
550.029974
 21
-503.155095
 31
0.0
  0
LINE
  8
0
  6
CONTINUOUS
 62
     7
  5
86A
 10
550.029974
 20
-494.955095
 30
0.0
 11
-227.970026
 21
-494.955095
 31
0.0
  0
LINE
  8
0
  6
CONTINUOUS
 62
     7
  5
86B
 10
550.029974
 20
-454.955095
 30
0.0
 11
-227.970026
 21
-454.955095
 31
0.0
  0
LINE
  8
0
  6
CONTINUOUS
 62
     7
  5
86C
 10
-227.970026
 20
-454.955095
 30
0.0
 11
-227.970026
 21
-463.155095
 31
0.0
  0
LINE
  8
0
  6
CONTINUOUS
 62
     7
  5
86D
 10
550.029974
 20
-463.155095
 30
0.0
 11
-227.970026
 21
-463.155095
 31
0.0
  0
LINE
  8
0
  6
CONTINUOUS
 62
     7
  5
86E
 10
550.029974
 20
-454.955095
 30
0.0
 11
550.029974
 21
-463.155095
 31
0.0
  0
LINE
  8
0
  6
CONTINUOUS
 62
     7
  5
86F
 10
550.029974
 20
-414.955095
 30
0.0
 11
-227.970026
 21
-414.955095
 31
0.0
  0
LINE
  8
0
  6
CONTINUOUS
 62
     7
  5
870
 10
-227.970026
 20
-414.955095
 30
0.0
 11
-227.970026
 21
-423.155095
 31
0.0
  0
LINE
  8
0
  6
CONTINUOUS
 62
     7
  5
871
 10
550.029974
 20
-423.155095
 30
0.0
 11
-227.970026
 21
-423.155095
 31
0.0
  0
LINE
  8
0
  6
CONTINUOUS
 62
     7
  5
872
 10
550.029974
 20
-414.955095
 30
0.0
 11
550.029974
 21
-423.155095
 31
0.0
  0
LINE
  8
0
  6
CONTINUOUS
 62
     9
  5
873
 10
552.029974
 20
-401.055095
 30
0.0
 11
-229.970026
 21
-401.055095
 31
0.0
  0
LINE
  8
0
  6
CONTINUOUS
 62
     9
  5
874
 10
-229.970026
 20
-401.055095
 30
0.0
 11
-229.970026
 21
-399.055095
 31
0.0
  0
LINE
  8
0
  6
CONTINUOUS
 62
     7
  5
875
 10
-229.970026
 20
-399.055095
 30
0.0
 11
552.029974
 21
-399.055095
 31
0.0
  0
LINE
  8
0
  6
CONTINUOUS
 62
     9
  5
876
 10
552.029974
 20
-401.055095
 30
0.0
 11
552.029974
 21
-399.055095
 31
0.0
  0
ARC
  8
0
  6
CONTINUOUS
 62
     7
  5
877
 10
552.029974
 20
-401.055095
 30
0.0
 40
2.0
 50
360.0
 51
90.0
210
0.0
220
0.0
230
1.0
  0
ARC
  8
0
  6
CONTINUOUS
 62
     7
  5
878
 10
-229.970026
 20
-401.055095
 30
0.0
 40
2.0
 50
90.0
 51
180.0
210
0.0
220
0.0
230
1.0
  0
ENDBLK
  8
0
  5
879
  0
ENDSEC
  0
SECTION
  2
ENTITIES
  0
INSERT
  8
0
  5
E5
  2
AID3
 10
0.0
 20
0.0
 30
0.0
  0
INSERT
  8
0
  5
3BE
  2
AID387
 10
0.0
 20
0.0
 30
0.0
  0
INSERT
  8
0
  5
4F0
  2
AID805
 10
0.0
 20
0.0
 30
0.0
  0
INSERT
  8
0
  5
694
  2
AID1057
 10
0.0
 20
0.0
 30
0.0
  0
INSERT
  8
0
  5
820
  2
AID1317
 10
0.0
 20
0.0
 30
0.0
  0
INSERT
  8
0
  5
87A
  2
AID1569
 10
0.0
 20
0.0
 30
0.0
  0
LINE
  8
0
  6
CENTER
 62
     1
  5
87C
 10
334.029974
 20
191.98051
 30
0.0
 11
348.029974
 21
191.98051
 31
0.0
  0
LINE
  8
0
  6
CENTER
 62
     1
  5
87D
 10
341.029974
 20
184.98051
 30
0.0
 11
341.029974
 21
198.98051
 31
0.0
  0
LINE
  8
0
  6
CENTER
 62
     1
  5
87E
 10
434.029974
 20
191.98051
 30
0.0
 11
448.029974
 21
191.98051
 31
0.0
  0
LINE
  8
0
  6
CENTER
 62
     1
  5
87F
 10
441.029974
 20
184.98051
 30
0.0
 11
441.029974
 21
198.98051
 31
0.0
  0
LINE
  8
0
  6
CENTER
 62
     1
  5
880
 10
434.029974
 20
145.48051
 30
0.0
 11
448.029974
 21
145.48051
 31
0.0
  0
LINE
  8
0
  6
CENTER
 62
     1
  5
881
 10
441.029974
 20
138.48051
 30
0.0
 11
441.029974
 21
152.48051
 31
0.0
  0
LINE
  8
0
  6
CENTER
 62
     1
  5
882
 10
334.029974
 20
145.48051
 30
0.0
 11
348.029974
 21
145.48051
 31
0.0
  0
LINE
  8
0
  6
CENTER
 62
     1
  5
883
 10
341.029974
 20
138.48051
 30
0.0
 11
341.029974
 21
152.48051
 31
0.0
  0
LINE
  8
0
  6
CENTER
 62
     1
  5
884
 10
367.779974
 20
163.22051
 30
0.0
 11
367.779974
 21
174.24051
 31
0.0
  0
LINE
  8
0
  6
CENTER
 62
     1
  5
885
 10
414.279974
 20
163.22051
 30
0.0
 11
414.279974
 21
174.24051
 31
0.0
  0
LINE
  8
0
  6
CENTER
 62
     1
  5
886
 10
362.269974
 20
168.73051
 30
0.0
 11
419.789974
 21
168.73051
 31
0.0
  0
LINE
  8
0
  6
CENTER
 62
     1
  5
887
 10
391.029974
 20
103.73051
 30
0.0
 11
391.029974
 21
235.73051
 31
0.0
  0
LINE
  8
0
  6
CENTER
 62
     1
  5
888
 10
292.529974
 20
122.73051
 30
0.0
 11
304.529974
 21
122.73051
 31
0.0
  0
LINE
  8
0
  6
CENTER
 62
     1
  5
889
 10
298.529974
 20
116.73051
 30
0.0
 11
298.529974
 21
128.73051
 31
0.0
  0
LINE
  8
0
  6
CENTER
 62
     1
  5
88A
 10
292.529974
 20
109.73051
 30
0.0
 11
304.529974
 21
109.73051
 31
0.0
  0
LINE
  8
0
  6
CENTER
 62
     1
  5
88B
 10
298.529974
 20
103.73051
 30
0.0
 11
298.529974
 21
115.73051
 31
0.0
  0
LINE
  8
0
  6
CENTER
 62
     1
  5
88C
 10
478.070974
 20
109.73051
 30
0.0
 11
488.988974
 21
109.73051
 31
0.0
  0
LINE
  8
0
  6
CENTER
 62
     1
  5
88D
 10
483.529974
 20
104.27151
 30
0.0
 11
483.529974
 21
115.18951
 31
0.0
  0
LINE
  8
0
  6
CENTER
 62
     1
  5
88E
 10
478.070974
 20
122.73051
 30
0.0
 11
488.988974
 21
122.73051
 31
0.0
  0
LINE
  8
0
  6
CENTER
 62
     1
  5
88F
 10
483.529974
 20
117.27151
 30
0.0
 11
483.529974
 21
128.18951
 31
0.0
  0
LINE
  8
0
  6
CENTER
 62
     1
  5
890
 10
391.029974
 20
-193.419762
 30
0.0
 11
391.029974
 21
-218.419762
 31
0.0
  0
LINE
  8
0
  6
CENTER
 62
     1
  5
891
 10
469.529974
 20
-419.055095
 30
0.0
 11
483.529974
 21
-419.055095
 31
0.0
  0
LINE
  8
0
  6
CENTER
 62
     1
  5
892
 10
476.529974
 20
-426.055095
 30
0.0
 11
476.529974
 21
-412.055095
 31
0.0
  0
LINE
  8
0
  6
CENTER
 62
     1
  5
893
 10
510.206474
 20
-419.055095
 30
0.0
 11
522.853474
 21
-419.055095
 31
0.0
  0
LINE
  8
0
  6
CENTER
 62
     1
  5
894
 10
516.529974
 20
-425.378595
 30
0.0
 11
516.529974
 21
-412.731595
 31
0.0
  0
LINE
  8
0
  6
CENTER
 62
     1
  5
895
 10
469.529974
 20
-499.055095
 30
0.0
 11
483.529974
 21
-499.055095
 31
0.0
  0
LINE
  8
0
  6
CENTER
 62
     1
  5
896
 10
476.529974
 20
-506.055095
 30
0.0
 11
476.529974
 21
-492.055095
 31
0.0
  0
LINE
  8
0
  6
CENTER
 62
     1
  5
897
 10
509.529974
 20
-499.055095
 30
0.0
 11
523.529974
 21
-499.055095
 31
0.0
  0
LINE
  8
0
  6
CENTER
 62
     1
  5
898
 10
516.529974
 20
-506.055095
 30
0.0
 11
516.529974
 21
-492.055095
 31
0.0
  0
LINE
  8
0
  6
CENTER
 62
     1
  5
899
 10
-200.793526
 20
-419.055095
 30
0.0
 11
-188.146526
 21
-419.055095
 31
0.0
  0
LINE
  8
0
  6
CENTER
 62
     1
  5
89A
 10
-194.470026
 20
-425.378595
 30
0.0
 11
-194.470026
 21
-412.731595
 31
0.0
  0
LINE
  8
0
  6
CENTER
 62
     1
  5
89B
 10
-161.470026
 20
-419.055095
 30
0.0
 11
-147.470026
 21
-419.055095
 31
0.0
  0
LINE
  8
0
  6
CENTER
 62
     1
  5
89C
 10
-154.470026
 20
-426.055095
 30
0.0
 11
-154.470026
 21
-412.055095
 31
0.0
  0
LINE
  8
0
  6
CENTER
 62
     1
  5
89D
 10
-161.470026
 20
-499.055095
 30
0.0
 11
-147.470026
 21
-499.055095
 31
0.0
  0
LINE
  8
0
  6
CENTER
 62
     1
  5
89E
 10
-154.470026
 20
-506.055095
 30
0.0
 11
-154.470026
 21
-492.055095
 31
0.0
  0
LINE
  8
0
  6
CENTER
 62
     1
  5
89F
 10
553.029974
 20
-459.055095
 30
0.0
 11
-230.970026
 21
-459.055095
 31
0.0
  0
LINE
  8
0
  6
CENTER
 62
     1
  5
8A0
 10
391.029974
 20
595.041031
 30
0.0
 11
391.029974
 21
619.041031
 31
0.0
  0
LINE
  8
0
  6
CENTER
 62
     1
  5
8A1
 10
381.408974
 20
593.041031
 30
0.0
 11
390.650974
 21
593.041031
 31
0.0
  0
LINE
  8
0
  6
CENTER
 62
     1
  5
8A2
 10
386.029974
 20
588.420031
 30
0.0
 11
386.029974
 21
597.662031
 31
0.0
  0
LINE
  8
0
  6
CENTER
 62
     1
  5
8A3
 10
419.408974
 20
593.041031
 30
0.0
 11
428.650974
 21
593.041031
 31
0.0
  0
LINE
  8
0
  6
CENTER
 62
     1
  5
8A4
 10
424.029974
 20
588.420031
 30
0.0
 11
424.029974
 21
597.662031
 31
0.0
  0
LINE
  8
0
  6
CENTER
 62
     1
  5
8A5
 10
451.408974
 20
593.041031
 30
0.0
 11
460.650974
 21
593.041031
 31
0.0
  0
LINE
  8
0
  6
CENTER
 62
     1
  5
8A6
 10
456.029974
 20
588.420031
 30
0.0
 11
456.029974
 21
597.662031
 31
0.0
  0
LINE
  8
0
  6
CENTER
 62
     1
  5
8A7
 10
349.408974
 20
593.041031
 30
0.0
 11
358.650974
 21
593.041031
 31
0.0
  0
LINE
  8
0
  6
CENTER
 62
     1
  5
8A8
 10
354.029974
 20
588.420031
 30
0.0
 11
354.029974
 21
597.662031
 31
0.0
  0
LINE
  8
0
  6
CENTER
 62
     1
  5
8A9
 10
-431.191975
 20
168.73051
 30
0.0
 11
-533.191975
 21
168.73051
 31
0.0
  0
LINE
  8
0
  6
CENTER
 62
     1
  5
8AA
 10
871.040711
 20
168.73051
 30
0.0
 11
769.040711
 21
168.73051
 31
0.0
  0
ENDSEC
  0
EOF
