  0
SECTION
  2
HEADER
  9
$ACADVER
  1
AC1009
  9
$DWGCODEPAGE
  3
ansi_1252
  9
$INSBASE
 10
0.0
 20
0.0
 30
0.0
  9
$EXTMIN
 10
-516.329943
 20
-234.911249
 30
0.0
  9
$EXTMAX
 10
971.978225
 20
547.649581
 30
5.0
  9
$LIMMIN
 10
-516.329943
 20
-234.911249
  9
$LIMMAX
 10
971.978225
 20
547.649581
  9
$ORTHOMODE
 70
     0
  9
$REGENMODE
 70
     1
  9
$FILLMODE
 70
     1
  9
$QTEXTMODE
 70
     0
  9
$MIRRTEXT
 70
     1
  9
$DRAGMODE
 70
     2
  9
$LTSCALE
 40
10.0
  9
$OSMODE
 70
     0
  9
$ATTMODE
 70
     1
  9
$TEXTSIZE
 40
0.2
  9
$TRACEWID
 40
0.05
  9
$TEXTSTYLE
  7
STANDARD
  9
$CLAYER
  8
0
  9
$CELTYPE
  6
CONTINUOUS
  9
$CECOLOR
 62
   256
  9
$DIMSCALE
 40
1.0
  9
$DIMASZ
 40
1.25
  9
$DIMEXO
 40
1.0
  9
$DIMDLI
 40
0.38
  9
$DIMRND
 40
0.0
  9
$DIMDLE
 40
0.0
  9
$DIMEXE
 40
0.75
  9
$DIMTP
 40
0.0
  9
$DIMTM
 40
0.0
  9
$DIMTXT
 40
2.5
  9
$DIMCEN
 40
0.09
  9
$DIMTSZ
 40
0.0
  9
$DIMTOL
 70
     0
  9
$DIMLIM
 70
     0
  9
$DIMTIH
 70
     0
  9
$DIMTOH
 70
     0
  9
$DIMSE1
 70
     0
  9
$DIMSE2
 70
     0
  9
$DIMTAD
 70
     1
  9
$DIMZIN
 70
     0
  9
$DIMBLK
  1

  9
$DIMASO
 70
     1
  9
$DIMSHO
 70
     1
  9
$DIMPOST
  1

  9
$DIMAPOST
  1

  9
$DIMALT
 70
     0
  9
$DIMALTD
 70
     2
  9
$DIMALTF
 40
25.4
  9
$DIMLFAC
 40
1.0
  9
$DIMTOFL
 70
     0
  9
$DIMTVP
 40
0.0
  9
$DIMTIX
 70
     0
  9
$DIMSOXD
 70
     0
  9
$DIMSAH
 70
     0
  9
$DIMBLK1
  1

  9
$DIMBLK2
  1

  9
$DIMSTYLE
  2
STANDARD
  9
$DIMCLRD
 70
     7
  9
$DIMCLRE
 70
     7
  9
$DIMCLRT
 70
     7
  9
$DIMTFAC
 40
0.8
  9
$DIMGAP
 40
1.25
  9
$LUNITS
 70
     2
  9
$LUPREC
 70
     4
  9
$AXISMODE
 70
     0
  9
$AXISUNIT
 10
0.0
 20
0.0
  9
$SKETCHINC
 40
0.1
  9
$FILLETRAD
 40
0.0
  9
$AUNITS
 70
     0
  9
$AUPREC
 70
     0
  9
$MENU
  1
acad
  9
$ELEVATION
 40
0.0
  9
$PELEVATION
 40
0.0
  9
$THICKNESS
 40
0.0
  9
$LIMCHECK
 70
     0
  9
$BLIPMODE
 70
     1
  9
$CHAMFERA
 40
0.0
  9
$CHAMFERB
 40
0.0
  9
$SKPOLY
 70
     0
  9
$TDCREATE
 40
2454266.582962963
  9
$TDUPDATE
 40
2454266.499456019
  9
$TDINDWG
 40
0.0000000000
  9
$TDUSRTIMER
 40
0.0000000000
  9
$USRTIMER
 70
     1
  9
$ANGBASE
 50
0.0
  9
$ANGDIR
 70
     0
  9
$PDMODE
 70
     0
  9
$PDSIZE
 40
0.0
  9
$PLINEWID
 40
0.0
  9
$COORDS
 70
     0
  9
$SPLFRAME
 70
     0
  9
$SPLINETYPE
 70
     6
  9
$SPLINESEGS
 70
     8
  9
$ATTDIA
 70
     0
  9
$ATTREQ
 70
     1
  9
$HANDLING
 70
     1
  9
$HANDSEED
  5
664
  9
$SURFTAB1
 70
     6
  9
$SURFTAB2
 70
     6
  9
$SURFTYPE
 70
     6
  9
$SURFU
 70
     6
  9
$SURFV
 70
     6
  9
$UCSNAME
  2

  9
$UCSORG
 10
0.0
 20
0.0
 30
0.0
  9
$UCSXDIR
 10
1.0
 20
0.0
 30
0.0
  9
$UCSYDIR
 10
0.0
 20
1.0
 30
0.0
  9
$PUCSNAME
  2

  9
$PUCSORG
 10
0.0
 20
0.0
 30
0.0
  9
$PUCSXDIR
 10
1.0
 20
0.0
 30
0.0
  9
$PUCSYDIR
 10
0.0
 20
1.0
 30
0.0
  9
$USERI1
 70
     0
  9
$USERI2
 70
     0
  9
$USERI3
 70
     0
  9
$USERI4
 70
     0
  9
$USERI5
 70
     0
  9
$USERR1
 40
0.0
  9
$USERR2
 40
0.0
  9
$USERR3
 40
0.0
  9
$USERR4
 40
0.0
  9
$USERR5
 40
0.0
  9
$WORLDVIEW
 70
     1
  9
$SHADEDGE
 70
     3
  9
$SHADEDIF
 70
    70
  9
$TILEMODE
 70
     1
  9
$MAXACTVP
 70
    16
  9
$PINSBASE
 10
0.0
 20
0.0
 30
0.0
  9
$PLIMCHECK
 70
     0
  9
$PEXTMIN
 10
1.000000E+20
 20
1.000000E+20
 30
1.000000E+20
  9
$PEXTMAX
 10
-1.000000E+20
 20
-1.000000E+20
 30
-1.000000E+20
  9
$PLIMMIN
 10
0.0
 20
0.0
  9
$PLIMMAX
 10
12.0
 20
9.0
  9
$UNITMODE
 70
     0
  9
$VISRETAIN
 70
     0
  9
$PLINEGEN
 70
     1
  9
$PSLTSCALE
 70
     0
  9
$TREEDEPTH
 70
  3020
  9
$DWGCODEPAGE
  3
ansi_1252
  0
ENDSEC
  0
SECTION
  2
TABLES
  0
TABLE
  2
VPORT
 70
     1
  0
VPORT
  2
*ACTIVE
 70
     0
 10
0.0
 20
0.0
 11
1.0
 21
1.0
 12
6.591288
 22
4.579184
 13
0.0
 23
0.0
 14
1.0
 24
1.0
 15
0.0
 25
0.0
 16
0.0
 26
0.0
 36
1.0
 17
0.0
 27
0.0
 37
0.0
 40
9.158369
 41
0.688564
 42
50.0
 43
0.0
 44
0.0
 50
0.0
 51
0.0
 71
     0
 72
   100
 73
     1
 74
     1
 75
     0
 76
     0
 77
     0
 78
     0
  0
ENDTAB
  0
TABLE
  2
LTYPE
 70
     2
  0
LTYPE
  2
CONTINUOUS
 70
    64
  3
Solid line
 72
    65
 73
     0
 40
0.0
  0
LTYPE
  2
CENTER
 70
    64
  3
____ _ ____ _ ____ _ ____ _ ____ _ ____ _ ____
 72
    65
 73
     4
 40
2.0
 49
1.25
 49
-0.25
 49
0.25
 49
-0.25
  0
ENDTAB
  0
TABLE
  2
LAYER
 70
     1
  0
LAYER
  2
0
 70
     0
 62
     7
  6
CONTINUOUS
  0
ENDTAB
  0
TABLE
  2
STYLE
 70
     1
  0
STYLE
  2
STANDARD
 70
     0
 40
0.0
 41
1.0
 50
0.0
 71
     0
 42
0.0
  3
IsonormD
  4

  0
ENDTAB
  0
TABLE
  2
VIEW
 70
     0
  0
ENDTAB
  0
TABLE
  2
UCS
 70
     0
  0
ENDTAB
  0
TABLE
  2
APPID
 70
     2
  0
APPID
  2
ACAD
 70
     0
  0
APPID
  2
TopSolid_Draft
 70
     0
  0
ENDTAB
  0
TABLE
  2
DIMSTYLE
 70
     1
  0
DIMSTYLE
  2
STANDARD
 70
     0
  3

  4

  5

  6

  7

 40
1.0
 41
1.25
 42
1.0
 43
0.38
 44
0.75
 45
0.0
 46
0.0
 47
0.0
 48
0.0
 71
     0
 72
     0
 73
     0
 74
     0
 75
     0
 76
     0
 77
     1
 78
     0
140
2.5
141
0.09
142
0.0
143
25.4
144
1.0
145
0.0
146
0.8
147
1.25
170
     0
171
     2
172
     0
173
     0
174
     0
175
     0
176
     7
177
     7
178
     7
  0
ENDTAB
  0
ENDSEC
  0
SECTION
  2
BLOCKS
  0
BLOCK
  8
0
  5
25
  2
AID3
 70
     0
 10
0.0
 20
0.0
 30
0.0
  3
#draft view
  0
LINE
  8
0
  6
CONTINUOUS
 62
     7
  5
26
 10
124.594547
 20
199.96689
 30
0.0
 11
109.594547
 21
199.96689
 31
0.0
  0
LINE
  8
0
  6
CONTINUOUS
 62
     7
  5
27
 10
124.594547
 20
204.96689
 30
0.0
 11
124.594547
 21
199.96689
 31
0.0
  0
LINE
  8
0
  6
CONTINUOUS
 62
     7
  5
28
 10
294.594547
 20
204.96689
 30
0.0
 11
294.594547
 21
199.96689
 31
0.0
  0
LINE
  8
0
  6
CONTINUOUS
 62
     7
  5
29
 10
309.594547
 20
199.96689
 30
0.0
 11
294.594547
 21
199.96689
 31
0.0
  0
LINE
  8
0
  6
CONTINUOUS
 62
     7
  5
2A
 10
109.594547
 20
191.96689
 30
0.0
 11
309.594547
 21
191.96689
 31
0.0
  0
LINE
  8
0
  6
CONTINUOUS
 62
     7
  5
2B
 10
309.594547
 20
191.96689
 30
0.0
 11
309.594547
 21
199.96689
 31
0.0
  0
LINE
  8
0
  6
CONTINUOUS
 62
     7
  5
2C
 10
109.594547
 20
191.96689
 30
0.0
 11
109.594547
 21
199.96689
 31
0.0
  0
LINE
  8
0
  6
CONTINUOUS
 62
     7
  5
2D
 10
294.594547
 20
204.96689
 30
0.0
 11
124.594547
 21
204.96689
 31
0.0
  0
LINE
  8
0
  6
CONTINUOUS
 62
     7
  5
2E
 10
109.594547
 20
148.46689
 30
0.0
 11
309.594547
 21
148.46689
 31
0.0
  0
LINE
  8
0
  6
CONTINUOUS
 62
     7
  5
2F
 10
309.594547
 20
148.46689
 30
0.0
 11
309.594547
 21
191.96689
 31
0.0
  0
LINE
  8
0
  6
CONTINUOUS
 62
     7
  5
30
 10
109.594547
 20
191.96689
 30
0.0
 11
109.594547
 21
148.46689
 31
0.0
  0
LINE
  8
0
  6
CONTINUOUS
 62
     9
  5
31
 10
302.594547
 20
204.96689
 30
0.0
 11
302.594547
 21
199.96689
 31
0.0
  0
LINE
  8
0
  6
CONTINUOUS
 62
     7
  5
32
 10
294.594547
 20
204.96689
 30
0.0
 11
302.594547
 21
204.96689
 31
0.0
  0
LINE
  8
0
  6
CONTINUOUS
 62
     9
  5
33
 10
116.594547
 20
204.96689
 30
0.0
 11
116.594547
 21
199.96689
 31
0.0
  0
LINE
  8
0
  6
CONTINUOUS
 62
     7
  5
34
 10
116.594547
 20
204.96689
 30
0.0
 11
124.594547
 21
204.96689
 31
0.0
  0
LINE
  8
0
  6
CONTINUOUS
 62
     7
  5
35
 10
109.594547
 20
204.96689
 30
0.0
 11
109.594547
 21
199.96689
 31
0.0
  0
LINE
  8
0
  6
CONTINUOUS
 62
     7
  5
36
 10
116.594547
 20
204.96689
 30
0.0
 11
109.594547
 21
204.96689
 31
0.0
  0
LINE
  8
0
  6
CONTINUOUS
 62
     7
  5
37
 10
309.594547
 20
204.96689
 30
0.0
 11
309.594547
 21
199.96689
 31
0.0
  0
LINE
  8
0
  6
CONTINUOUS
 62
     7
  5
38
 10
309.594547
 20
204.96689
 30
0.0
 11
302.594547
 21
204.96689
 31
0.0
  0
LINE
  8
0
  6
CONTINUOUS
 62
     9
  5
39
 10
312.894457
 20
178.966887
 30
0.0
 11
312.894457
 21
170.966885
 31
0.0
  0
LINE
  8
0
  6
CONTINUOUS
 62
     9
  5
3A
 10
106.294637
 20
178.966887
 30
0.0
 11
106.294637
 21
170.966885
 31
0.0
  0
POLYLINE
  8
0
  6
CONTINUOUS
 62
     7
  5
3B
 66
     1
 10
0.0
 20
0.0
 30
0.0
 40
0.1
 41
0.1
  0
VERTEX
  8
0
 62
     7
  5
3C
 10
313.345863
 20
178.941333
 30
0.0
  0
VERTEX
  8
0
 62
     7
  5
3D
 10
313.682953
 20
178.991539
 30
0.0
  0
VERTEX
  8
0
 62
     7
  5
3E
 10
314.022866
 20
179.008321
 30
0.0
  0
SEQEND
  8
0
  5
3F
  0
POLYLINE
  8
0
  6
CONTINUOUS
 62
     7
  5
40
 66
     1
 10
0.0
 20
0.0
 30
0.0
 40
0.1
 41
0.1
  0
VERTEX
  8
0
 62
     7
  5
41
 10
101.43243
 20
174.966886
 30
0.0
  0
VERTEX
  8
0
 62
     7
  5
42
 10
101.44394
 20
174.649798
 30
0.0
  0
VERTEX
  8
0
 62
     7
  5
43
 10
101.478399
 20
174.334666
 30
0.0
  0
VERTEX
  8
0
 62
     7
  5
44
 10
101.535595
 20
174.023431
 30
0.0
  0
VERTEX
  8
0
 62
     7
  5
45
 10
101.615175
 20
173.718013
 30
0.0
  0
VERTEX
  8
0
 62
     7
  5
46
 10
101.716648
 20
173.420295
 30
0.0
  0
VERTEX
  8
0
 62
     7
  5
47
 10
101.839389
 20
173.132112
 30
0.0
  0
VERTEX
  8
0
 62
     7
  5
48
 10
101.982642
 20
172.855241
 30
0.0
  0
VERTEX
  8
0
 62
     7
  5
49
 10
102.145522
 20
172.591389
 30
0.0
  0
VERTEX
  8
0
 62
     7
  5
4A
 10
102.327026
 20
172.342183
 30
0.0
  0
VERTEX
  8
0
 62
     7
  5
4B
 10
102.526034
 20
172.109159
 30
0.0
  0
VERTEX
  8
0
 62
     7
  5
4C
 10
102.74132
 20
171.893754
 30
0.0
  0
VERTEX
  8
0
 62
     7
  5
4D
 10
102.971557
 20
171.697295
 30
0.0
  0
VERTEX
  8
0
 62
     7
  5
4E
 10
103.215324
 20
171.520995
 30
0.0
  0
VERTEX
  8
0
 62
     7
  5
4F
 10
103.471119
 20
171.36594
 30
0.0
  0
VERTEX
  8
0
 62
     7
  5
50
 10
103.737366
 20
171.233086
 30
0.0
  0
VERTEX
  8
0
 62
     7
  5
51
 10
104.012421
 20
171.123252
 30
0.0
  0
VERTEX
  8
0
 62
     7
  5
52
 10
104.294591
 20
171.037115
 30
0.0
  0
VERTEX
  8
0
 62
     7
  5
53
 10
104.582134
 20
170.975206
 30
0.0
  0
VERTEX
  8
0
 62
     7
  5
54
 10
104.873278
 20
170.937908
 30
0.0
  0
VERTEX
  8
0
 62
     7
  5
55
 10
105.166229
 20
170.92545
 30
0.0
  0
SEQEND
  8
0
  5
56
  0
POLYLINE
  8
0
  6
CONTINUOUS
 62
     7
  5
57
 66
     1
 10
0.0
 20
0.0
 30
0.0
 40
0.1
 41
0.1
  0
VERTEX
  8
0
 62
     7
  5
58
 10
105.166229
 20
179.008321
 30
0.0
  0
VERTEX
  8
0
 62
     7
  5
59
 10
104.873278
 20
178.995863
 30
0.0
  0
VERTEX
  8
0
 62
     7
  5
5A
 10
104.582134
 20
178.958565
 30
0.0
  0
VERTEX
  8
0
 62
     7
  5
5B
 10
104.294591
 20
178.896656
 30
0.0
  0
VERTEX
  8
0
 62
     7
  5
5C
 10
104.012421
 20
178.810519
 30
0.0
  0
VERTEX
  8
0
 62
     7
  5
5D
 10
103.737366
 20
178.700685
 30
0.0
  0
VERTEX
  8
0
 62
     7
  5
5E
 10
103.471119
 20
178.567831
 30
0.0
  0
VERTEX
  8
0
 62
     7
  5
5F
 10
103.215324
 20
178.412776
 30
0.0
  0
VERTEX
  8
0
 62
     7
  5
60
 10
102.971557
 20
178.236476
 30
0.0
  0
VERTEX
  8
0
 62
     7
  5
61
 10
102.74132
 20
178.040018
 30
0.0
  0
VERTEX
  8
0
 62
     7
  5
62
 10
102.526034
 20
177.824612
 30
0.0
  0
VERTEX
  8
0
 62
     7
  5
63
 10
102.327026
 20
177.591588
 30
0.0
  0
VERTEX
  8
0
 62
     7
  5
64
 10
102.145522
 20
177.342382
 30
0.0
  0
VERTEX
  8
0
 62
     7
  5
65
 10
101.982642
 20
177.07853
 30
0.0
  0
VERTEX
  8
0
 62
     7
  5
66
 10
101.839389
 20
176.801659
 30
0.0
  0
VERTEX
  8
0
 62
     7
  5
67
 10
101.716648
 20
176.513476
 30
0.0
  0
VERTEX
  8
0
 62
     7
  5
68
 10
101.615175
 20
176.215758
 30
0.0
  0
VERTEX
  8
0
 62
     7
  5
69
 10
101.535595
 20
175.91034
 30
0.0
  0
VERTEX
  8
0
 62
     7
  5
6A
 10
101.478399
 20
175.599105
 30
0.0
  0
VERTEX
  8
0
 62
     7
  5
6B
 10
101.44394
 20
175.283973
 30
0.0
  0
VERTEX
  8
0
 62
     7
  5
6C
 10
101.43243
 20
174.966886
 30
0.0
  0
SEQEND
  8
0
  5
6D
  0
POLYLINE
  8
0
  6
CONTINUOUS
 62
     7
  5
6E
 66
     1
 10
0.0
 20
0.0
 30
0.0
 40
0.1
 41
0.1
  0
VERTEX
  8
0
 62
     7
  5
6F
 10
105.166229
 20
170.92545
 30
0.0
  0
VERTEX
  8
0
 62
     7
  5
70
 10
105.506142
 20
170.942232
 30
0.0
  0
VERTEX
  8
0
 62
     7
  5
71
 10
105.843232
 20
170.992438
 30
0.0
  0
SEQEND
  8
0
  5
72
  0
POLYLINE
  8
0
  6
CONTINUOUS
 62
     7
  5
73
 66
     1
 10
0.0
 20
0.0
 30
0.0
 40
0.1
 41
0.1
  0
VERTEX
  8
0
 62
     7
  5
74
 10
105.843232
 20
178.941333
 30
0.0
  0
VERTEX
  8
0
 62
     7
  5
75
 10
105.506142
 20
178.991539
 30
0.0
  0
VERTEX
  8
0
 62
     7
  5
76
 10
105.166229
 20
179.008321
 30
0.0
  0
SEQEND
  8
0
  5
77
  0
POLYLINE
  8
0
  6
CONTINUOUS
 62
     7
  5
78
 66
     1
 10
0.0
 20
0.0
 30
0.0
 40
0.1
 41
0.1
  0
VERTEX
  8
0
 62
     7
  5
79
 10
104.751598
 20
179.008321
 30
0.0
  0
VERTEX
  8
0
 62
     7
  5
7A
 10
104.458648
 20
178.995863
 30
0.0
  0
VERTEX
  8
0
 62
     7
  5
7B
 10
104.167503
 20
178.958565
 30
0.0
  0
VERTEX
  8
0
 62
     7
  5
7C
 10
103.87996
 20
178.896656
 30
0.0
  0
VERTEX
  8
0
 62
     7
  5
7D
 10
103.597791
 20
178.810519
 30
0.0
  0
VERTEX
  8
0
 62
     7
  5
7E
 10
103.322735
 20
178.700685
 30
0.0
  0
VERTEX
  8
0
 62
     7
  5
7F
 10
103.056489
 20
178.567831
 30
0.0
  0
VERTEX
  8
0
 62
     7
  5
80
 10
102.800693
 20
178.412776
 30
0.0
  0
VERTEX
  8
0
 62
     7
  5
81
 10
102.556926
 20
178.236476
 30
0.0
  0
VERTEX
  8
0
 62
     7
  5
82
 10
102.326689
 20
178.040018
 30
0.0
  0
VERTEX
  8
0
 62
     7
  5
83
 10
102.111403
 20
177.824612
 30
0.0
  0
VERTEX
  8
0
 62
     7
  5
84
 10
101.912395
 20
177.591588
 30
0.0
  0
VERTEX
  8
0
 62
     7
  5
85
 10
101.730891
 20
177.342382
 30
0.0
  0
VERTEX
  8
0
 62
     7
  5
86
 10
101.568011
 20
177.07853
 30
0.0
  0
VERTEX
  8
0
 62
     7
  5
87
 10
101.424759
 20
176.801659
 30
0.0
  0
VERTEX
  8
0
 62
     7
  5
88
 10
101.302017
 20
176.513476
 30
0.0
  0
VERTEX
  8
0
 62
     7
  5
89
 10
101.200544
 20
176.215758
 30
0.0
  0
VERTEX
  8
0
 62
     7
  5
8A
 10
101.120964
 20
175.91034
 30
0.0
  0
VERTEX
  8
0
 62
     7
  5
8B
 10
101.063768
 20
175.599105
 30
0.0
  0
VERTEX
  8
0
 62
     7
  5
8C
 10
101.029309
 20
175.283973
 30
0.0
  0
VERTEX
  8
0
 62
     7
  5
8D
 10
101.017799
 20
174.966886
 30
0.0
  0
SEQEND
  8
0
  5
8E
  0
POLYLINE
  8
0
  6
CONTINUOUS
 62
     7
  5
8F
 66
     1
 10
0.0
 20
0.0
 30
0.0
 40
0.1
 41
0.1
  0
VERTEX
  8
0
 62
     7
  5
90
 10
101.017799
 20
174.966886
 30
0.0
  0
VERTEX
  8
0
 62
     7
  5
91
 10
101.029309
 20
174.649798
 30
0.0
  0
VERTEX
  8
0
 62
     7
  5
92
 10
101.063768
 20
174.334666
 30
0.0
  0
VERTEX
  8
0
 62
     7
  5
93
 10
101.120964
 20
174.023431
 30
0.0
  0
VERTEX
  8
0
 62
     7
  5
94
 10
101.200544
 20
173.718013
 30
0.0
  0
VERTEX
  8
0
 62
     7
  5
95
 10
101.302017
 20
173.420295
 30
0.0
  0
VERTEX
  8
0
 62
     7
  5
96
 10
101.424759
 20
173.132112
 30
0.0
  0
VERTEX
  8
0
 62
     7
  5
97
 10
101.568011
 20
172.855241
 30
0.0
  0
VERTEX
  8
0
 62
     7
  5
98
 10
101.730891
 20
172.591389
 30
0.0
  0
VERTEX
  8
0
 62
     7
  5
99
 10
101.912395
 20
172.342183
 30
0.0
  0
VERTEX
  8
0
 62
     7
  5
9A
 10
102.111403
 20
172.109159
 30
0.0
  0
VERTEX
  8
0
 62
     7
  5
9B
 10
102.326689
 20
171.893754
 30
0.0
  0
VERTEX
  8
0
 62
     7
  5
9C
 10
102.556926
 20
171.697295
 30
0.0
  0
VERTEX
  8
0
 62
     7
  5
9D
 10
102.800693
 20
171.520995
 30
0.0
  0
VERTEX
  8
0
 62
     7
  5
9E
 10
103.056489
 20
171.36594
 30
0.0
  0
VERTEX
  8
0
 62
     7
  5
9F
 10
103.322735
 20
171.233086
 30
0.0
  0
VERTEX
  8
0
 62
     7
  5
A0
 10
103.597791
 20
171.123252
 30
0.0
  0
VERTEX
  8
0
 62
     7
  5
A1
 10
103.87996
 20
171.037115
 30
0.0
  0
VERTEX
  8
0
 62
     7
  5
A2
 10
104.167503
 20
170.975206
 30
0.0
  0
VERTEX
  8
0
 62
     7
  5
A3
 10
104.458648
 20
170.937908
 30
0.0
  0
VERTEX
  8
0
 62
     7
  5
A4
 10
104.751598
 20
170.92545
 30
0.0
  0
SEQEND
  8
0
  5
A5
  0
POLYLINE
  8
0
  6
CONTINUOUS
 62
     7
  5
A6
 66
     1
 10
0.0
 20
0.0
 30
0.0
 40
0.1
 41
0.1
  0
VERTEX
  8
0
 62
     7
  5
A7
 10
314.022866
 20
170.92545
 30
0.0
  0
VERTEX
  8
0
 62
     7
  5
A8
 10
313.682953
 20
170.942232
 30
0.0
  0
VERTEX
  8
0
 62
     7
  5
A9
 10
313.345863
 20
170.992438
 30
0.0
  0
SEQEND
  8
0
  5
AA
  0
POLYLINE
  8
0
  6
CONTINUOUS
 62
     7
  5
AB
 66
     1
 10
0.0
 20
0.0
 30
0.0
 40
0.1
 41
0.1
  0
VERTEX
  8
0
 62
     7
  5
AC
 10
314.022866
 20
179.008321
 30
0.0
  0
VERTEX
  8
0
 62
     7
  5
AD
 10
314.348288
 20
178.992943
 30
0.0
  0
VERTEX
  8
0
 62
     7
  5
AE
 10
314.671233
 20
178.946923
 30
0.0
  0
VERTEX
  8
0
 62
     7
  5
AF
 10
314.989244
 20
178.870613
 30
0.0
  0
VERTEX
  8
0
 62
     7
  5
B0
 10
315.299901
 20
178.764593
 30
0.0
  0
VERTEX
  8
0
 62
     7
  5
B1
 10
315.600838
 20
178.62967
 30
0.0
  0
VERTEX
  8
0
 62
     7
  5
B2
 10
315.889766
 20
178.466872
 30
0.0
  0
VERTEX
  8
0
 62
     7
  5
B3
 10
316.164485
 20
178.277436
 30
0.0
  0
VERTEX
  8
0
 62
     7
  5
B4
 10
316.422906
 20
178.062805
 30
0.0
  0
VERTEX
  8
0
 62
     7
  5
B5
 10
316.663061
 20
177.824612
 30
0.0
  0
VERTEX
  8
0
 62
     7
  5
B6
 10
316.883122
 20
177.56467
 30
0.0
  0
VERTEX
  8
0
 62
     7
  5
B7
 10
317.081415
 20
177.284958
 30
0.0
  0
VERTEX
  8
0
 62
     7
  5
B8
 10
317.256431
 20
176.987603
 30
0.0
  0
VERTEX
  8
0
 62
     7
  5
B9
 10
317.406837
 20
176.67487
 30
0.0
  0
VERTEX
  8
0
 62
     7
  5
BA
 10
317.53149
 20
176.349138
 30
0.0
  0
VERTEX
  8
0
 62
     7
  5
BB
 10
317.629439
 20
176.012886
 30
0.0
  0
VERTEX
  8
0
 62
     7
  5
BC
 10
317.69994
 20
175.668674
 30
0.0
  0
VERTEX
  8
0
 62
     7
  5
BD
 10
317.742457
 20
175.31912
 30
0.0
  0
VERTEX
  8
0
 62
     7
  5
BE
 10
317.756665
 20
174.966886
 30
0.0
  0
VERTEX
  8
0
 62
     7
  5
BF
 10
317.742457
 20
174.614651
 30
0.0
  0
VERTEX
  8
0
 62
     7
  5
C0
 10
317.69994
 20
174.265098
 30
0.0
  0
VERTEX
  8
0
 62
     7
  5
C1
 10
317.629439
 20
173.920885
 30
0.0
  0
VERTEX
  8
0
 62
     7
  5
C2
 10
317.53149
 20
173.584633
 30
0.0
  0
VERTEX
  8
0
 62
     7
  5
C3
 10
317.406837
 20
173.258901
 30
0.0
  0
VERTEX
  8
0
 62
     7
  5
C4
 10
317.256431
 20
172.946168
 30
0.0
  0
VERTEX
  8
0
 62
     7
  5
C5
 10
317.081415
 20
172.648813
 30
0.0
  0
VERTEX
  8
0
 62
     7
  5
C6
 10
316.883122
 20
172.369101
 30
0.0
  0
VERTEX
  8
0
 62
     7
  5
C7
 10
316.663061
 20
172.109159
 30
0.0
  0
VERTEX
  8
0
 62
     7
  5
C8
 10
316.422906
 20
171.870966
 30
0.0
  0
VERTEX
  8
0
 62
     7
  5
C9
 10
316.164485
 20
171.656335
 30
0.0
  0
VERTEX
  8
0
 62
     7
  5
CA
 10
315.889766
 20
171.466899
 30
0.0
  0
VERTEX
  8
0
 62
     7
  5
CB
 10
315.600838
 20
171.304101
 30
0.0
  0
VERTEX
  8
0
 62
     7
  5
CC
 10
315.299901
 20
171.169178
 30
0.0
  0
VERTEX
  8
0
 62
     7
  5
CD
 10
314.989244
 20
171.063158
 30
0.0
  0
VERTEX
  8
0
 62
     7
  5
CE
 10
314.671233
 20
170.986848
 30
0.0
  0
VERTEX
  8
0
 62
     7
  5
CF
 10
314.348288
 20
170.940829
 30
0.0
  0
VERTEX
  8
0
 62
     7
  5
D0
 10
314.022866
 20
170.92545
 30
0.0
  0
SEQEND
  8
0
  5
D1
  0
POLYLINE
  8
0
  6
CONTINUOUS
 62
     7
  5
D2
 66
     1
 10
0.0
 20
0.0
 30
0.0
 40
0.1
 41
0.1
  0
VERTEX
  8
0
 62
     7
  5
D3
 10
314.437497
 20
179.008321
 30
0.0
  0
VERTEX
  8
0
 62
     7
  5
D4
 10
314.762919
 20
178.992943
 30
0.0
  0
VERTEX
  8
0
 62
     7
  5
D5
 10
315.085864
 20
178.946923
 30
0.0
  0
VERTEX
  8
0
 62
     7
  5
D6
 10
315.403875
 20
178.870613
 30
0.0
  0
VERTEX
  8
0
 62
     7
  5
D7
 10
315.714531
 20
178.764593
 30
0.0
  0
VERTEX
  8
0
 62
     7
  5
D8
 10
316.015468
 20
178.62967
 30
0.0
  0
VERTEX
  8
0
 62
     7
  5
D9
 10
316.304396
 20
178.466872
 30
0.0
  0
VERTEX
  8
0
 62
     7
  5
DA
 10
316.579116
 20
178.277436
 30
0.0
  0
VERTEX
  8
0
 62
     7
  5
DB
 10
316.837536
 20
178.062805
 30
0.0
  0
VERTEX
  8
0
 62
     7
  5
DC
 10
317.077691
 20
177.824612
 30
0.0
  0
VERTEX
  8
0
 62
     7
  5
DD
 10
317.297753
 20
177.56467
 30
0.0
  0
VERTEX
  8
0
 62
     7
  5
DE
 10
317.496046
 20
177.284958
 30
0.0
  0
VERTEX
  8
0
 62
     7
  5
DF
 10
317.671062
 20
176.987603
 30
0.0
  0
VERTEX
  8
0
 62
     7
  5
E0
 10
317.821468
 20
176.67487
 30
0.0
  0
VERTEX
  8
0
 62
     7
  5
E1
 10
317.94612
 20
176.349138
 30
0.0
  0
VERTEX
  8
0
 62
     7
  5
E2
 10
318.04407
 20
176.012886
 30
0.0
  0
VERTEX
  8
0
 62
     7
  5
E3
 10
318.114571
 20
175.668674
 30
0.0
  0
VERTEX
  8
0
 62
     7
  5
E4
 10
318.157088
 20
175.31912
 30
0.0
  0
VERTEX
  8
0
 62
     7
  5
E5
 10
318.171296
 20
174.966886
 30
0.0
  0
VERTEX
  8
0
 62
     7
  5
E6
 10
318.157088
 20
174.614651
 30
0.0
  0
VERTEX
  8
0
 62
     7
  5
E7
 10
318.114571
 20
174.265098
 30
0.0
  0
VERTEX
  8
0
 62
     7
  5
E8
 10
318.04407
 20
173.920885
 30
0.0
  0
VERTEX
  8
0
 62
     7
  5
E9
 10
317.94612
 20
173.584633
 30
0.0
  0
VERTEX
  8
0
 62
     7
  5
EA
 10
317.821468
 20
173.258901
 30
0.0
  0
VERTEX
  8
0
 62
     7
  5
EB
 10
317.671062
 20
172.946168
 30
0.0
  0
VERTEX
  8
0
 62
     7
  5
EC
 10
317.496046
 20
172.648813
 30
0.0
  0
VERTEX
  8
0
 62
     7
  5
ED
 10
317.297753
 20
172.369101
 30
0.0
  0
VERTEX
  8
0
 62
     7
  5
EE
 10
317.077691
 20
172.109159
 30
0.0
  0
VERTEX
  8
0
 62
     7
  5
EF
 10
316.837536
 20
171.870966
 30
0.0
  0
VERTEX
  8
0
 62
     7
  5
F0
 10
316.579116
 20
171.656335
 30
0.0
  0
VERTEX
  8
0
 62
     7
  5
F1
 10
316.304396
 20
171.466899
 30
0.0
  0
VERTEX
  8
0
 62
     7
  5
F2
 10
316.015468
 20
171.304101
 30
0.0
  0
VERTEX
  8
0
 62
     7
  5
F3
 10
315.714531
 20
171.169178
 30
0.0
  0
VERTEX
  8
0
 62
     7
  5
F4
 10
315.403875
 20
171.063158
 30
0.0
  0
VERTEX
  8
0
 62
     7
  5
F5
 10
315.085864
 20
170.986848
 30
0.0
  0
VERTEX
  8
0
 62
     7
  5
F6
 10
314.762919
 20
170.940829
 30
0.0
  0
VERTEX
  8
0
 62
     7
  5
F7
 10
314.437497
 20
170.92545
 30
0.0
  0
SEQEND
  8
0
  5
F8
  0
POLYLINE
  8
0
  6
CONTINUOUS
 62
     7
  5
F9
 66
     1
 10
0.0
 20
0.0
 30
0.0
 40
0.1
 41
0.1
  0
VERTEX
  8
0
 62
     7
  5
FA
 10
316.780988
 20
178.11315
 30
0.0
  0
VERTEX
  8
0
 62
     7
  5
FB
 10
317.006377
 20
178.025269
 30
0.0
  0
VERTEX
  8
0
 62
     7
  5
FC
 10
317.224694
 20
177.918505
 30
0.0
  0
VERTEX
  8
0
 62
     7
  5
FD
 10
317.434594
 20
177.793517
 30
0.0
  0
VERTEX
  8
0
 62
     7
  5
FE
 10
317.634778
 20
177.651076
 30
0.0
  0
VERTEX
  8
0
 62
     7
  5
FF
 10
317.824012
 20
177.492062
 30
0.0
  0
VERTEX
  8
0
 62
     7
  5
100
 10
318.001128
 20
177.317457
 30
0.0
  0
VERTEX
  8
0
 62
     7
  5
101
 10
318.16503
 20
177.128339
 30
0.0
  0
VERTEX
  8
0
 62
     7
  5
102
 10
318.314708
 20
176.925875
 30
0.0
  0
SEQEND
  8
0
  5
103
  0
POLYLINE
  8
0
  6
CONTINUOUS
 62
     7
  5
104
 66
     1
 10
0.0
 20
0.0
 30
0.0
 40
0.1
 41
0.1
  0
VERTEX
  8
0
 62
     7
  5
105
 10
102.408107
 20
178.11315
 30
0.0
  0
VERTEX
  8
0
 62
     7
  5
106
 10
102.182718
 20
178.025269
 30
0.0
  0
VERTEX
  8
0
 62
     7
  5
107
 10
101.9644
 20
177.918505
 30
0.0
  0
VERTEX
  8
0
 62
     7
  5
108
 10
101.754501
 20
177.793517
 30
0.0
  0
VERTEX
  8
0
 62
     7
  5
109
 10
101.554316
 20
177.651076
 30
0.0
  0
VERTEX
  8
0
 62
     7
  5
10A
 10
101.365082
 20
177.492062
 30
0.0
  0
VERTEX
  8
0
 62
     7
  5
10B
 10
101.187967
 20
177.317457
 30
0.0
  0
VERTEX
  8
0
 62
     7
  5
10C
 10
101.024064
 20
177.128339
 30
0.0
  0
VERTEX
  8
0
 62
     7
  5
10D
 10
100.874386
 20
176.925875
 30
0.0
  0
SEQEND
  8
0
  5
10E
  0
POLYLINE
  8
0
  6
CONTINUOUS
 62
     7
  5
10F
 66
     1
 10
0.0
 20
0.0
 30
0.0
 40
0.1
 41
0.1
  0
VERTEX
  8
0
 62
     7
  5
110
 10
100.279068
 20
174.966886
 30
0.0
  0
VERTEX
  8
0
 62
     7
  5
111
 10
100.288685
 20
174.70499
 30
0.0
  0
VERTEX
  8
0
 62
     7
  5
112
 10
100.317473
 20
174.444747
 30
0.0
  0
VERTEX
  8
0
 62
     7
  5
113
 10
100.365252
 20
174.187798
 30
0.0
  0
VERTEX
  8
0
 62
     7
  5
114
 10
100.431719
 20
173.935763
 30
0.0
  0
VERTEX
  8
0
 62
     7
  5
115
 10
100.516457
 20
173.690233
 30
0.0
  0
VERTEX
  8
0
 62
     7
  5
116
 10
100.618929
 20
173.452757
 30
0.0
  0
VERTEX
  8
0
 62
     7
  5
117
 10
100.738491
 20
173.224832
 30
0.0
  0
VERTEX
  8
0
 62
     7
  5
118
 10
100.874386
 20
173.007896
 30
0.0
  0
SEQEND
  8
0
  5
119
  0
POLYLINE
  8
0
  6
CONTINUOUS
 62
     7
  5
11A
 66
     1
 10
0.0
 20
0.0
 30
0.0
 40
0.1
 41
0.1
  0
VERTEX
  8
0
 62
     7
  5
11B
 10
318.314708
 20
173.007896
 30
0.0
  0
VERTEX
  8
0
 62
     7
  5
11C
 10
318.16503
 20
172.805432
 30
0.0
  0
VERTEX
  8
0
 62
     7
  5
11D
 10
318.001128
 20
172.616314
 30
0.0
  0
VERTEX
  8
0
 62
     7
  5
11E
 10
317.824012
 20
172.441709
 30
0.0
  0
VERTEX
  8
0
 62
     7
  5
11F
 10
317.634778
 20
172.282695
 30
0.0
  0
VERTEX
  8
0
 62
     7
  5
120
 10
317.434594
 20
172.140255
 30
0.0
  0
VERTEX
  8
0
 62
     7
  5
121
 10
317.224694
 20
172.015266
 30
0.0
  0
VERTEX
  8
0
 62
     7
  5
122
 10
317.006377
 20
171.908502
 30
0.0
  0
VERTEX
  8
0
 62
     7
  5
123
 10
316.780988
 20
171.820621
 30
0.0
  0
SEQEND
  8
0
  5
124
  0
POLYLINE
  8
0
  6
CONTINUOUS
 62
     7
  5
125
 66
     1
 10
0.0
 20
0.0
 30
0.0
 40
0.1
 41
0.1
  0
VERTEX
  8
0
 62
     7
  5
126
 10
318.314708
 20
176.925875
 30
0.0
  0
VERTEX
  8
0
 62
     7
  5
127
 10
318.450604
 20
176.70894
 30
0.0
  0
VERTEX
  8
0
 62
     7
  5
128
 10
318.570165
 20
176.481014
 30
0.0
  0
VERTEX
  8
0
 62
     7
  5
129
 10
318.672638
 20
176.243538
 30
0.0
  0
VERTEX
  8
0
 62
     7
  5
12A
 10
318.757375
 20
175.998008
 30
0.0
  0
VERTEX
  8
0
 62
     7
  5
12B
 10
318.823843
 20
175.745973
 30
0.0
  0
VERTEX
  8
0
 62
     7
  5
12C
 10
318.871622
 20
175.489024
 30
0.0
  0
VERTEX
  8
0
 62
     7
  5
12D
 10
318.90041
 20
175.228781
 30
0.0
  0
VERTEX
  8
0
 62
     7
  5
12E
 10
318.910026
 20
174.966886
 30
0.0
  0
VERTEX
  8
0
 62
     7
  5
12F
 10
318.90041
 20
174.70499
 30
0.0
  0
VERTEX
  8
0
 62
     7
  5
130
 10
318.871622
 20
174.444747
 30
0.0
  0
VERTEX
  8
0
 62
     7
  5
131
 10
318.823843
 20
174.187798
 30
0.0
  0
VERTEX
  8
0
 62
     7
  5
132
 10
318.757375
 20
173.935763
 30
0.0
  0
VERTEX
  8
0
 62
     7
  5
133
 10
318.672638
 20
173.690233
 30
0.0
  0
VERTEX
  8
0
 62
     7
  5
134
 10
318.570165
 20
173.452757
 30
0.0
  0
VERTEX
  8
0
 62
     7
  5
135
 10
318.450604
 20
173.224832
 30
0.0
  0
VERTEX
  8
0
 62
     7
  5
136
 10
318.314708
 20
173.007896
 30
0.0
  0
SEQEND
  8
0
  5
137
  0
POLYLINE
  8
0
  6
CONTINUOUS
 62
     7
  5
138
 66
     1
 10
0.0
 20
0.0
 30
0.0
 40
0.1
 41
0.1
  0
VERTEX
  8
0
 62
     7
  5
139
 10
318.678829
 20
176.391596
 30
0.0
  0
VERTEX
  8
0
 62
     7
  5
13A
 10
318.777661
 20
176.233825
 30
0.0
  0
VERTEX
  8
0
 62
     7
  5
13B
 10
318.864614
 20
176.068063
 30
0.0
  0
VERTEX
  8
0
 62
     7
  5
13C
 10
318.939139
 20
175.895354
 30
0.0
  0
VERTEX
  8
0
 62
     7
  5
13D
 10
319.000766
 20
175.716787
 30
0.0
  0
VERTEX
  8
0
 62
     7
  5
13E
 10
319.049106
 20
175.533491
 30
0.0
  0
VERTEX
  8
0
 62
     7
  5
13F
 10
319.083854
 20
175.34662
 30
0.0
  0
VERTEX
  8
0
 62
     7
  5
140
 10
319.104791
 20
175.157353
 30
0.0
  0
VERTEX
  8
0
 62
     7
  5
141
 10
319.111784
 20
174.966886
 30
0.0
  0
SEQEND
  8
0
  5
142
  0
POLYLINE
  8
0
  6
CONTINUOUS
 62
     7
  5
143
 66
     1
 10
0.0
 20
0.0
 30
0.0
 40
0.1
 41
0.1
  0
VERTEX
  8
0
 62
     7
  5
144
 10
319.111784
 20
174.966886
 30
0.0
  0
VERTEX
  8
0
 62
     7
  5
145
 10
319.104791
 20
174.776418
 30
0.0
  0
VERTEX
  8
0
 62
     7
  5
146
 10
319.083854
 20
174.587151
 30
0.0
  0
VERTEX
  8
0
 62
     7
  5
147
 10
319.049106
 20
174.40028
 30
0.0
  0
VERTEX
  8
0
 62
     7
  5
148
 10
319.000766
 20
174.216984
 30
0.0
  0
VERTEX
  8
0
 62
     7
  5
149
 10
318.939139
 20
174.038418
 30
0.0
  0
VERTEX
  8
0
 62
     7
  5
14A
 10
318.864614
 20
173.865708
 30
0.0
  0
VERTEX
  8
0
 62
     7
  5
14B
 10
318.777661
 20
173.699946
 30
0.0
  0
VERTEX
  8
0
 62
     7
  5
14C
 10
318.678829
 20
173.542175
 30
0.0
  0
SEQEND
  8
0
  5
14D
  0
POLYLINE
  8
0
  6
CONTINUOUS
 62
     7
  5
14E
 66
     1
 10
0.0
 20
0.0
 30
0.0
 40
0.1
 41
0.1
  0
VERTEX
  8
0
 62
     7
  5
14F
 10
100.874386
 20
176.925875
 30
0.0
  0
VERTEX
  8
0
 62
     7
  5
150
 10
100.738491
 20
176.70894
 30
0.0
  0
VERTEX
  8
0
 62
     7
  5
151
 10
100.618929
 20
176.481014
 30
0.0
  0
VERTEX
  8
0
 62
     7
  5
152
 10
100.516457
 20
176.243538
 30
0.0
  0
VERTEX
  8
0
 62
     7
  5
153
 10
100.431719
 20
175.998008
 30
0.0
  0
VERTEX
  8
0
 62
     7
  5
154
 10
100.365252
 20
175.745973
 30
0.0
  0
VERTEX
  8
0
 62
     7
  5
155
 10
100.317473
 20
175.489024
 30
0.0
  0
VERTEX
  8
0
 62
     7
  5
156
 10
100.288685
 20
175.228781
 30
0.0
  0
VERTEX
  8
0
 62
     7
  5
157
 10
100.279068
 20
174.966886
 30
0.0
  0
SEQEND
  8
0
  5
158
  0
POLYLINE
  8
0
  6
CONTINUOUS
 62
     7
  5
159
 66
     1
 10
0.0
 20
0.0
 30
0.0
 40
0.1
 41
0.1
  0
VERTEX
  8
0
 62
     7
  5
15A
 10
100.874386
 20
173.007896
 30
0.0
  0
VERTEX
  8
0
 62
     7
  5
15B
 10
101.024064
 20
172.805432
 30
0.0
  0
VERTEX
  8
0
 62
     7
  5
15C
 10
101.187967
 20
172.616314
 30
0.0
  0
VERTEX
  8
0
 62
     7
  5
15D
 10
101.365082
 20
172.441709
 30
0.0
  0
VERTEX
  8
0
 62
     7
  5
15E
 10
101.554316
 20
172.282695
 30
0.0
  0
VERTEX
  8
0
 62
     7
  5
15F
 10
101.754501
 20
172.140255
 30
0.0
  0
VERTEX
  8
0
 62
     7
  5
160
 10
101.9644
 20
172.015266
 30
0.0
  0
VERTEX
  8
0
 62
     7
  5
161
 10
102.182718
 20
171.908502
 30
0.0
  0
VERTEX
  8
0
 62
     7
  5
162
 10
102.408107
 20
171.820621
 30
0.0
  0
SEQEND
  8
0
  5
163
  0
POLYLINE
  8
0
  6
CONTINUOUS
 62
     7
  5
164
 66
     1
 10
0.0
 20
0.0
 30
0.0
 40
0.1
 41
0.1
  0
VERTEX
  8
0
 62
     7
  5
165
 10
100.510266
 20
176.391596
 30
0.0
  0
VERTEX
  8
0
 62
     7
  5
166
 10
100.411433
 20
176.233825
 30
0.0
  0
VERTEX
  8
0
 62
     7
  5
167
 10
100.32448
 20
176.068063
 30
0.0
  0
VERTEX
  8
0
 62
     7
  5
168
 10
100.249955
 20
175.895354
 30
0.0
  0
VERTEX
  8
0
 62
     7
  5
169
 10
100.188329
 20
175.716787
 30
0.0
  0
VERTEX
  8
0
 62
     7
  5
16A
 10
100.139989
 20
175.533491
 30
0.0
  0
VERTEX
  8
0
 62
     7
  5
16B
 10
100.105241
 20
175.34662
 30
0.0
  0
VERTEX
  8
0
 62
     7
  5
16C
 10
100.084304
 20
175.157353
 30
0.0
  0
VERTEX
  8
0
 62
     7
  5
16D
 10
100.07731
 20
174.966886
 30
0.0
  0
VERTEX
  8
0
 62
     7
  5
16E
 10
100.084304
 20
174.776418
 30
0.0
  0
VERTEX
  8
0
 62
     7
  5
16F
 10
100.105241
 20
174.587151
 30
0.0
  0
VERTEX
  8
0
 62
     7
  5
170
 10
100.139989
 20
174.40028
 30
0.0
  0
VERTEX
  8
0
 62
     7
  5
171
 10
100.188329
 20
174.216984
 30
0.0
  0
VERTEX
  8
0
 62
     7
  5
172
 10
100.249955
 20
174.038418
 30
0.0
  0
VERTEX
  8
0
 62
     7
  5
173
 10
100.32448
 20
173.865708
 30
0.0
  0
VERTEX
  8
0
 62
     7
  5
174
 10
100.411433
 20
173.699946
 30
0.0
  0
VERTEX
  8
0
 62
     7
  5
175
 10
100.510266
 20
173.542175
 30
0.0
  0
SEQEND
  8
0
  5
176
  0
LINE
  8
0
  6
CONTINUOUS
 62
     9
  5
177
 10
-258.405453
 20
105.96689
 30
0.0
 11
-258.405453
 21
107.96689
 31
0.0
  0
LINE
  8
0
  6
CONTINUOUS
 62
     9
  5
178
 10
-258.405453
 20
107.96689
 30
0.0
 11
677.594547
 21
107.96689
 31
0.0
  0
LINE
  8
0
  6
CONTINUOUS
 62
     9
  5
179
 10
677.594547
 20
105.96689
 30
0.0
 11
677.594547
 21
107.96689
 31
0.0
  0
LINE
  8
0
  6
CONTINUOUS
 62
     7
  5
17A
 10
677.594547
 20
105.96689
 30
0.0
 11
-258.405453
 21
105.96689
 31
0.0
  0
ARC
  8
0
  6
CONTINUOUS
 62
     7
  5
17B
 10
677.594547
 20
143.96689
 30
0.0
 40
2.0
 50
360.0
 51
90.0
210
0.0
220
0.0
230
1.0
  0
LINE
  8
0
  6
CONTINUOUS
 62
     9
  5
17C
 10
677.594547
 20
143.96689
 30
0.0
 11
679.594547
 21
143.96689
 31
0.0
  0
LINE
  8
0
  6
CONTINUOUS
 62
     9
  5
17D
 10
677.594547
 20
143.96689
 30
0.0
 11
677.594547
 21
145.96689
 31
0.0
  0
LINE
  8
0
  6
CONTINUOUS
 62
     9
  5
17E
 10
677.594547
 20
107.96689
 30
0.0
 11
679.594547
 21
107.96689
 31
0.0
  0
ARC
  8
0
  6
CONTINUOUS
 62
     7
  5
17F
 10
677.594547
 20
107.96689
 30
0.0
 40
2.0
 50
270.0
 51
360.0
210
0.0
220
0.0
230
1.0
  0
LINE
  8
0
  6
CONTINUOUS
 62
     9
  5
180
 10
-258.405453
 20
143.96689
 30
0.0
 11
-260.405453
 21
143.96689
 31
0.0
  0
ARC
  8
0
  6
CONTINUOUS
 62
     7
  5
181
 10
-258.405453
 20
143.96689
 30
0.0
 40
2.0
 50
90.0
 51
180.0
210
0.0
220
0.0
230
1.0
  0
LINE
  8
0
  6
CONTINUOUS
 62
     9
  5
182
 10
-258.405453
 20
143.96689
 30
0.0
 11
-258.405453
 21
145.96689
 31
0.0
  0
LINE
  8
0
  6
CONTINUOUS
 62
     9
  5
183
 10
677.594547
 20
107.96689
 30
0.0
 11
677.594547
 21
143.96689
 31
0.0
  0
LINE
  8
0
  6
CONTINUOUS
 62
     7
  5
184
 10
679.594547
 20
143.96689
 30
0.0
 11
679.594547
 21
107.96689
 31
0.0
  0
ARC
  8
0
  6
CONTINUOUS
 62
     7
  5
185
 10
-258.405453
 20
107.96689
 30
0.0
 40
2.0
 50
180.0
 51
270.0
210
0.0
220
0.0
230
1.0
  0
LINE
  8
0
  6
CONTINUOUS
 62
     9
  5
186
 10
-258.405453
 20
107.96689
 30
0.0
 11
-260.405453
 21
107.96689
 31
0.0
  0
LINE
  8
0
  6
CONTINUOUS
 62
     7
  5
187
 10
-260.405453
 20
143.96689
 30
0.0
 11
-260.405453
 21
107.96689
 31
0.0
  0
LINE
  8
0
  6
CONTINUOUS
 62
     9
  5
188
 10
-258.405453
 20
107.96689
 30
0.0
 11
-258.405453
 21
143.96689
 31
0.0
  0
LINE
  8
0
  6
CONTINUOUS
 62
     7
  5
189
 10
-258.405453
 20
145.96689
 30
0.0
 11
677.594547
 21
145.96689
 31
0.0
  0
LINE
  8
0
  6
CONTINUOUS
 62
     9
  5
18A
 10
677.594547
 20
143.96689
 30
0.0
 11
-258.405453
 21
143.96689
 31
0.0
  0
LINE
  8
0
  6
CONTINUOUS
 62
     7
  5
18B
 10
675.594547
 20
130.06689
 30
0.0
 11
675.594547
 21
121.86689
 31
0.0
  0
LINE
  8
0
  6
CONTINUOUS
 62
     7
  5
18C
 10
675.594547
 20
130.06689
 30
0.0
 11
-256.405453
 21
130.06689
 31
0.0
  0
LINE
  8
0
  6
CONTINUOUS
 62
     7
  5
18D
 10
-256.405453
 20
130.06689
 30
0.0
 11
-256.405453
 21
121.86689
 31
0.0
  0
LINE
  8
0
  6
CONTINUOUS
 62
     7
  5
18E
 10
675.594547
 20
121.86689
 30
0.0
 11
-256.405453
 21
121.86689
 31
0.0
  0
LINE
  8
0
  6
CONTINUOUS
 62
     7
  5
18F
 10
-254.405453
 20
182.96689
 30
0.0
 11
-240.405453
 21
182.96689
 31
0.0
  0
LINE
  8
0
  6
CONTINUOUS
 62
     7
  5
190
 10
-240.405453
 20
182.96689
 30
0.0
 11
-240.405453
 21
160.96689
 31
0.0
  0
LINE
  8
0
  6
CONTINUOUS
 62
     7
  5
191
 10
-240.405453
 20
160.96689
 30
0.0
 11
-254.405453
 21
160.96689
 31
0.0
  0
LINE
  8
0
  6
CONTINUOUS
 62
     7
  5
192
 10
-254.405453
 20
160.96689
 30
0.0
 11
-254.405453
 21
182.96689
 31
0.0
  0
LINE
  8
0
  6
CONTINUOUS
 62
     7
  5
193
 10
659.594547
 20
160.96689
 30
0.0
 11
673.594547
 21
160.96689
 31
0.0
  0
LINE
  8
0
  6
CONTINUOUS
 62
     7
  5
194
 10
673.594547
 20
182.96689
 30
0.0
 11
659.594547
 21
182.96689
 31
0.0
  0
LINE
  8
0
  6
CONTINUOUS
 62
     7
  5
195
 10
659.594547
 20
182.96689
 30
0.0
 11
659.594547
 21
160.96689
 31
0.0
  0
LINE
  8
0
  6
CONTINUOUS
 62
     7
  5
196
 10
673.594547
 20
160.96689
 30
0.0
 11
673.594547
 21
182.96689
 31
0.0
  0
LINE
  8
0
  6
CONTINUOUS
 62
     7
  5
197
 10
-254.405453
 20
160.96689
 30
0.0
 11
-254.405453
 21
145.96689
 31
0.0
  0
LINE
  8
0
  6
CONTINUOUS
 62
     7
  5
198
 10
-240.405453
 20
160.96689
 30
0.0
 11
-240.405453
 21
145.96689
 31
0.0
  0
LINE
  8
0
  6
CONTINUOUS
 62
     7
  5
199
 10
659.594547
 20
160.96689
 30
0.0
 11
659.594547
 21
145.96689
 31
0.0
  0
LINE
  8
0
  6
CONTINUOUS
 62
     7
  5
19A
 10
673.594547
 20
160.96689
 30
0.0
 11
673.594547
 21
145.96689
 31
0.0
  0
LINE
  8
0
  6
CONTINUOUS
 62
     7
  5
19B
 10
-195.905453
 20
157.96689
 30
0.0
 11
-195.905453
 21
145.96689
 31
0.0
  0
LINE
  8
0
  6
CONTINUOUS
 62
     7
  5
19C
 10
-171.905453
 20
157.96689
 30
0.0
 11
-195.905453
 21
157.96689
 31
0.0
  0
LINE
  8
0
  6
CONTINUOUS
 62
     7
  5
19D
 10
-171.905453
 20
157.96689
 30
0.0
 11
-171.905453
 21
145.96689
 31
0.0
  0
LINE
  8
0
  6
CONTINUOUS
 62
     7
  5
19E
 10
-195.905453
 20
160.96689
 30
0.0
 11
-171.905453
 21
160.96689
 31
0.0
  0
LINE
  8
0
  6
CONTINUOUS
 62
     7
  5
19F
 10
-171.905453
 20
160.96689
 30
0.0
 11
-171.905453
 21
157.96689
 31
0.0
  0
LINE
  8
0
  6
CONTINUOUS
 62
     7
  5
1A0
 10
-195.905453
 20
157.96689
 30
0.0
 11
-195.905453
 21
160.96689
 31
0.0
  0
LINE
  8
0
  6
CONTINUOUS
 62
     7
  5
1A1
 10
591.094547
 20
157.96689
 30
0.0
 11
615.094547
 21
157.96689
 31
0.0
  0
LINE
  8
0
  6
CONTINUOUS
 62
     7
  5
1A2
 10
591.094547
 20
160.96689
 30
0.0
 11
591.094547
 21
157.96689
 31
0.0
  0
LINE
  8
0
  6
CONTINUOUS
 62
     7
  5
1A3
 10
615.094547
 20
160.96689
 30
0.0
 11
591.094547
 21
160.96689
 31
0.0
  0
LINE
  8
0
  6
CONTINUOUS
 62
     7
  5
1A4
 10
615.094547
 20
157.96689
 30
0.0
 11
615.094547
 21
160.96689
 31
0.0
  0
LINE
  8
0
  6
CONTINUOUS
 62
     7
  5
1A5
 10
591.094547
 20
157.96689
 30
0.0
 11
591.094547
 21
145.96689
 31
0.0
  0
LINE
  8
0
  6
CONTINUOUS
 62
     7
  5
1A6
 10
615.094547
 20
157.96689
 30
0.0
 11
615.094547
 21
145.96689
 31
0.0
  0
LINE
  8
0
  6
CONTINUOUS
 62
     7
  5
1A7
 10
-165.905453
 20
158.96689
 30
0.0
 11
-165.905453
 21
146.96689
 31
0.0
  0
LINE
  8
0
  6
CONTINUOUS
 62
     7
  5
1A8
 10
585.094547
 20
158.96689
 30
0.0
 11
585.094547
 21
146.96689
 31
0.0
  0
LINE
  8
0
  6
CONTINUOUS
 62
     7
  5
1A9
 10
609.594547
 20
161.73079
 30
0.0
 11
309.594547
 21
161.73079
 31
0.0
  0
LINE
  8
0
  6
CONTINUOUS
 62
     7
  5
1AA
 10
109.594547
 20
161.73079
 30
0.0
 11
-190.405453
 21
161.73079
 31
0.0
  0
LINE
  8
0
  6
CONTINUOUS
 62
     7
  5
1AB
 10
609.594547
 20
161.43199
 30
0.0
 11
309.594547
 21
161.43199
 31
0.0
  0
LINE
  8
0
  6
CONTINUOUS
 62
     7
  5
1AC
 10
109.594547
 20
161.43199
 30
0.0
 11
-190.405453
 21
161.43199
 31
0.0
  0
LINE
  8
0
  6
CONTINUOUS
 62
     7
  5
1AD
 10
-190.405453
 20
161.43199
 30
0.0
 11
-190.405453
 21
161.73079
 31
0.0
  0
LINE
  8
0
  6
CONTINUOUS
 62
     7
  5
1AE
 10
609.594547
 20
161.43199
 30
0.0
 11
609.594547
 21
161.73079
 31
0.0
  0
LINE
  8
0
  6
CONTINUOUS
 62
     7
  5
1AF
 10
609.594547
 20
163.71103
 30
0.0
 11
309.594547
 21
163.71103
 31
0.0
  0
LINE
  8
0
  6
CONTINUOUS
 62
     7
  5
1B0
 10
109.594547
 20
163.71103
 30
0.0
 11
-190.405453
 21
163.71103
 31
0.0
  0
LINE
  8
0
  6
CONTINUOUS
 62
     7
  5
1B1
 10
-190.405453
 20
161.73079
 30
0.0
 11
-190.405453
 21
163.71103
 31
0.0
  0
LINE
  8
0
  6
CONTINUOUS
 62
     7
  5
1B2
 10
609.594547
 20
161.73079
 30
0.0
 11
609.594547
 21
163.71103
 31
0.0
  0
LINE
  8
0
  6
CONTINUOUS
 62
     7
  5
1B3
 10
609.594547
 20
164.00146
 30
0.0
 11
309.594547
 21
164.00146
 31
0.0
  0
LINE
  8
0
  6
CONTINUOUS
 62
     7
  5
1B4
 10
109.594547
 20
164.00146
 30
0.0
 11
-190.405453
 21
164.00146
 31
0.0
  0
LINE
  8
0
  6
CONTINUOUS
 62
     7
  5
1B5
 10
-190.405453
 20
163.71103
 30
0.0
 11
-190.405453
 21
164.00146
 31
0.0
  0
LINE
  8
0
  6
CONTINUOUS
 62
     7
  5
1B6
 10
609.594547
 20
163.71103
 30
0.0
 11
609.594547
 21
164.00146
 31
0.0
  0
LINE
  8
0
  6
CONTINUOUS
 62
     7
  5
1B7
 10
585.094547
 20
153.766914
 30
0.0
 11
309.594547
 21
153.766914
 31
0.0
  0
LINE
  8
0
  6
CONTINUOUS
 62
     7
  5
1B8
 10
109.594547
 20
153.766914
 30
0.0
 11
-165.905453
 21
153.766914
 31
0.0
  0
LINE
  8
0
  6
CONTINUOUS
 62
     7
  5
1B9
 10
585.094547
 20
151.066922
 30
0.0
 11
309.594547
 21
151.066922
 31
0.0
  0
LINE
  8
0
  6
CONTINUOUS
 62
     7
  5
1BA
 10
109.594547
 20
151.066922
 30
0.0
 11
-165.905453
 21
151.066922
 31
0.0
  0
LINE
  8
0
  6
CONTINUOUS
 62
     7
  5
1BB
 10
585.094547
 20
147.166908
 30
0.0
 11
-165.905453
 21
147.166908
 31
0.0
  0
LINE
  8
0
  6
CONTINUOUS
 62
     7
  5
1BC
 10
591.094547
 20
159.658544
 30
0.0
 11
309.594547
 21
159.658544
 31
0.0
  0
LINE
  8
0
  6
CONTINUOUS
 62
     7
  5
1BD
 10
109.594547
 20
159.658544
 30
0.0
 11
-171.905453
 21
159.658544
 31
0.0
  0
LINE
  8
0
  6
CONTINUOUS
 62
     7
  5
1BE
 10
-190.405453
 20
161.43199
 30
0.0
 11
-190.405453
 21
160.96689
 31
0.0
  0
LINE
  8
0
  6
CONTINUOUS
 62
     7
  5
1BF
 10
609.594547
 20
161.43199
 30
0.0
 11
609.594547
 21
160.96689
 31
0.0
  0
LINE
  8
0
  6
CONTINUOUS
 62
     7
  5
1C0
 10
609.594547
 20
165.714018
 30
0.0
 11
309.594547
 21
165.714018
 31
0.0
  0
LINE
  8
0
  6
CONTINUOUS
 62
     7
  5
1C1
 10
109.594547
 20
165.714018
 30
0.0
 11
-190.405453
 21
165.714018
 31
0.0
  0
LINE
  8
0
  6
CONTINUOUS
 62
     7
  5
1C2
 10
-190.405453
 20
165.714018
 30
0.0
 11
-190.405453
 21
164.00146
 31
0.0
  0
LINE
  8
0
  6
CONTINUOUS
 62
     7
  5
1C3
 10
609.594547
 20
165.714018
 30
0.0
 11
609.594547
 21
164.00146
 31
0.0
  0
LINE
  8
0
  6
CONTINUOUS
 62
     7
  5
1C4
 10
609.594547
 20
165.966888
 30
0.0
 11
309.594547
 21
165.966888
 31
0.0
  0
LINE
  8
0
  6
CONTINUOUS
 62
     7
  5
1C5
 10
109.594547
 20
165.966888
 30
0.0
 11
-190.405453
 21
165.966888
 31
0.0
  0
LINE
  8
0
  6
CONTINUOUS
 62
     7
  5
1C6
 10
-190.405453
 20
165.714018
 30
0.0
 11
-190.405453
 21
165.9669
 31
0.0
  0
LINE
  8
0
  6
CONTINUOUS
 62
     7
  5
1C7
 10
609.594547
 20
165.714018
 30
0.0
 11
609.594547
 21
165.9669
 31
0.0
  0
LINE
  8
0
  6
CONTINUOUS
 62
     7
  5
1C8
 10
585.094547
 20
158.846923
 30
0.0
 11
309.594547
 21
158.846923
 31
0.0
  0
LINE
  8
0
  6
CONTINUOUS
 62
     7
  5
1C9
 10
109.594547
 20
158.846923
 30
0.0
 11
-165.905453
 21
158.846923
 31
0.0
  0
LINE
  8
0
  6
CONTINUOUS
 62
     7
  5
1CA
 10
309.594547
 20
170.966885
 30
0.0
 11
312.894457
 21
170.966885
 31
0.0
  0
LINE
  8
0
  6
CONTINUOUS
 62
     7
  5
1CB
 10
312.894457
 20
178.966887
 30
0.0
 11
309.594547
 21
178.966887
 31
0.0
  0
ARC
  8
0
  6
CONTINUOUS
 62
     7
  5
1CC
 10
106.294637
 20
174.966886
 30
0.0
 40
4.0
 50
90.0
 51
270.0
210
0.0
220
0.0
230
1.0
  0
LINE
  8
0
  6
CONTINUOUS
 62
     7
  5
1CD
 10
109.594547
 20
178.966887
 30
0.0
 11
106.294637
 21
178.966887
 31
0.0
  0
LINE
  8
0
  6
CONTINUOUS
 62
     7
  5
1CE
 10
106.294637
 20
170.966885
 30
0.0
 11
109.594547
 21
170.966885
 31
0.0
  0
ARC
  8
0
  6
CONTINUOUS
 62
     7
  5
1CF
 10
312.894457
 20
174.966886
 30
0.0
 40
4.0
 50
270.0
 51
90.0
210
0.0
220
0.0
230
1.0
  0
LINE
  8
0
  6
CONTINUOUS
 62
     7
  5
1D0
 10
105.166229
 20
179.008321
 30
0.0
 11
104.751598
 21
179.008321
 31
0.0
  0
LINE
  8
0
  6
CONTINUOUS
 62
     7
  5
1D1
 10
104.751598
 20
170.92545
 30
0.0
 11
105.166229
 21
170.92545
 31
0.0
  0
LINE
  8
0
  6
CONTINUOUS
 62
     7
  5
1D2
 10
314.022866
 20
170.92545
 30
0.0
 11
314.437497
 21
170.92545
 31
0.0
  0
LINE
  8
0
  6
CONTINUOUS
 62
     7
  5
1D3
 10
314.437497
 20
179.008321
 30
0.0
 11
314.022866
 21
179.008321
 31
0.0
  0
LINE
  8
0
  6
CONTINUOUS
 62
     7
  5
1D4
 10
318.314708
 20
173.007896
 30
0.0
 11
318.678829
 21
173.542175
 31
0.0
  0
LINE
  8
0
  6
CONTINUOUS
 62
     7
  5
1D5
 10
318.678829
 20
176.391596
 30
0.0
 11
318.314708
 21
176.925875
 31
0.0
  0
LINE
  8
0
  6
CONTINUOUS
 62
     7
  5
1D6
 10
100.874386
 20
176.925875
 30
0.0
 11
100.510266
 21
176.391596
 31
0.0
  0
LINE
  8
0
  6
CONTINUOUS
 62
     7
  5
1D7
 10
100.510266
 20
173.542175
 30
0.0
 11
100.874386
 21
173.007896
 31
0.0
  0
LINE
  8
0
  6
CONTINUOUS
 62
     7
  5
1D8
 10
-165.905453
 20
158.96689
 30
0.0
 11
-171.905453
 21
158.96689
 31
0.0
  0
LINE
  8
0
  6
CONTINUOUS
 62
     7
  5
1D9
 10
-171.905453
 20
146.96689
 30
0.0
 11
-165.905453
 21
146.96689
 31
0.0
  0
LINE
  8
0
  6
CONTINUOUS
 62
     7
  5
1DA
 10
585.094547
 20
146.96689
 30
0.0
 11
591.094547
 21
146.96689
 31
0.0
  0
LINE
  8
0
  6
CONTINUOUS
 62
     7
  5
1DB
 10
591.094547
 20
158.96689
 30
0.0
 11
585.094547
 21
158.96689
 31
0.0
  0
ENDBLK
  8
0
  5
1DC
  0
BLOCK
  8
0
  5
1DF
  2
AID291
 70
     0
 10
0.0
 20
0.0
 30
0.0
  3
#auxiliary draft view
  0
LINE
  8
0
  6
CONTINUOUS
 62
     7
  5
1E0
 10
109.594547
 20
421.949605
 30
0.0
 11
201.594547
 21
421.949605
 31
0.0
  0
LINE
  8
0
  6
CONTINUOUS
 62
     7
  5
1E1
 10
109.594547
 20
423.649581
 30
0.0
 11
109.594547
 21
421.949605
 31
0.0
  0
LINE
  8
0
  6
CONTINUOUS
 62
     7
  5
1E2
 10
201.594547
 20
423.649581
 30
0.0
 11
201.594547
 21
421.949605
 31
0.0
  0
LINE
  8
0
  6
CONTINUOUS
 62
     7
  5
1E3
 10
191.094547
 20
419.549584
 30
0.0
 11
191.094547
 21
419.94959
 31
0.0
  0
LINE
  8
0
  6
CONTINUOUS
 62
     7
  5
1E4
 10
120.094547
 20
419.549584
 30
0.0
 11
191.094547
 21
419.549584
 31
0.0
  0
LINE
  8
0
  6
CONTINUOUS
 62
     7
  5
1E5
 10
120.094547
 20
419.549584
 30
0.0
 11
120.094547
 21
419.94959
 31
0.0
  0
LINE
  8
0
  6
CONTINUOUS
 62
     7
  5
1E6
 10
120.094547
 20
419.94959
 30
0.0
 11
109.594547
 21
419.94959
 31
0.0
  0
LINE
  8
0
  6
CONTINUOUS
 62
     7
  5
1E7
 10
191.094547
 20
419.94959
 30
0.0
 11
201.594547
 21
419.94959
 31
0.0
  0
LINE
  8
0
  6
CONTINUOUS
 62
     7
  5
1E8
 10
109.594547
 20
421.949605
 30
0.0
 11
109.594547
 21
419.94959
 31
0.0
  0
LINE
  8
0
  6
CONTINUOUS
 62
     7
  5
1E9
 10
201.594547
 20
421.949605
 30
0.0
 11
201.594547
 21
419.94959
 31
0.0
  0
LINE
  8
0
  6
CONTINUOUS
 62
     7
  5
1EA
 10
309.594547
 20
421.949605
 30
0.0
 11
217.594547
 21
421.949605
 31
0.0
  0
LINE
  8
0
  6
CONTINUOUS
 62
     7
  5
1EB
 10
299.094547
 20
419.94959
 30
0.0
 11
309.594547
 21
419.94959
 31
0.0
  0
LINE
  8
0
  6
CONTINUOUS
 62
     7
  5
1EC
 10
299.094547
 20
419.549584
 30
0.0
 11
299.094547
 21
419.94959
 31
0.0
  0
LINE
  8
0
  6
CONTINUOUS
 62
     7
  5
1ED
 10
299.094547
 20
419.549584
 30
0.0
 11
228.094547
 21
419.549584
 31
0.0
  0
LINE
  8
0
  6
CONTINUOUS
 62
     7
  5
1EE
 10
228.094547
 20
419.549584
 30
0.0
 11
228.094547
 21
419.94959
 31
0.0
  0
LINE
  8
0
  6
CONTINUOUS
 62
     7
  5
1EF
 10
228.094547
 20
419.94959
 30
0.0
 11
217.594547
 21
419.94959
 31
0.0
  0
LINE
  8
0
  6
CONTINUOUS
 62
     7
  5
1F0
 10
309.594547
 20
421.949605
 30
0.0
 11
309.594547
 21
419.94959
 31
0.0
  0
LINE
  8
0
  6
CONTINUOUS
 62
     7
  5
1F1
 10
217.594547
 20
421.949605
 30
0.0
 11
217.594547
 21
419.94959
 31
0.0
  0
LINE
  8
0
  6
CONTINUOUS
 62
     7
  5
1F2
 10
309.594547
 20
423.649581
 30
0.0
 11
309.594547
 21
421.949605
 31
0.0
  0
LINE
  8
0
  6
CONTINUOUS
 62
     7
  5
1F3
 10
217.594547
 20
423.649581
 30
0.0
 11
217.594547
 21
421.949605
 31
0.0
  0
LINE
  8
0
  6
CONTINUOUS
 62
     7
  5
1F4
 10
109.594547
 20
419.649581
 30
0.0
 11
120.094547
 21
419.649583
 31
0.0
  0
LINE
  8
0
  6
CONTINUOUS
 62
     7
  5
1F5
 10
191.094547
 20
419.649583
 30
0.0
 11
228.094547
 21
419.649583
 31
0.0
  0
LINE
  8
0
  6
CONTINUOUS
 62
     7
  5
1F6
 10
299.094547
 20
419.649581
 30
0.0
 11
309.594547
 21
419.649581
 31
0.0
  0
LINE
  8
0
  6
CONTINUOUS
 62
     7
  5
1F7
 10
309.594547
 20
419.649581
 30
0.0
 11
309.594547
 21
419.94959
 31
0.0
  0
LINE
  8
0
  6
CONTINUOUS
 62
     7
  5
1F8
 10
109.594547
 20
419.94959
 30
0.0
 11
109.594547
 21
419.649581
 31
0.0
  0
LINE
  8
0
  6
CONTINUOUS
 62
     7
  5
1F9
 10
109.594547
 20
547.649581
 30
0.0
 11
309.594547
 21
547.649581
 31
0.0
  0
ARC
  8
0
  6
CONTINUOUS
 62
     7
  5
1FA
 10
302.094547
 20
542.649581
 30
0.0
 40
2.459
 50
23.995781
 51
156.004219
210
0.0
220
0.0
230
1.0
  0
ARC
  8
0
  6
CONTINUOUS
 62
     7
  5
1FB
 10
117.094547
 20
542.649581
 30
0.0
 40
2.459
 50
23.995781
 51
156.004219
210
0.0
220
0.0
230
1.0
  0
LINE
  8
0
  6
CONTINUOUS
 62
     7
  5
1FC
 10
309.594547
 20
543.649581
 30
0.0
 11
309.594547
 21
547.649581
 31
0.0
  0
LINE
  8
0
  6
CONTINUOUS
 62
     7
  5
1FD
 10
109.594547
 20
547.649581
 30
0.0
 11
109.594547
 21
543.649581
 31
0.0
  0
LINE
  8
0
  6
CONTINUOUS
 62
     7
  5
1FE
 10
594.094547
 20
527.749581
 30
0.0
 11
594.094547
 21
519.549581
 31
0.0
  0
LINE
  8
0
  6
CONTINUOUS
 62
     7
  5
1FF
 10
650.094547
 20
519.549581
 30
0.0
 11
650.094547
 21
527.749581
 31
0.0
  0
CIRCLE
  8
0
  6
CONTINUOUS
 62
     7
  5
200
 10
642.094547
 20
523.649581
 30
0.0
 40
4.0
210
0.0
220
0.0
230
1.0
  0
CIRCLE
  8
0
  6
CONTINUOUS
 62
     7
  5
201
 10
602.094547
 20
523.649581
 30
0.0
 40
4.0
210
0.0
220
0.0
230
1.0
  0
CIRCLE
  8
0
  6
CONTINUOUS
 62
     7
  5
202
 10
642.094547
 20
523.649581
 30
0.0
 40
3.3235
210
0.0
220
0.0
230
1.0
  0
CIRCLE
  8
0
  6
CONTINUOUS
 62
     7
  5
203
 10
602.094547
 20
523.649581
 30
0.0
 40
3.3235
210
0.0
220
0.0
230
1.0
  0
LINE
  8
0
  6
CONTINUOUS
 62
     7
  5
204
 10
-174.905453
 20
527.749581
 30
0.0
 11
-174.905453
 21
519.549581
 31
0.0
  0
LINE
  8
0
  6
CONTINUOUS
 62
     7
  5
205
 10
-230.905453
 20
519.549581
 30
0.0
 11
-230.905453
 21
527.749581
 31
0.0
  0
CIRCLE
  8
0
  6
CONTINUOUS
 62
     7
  5
206
 10
-222.905453
 20
523.649581
 30
0.0
 40
4.0
210
0.0
220
0.0
230
1.0
  0
CIRCLE
  8
0
  6
CONTINUOUS
 62
     7
  5
207
 10
-182.905453
 20
523.649581
 30
0.0
 40
4.0
210
0.0
220
0.0
230
1.0
  0
CIRCLE
  8
0
  6
CONTINUOUS
 62
     7
  5
208
 10
-182.905453
 20
523.649581
 30
0.0
 40
3.3235
210
0.0
220
0.0
230
1.0
  0
CIRCLE
  8
0
  6
CONTINUOUS
 62
     7
  5
209
 10
-222.905453
 20
523.649581
 30
0.0
 40
3.3235
210
0.0
220
0.0
230
1.0
  0
CIRCLE
  8
0
  6
CONTINUOUS
 62
     7
  5
20A
 10
602.094547
 20
443.649581
 30
0.0
 40
4.0
210
0.0
220
0.0
230
1.0
  0
CIRCLE
  8
0
  6
CONTINUOUS
 62
     7
  5
20B
 10
602.094547
 20
443.649581
 30
0.0
 40
3.3235
210
0.0
220
0.0
230
1.0
  0
CIRCLE
  8
0
  6
CONTINUOUS
 62
     7
  5
20C
 10
642.094547
 20
443.649581
 30
0.0
 40
4.0
210
0.0
220
0.0
230
1.0
  0
CIRCLE
  8
0
  6
CONTINUOUS
 62
     7
  5
20D
 10
642.094547
 20
443.649581
 30
0.0
 40
3.3235
210
0.0
220
0.0
230
1.0
  0
LINE
  8
0
  6
CONTINUOUS
 62
     7
  5
20E
 10
594.094547
 20
439.549581
 30
0.0
 11
594.094547
 21
447.749581
 31
0.0
  0
LINE
  8
0
  6
CONTINUOUS
 62
     7
  5
20F
 10
650.094547
 20
447.749581
 30
0.0
 11
650.094547
 21
439.549581
 31
0.0
  0
CIRCLE
  8
0
  6
CONTINUOUS
 62
     7
  5
210
 10
-182.905453
 20
443.649581
 30
0.0
 40
4.0
210
0.0
220
0.0
230
1.0
  0
CIRCLE
  8
0
  6
CONTINUOUS
 62
     7
  5
211
 10
-182.905453
 20
443.649581
 30
0.0
 40
3.3235
210
0.0
220
0.0
230
1.0
  0
LINE
  8
0
  6
CONTINUOUS
 62
     7
  5
212
 10
-174.905453
 20
439.549581
 30
0.0
 11
-174.905453
 21
447.749581
 31
0.0
  0
LINE
  8
0
  6
CONTINUOUS
 62
     7
  5
213
 10
-230.905453
 20
447.749581
 30
0.0
 11
-230.905453
 21
439.549581
 31
0.0
  0
CIRCLE
  8
0
  6
CONTINUOUS
 62
     7
  5
214
 10
-222.905453
 20
443.649581
 30
0.0
 40
4.0
210
0.0
220
0.0
230
1.0
  0
CIRCLE
  8
0
  6
CONTINUOUS
 62
     7
  5
215
 10
-222.905453
 20
443.649581
 30
0.0
 40
3.3235
210
0.0
220
0.0
230
1.0
  0
LINE
  8
0
  6
CONTINUOUS
 62
     7
  5
216
 10
-256.405453
 20
447.749581
 30
0.0
 11
-256.405453
 21
439.549581
 31
0.0
  0
LINE
  8
0
  6
CONTINUOUS
 62
     7
  5
217
 10
675.594547
 20
439.549581
 30
0.0
 11
-256.405453
 21
439.549581
 31
0.0
  0
LINE
  8
0
  6
CONTINUOUS
 62
     7
  5
218
 10
675.594547
 20
447.749581
 30
0.0
 11
675.594547
 21
439.549581
 31
0.0
  0
LINE
  8
0
  6
CONTINUOUS
 62
     7
  5
219
 10
675.594547
 20
447.749581
 30
0.0
 11
-256.405453
 21
447.749581
 31
0.0
  0
LINE
  8
0
  6
CONTINUOUS
 62
     7
  5
21A
 10
675.594547
 20
487.749581
 30
0.0
 11
-256.405453
 21
487.749581
 31
0.0
  0
LINE
  8
0
  6
CONTINUOUS
 62
     7
  5
21B
 10
-256.405453
 20
487.749581
 30
0.0
 11
-256.405453
 21
479.549581
 31
0.0
  0
LINE
  8
0
  6
CONTINUOUS
 62
     7
  5
21C
 10
675.594547
 20
479.549581
 30
0.0
 11
-256.405453
 21
479.549581
 31
0.0
  0
LINE
  8
0
  6
CONTINUOUS
 62
     7
  5
21D
 10
675.594547
 20
487.749581
 30
0.0
 11
675.594547
 21
479.549581
 31
0.0
  0
LINE
  8
0
  6
CONTINUOUS
 62
     7
  5
21E
 10
675.594547
 20
527.749581
 30
0.0
 11
-256.405453
 21
527.749581
 31
0.0
  0
LINE
  8
0
  6
CONTINUOUS
 62
     7
  5
21F
 10
-256.405453
 20
527.749581
 30
0.0
 11
-256.405453
 21
519.549581
 31
0.0
  0
LINE
  8
0
  6
CONTINUOUS
 62
     7
  5
220
 10
675.594547
 20
519.549581
 30
0.0
 11
-256.405453
 21
519.549581
 31
0.0
  0
LINE
  8
0
  6
CONTINUOUS
 62
     7
  5
221
 10
675.594547
 20
527.749581
 30
0.0
 11
675.594547
 21
519.549581
 31
0.0
  0
LINE
  8
0
  6
CONTINUOUS
 62
     9
  5
222
 10
-258.405453
 20
425.649581
 30
0.0
 11
677.594547
 21
425.649581
 31
0.0
  0
LINE
  8
0
  6
CONTINUOUS
 62
     9
  5
223
 10
-258.405453
 20
425.649581
 30
0.0
 11
-258.405453
 21
541.649581
 31
0.0
  0
LINE
  8
0
  6
CONTINUOUS
 62
     9
  5
224
 10
677.594547
 20
541.649581
 30
0.0
 11
-258.405453
 21
541.649581
 31
0.0
  0
LINE
  8
0
  6
CONTINUOUS
 62
     9
  5
225
 10
677.594547
 20
425.649581
 30
0.0
 11
677.594547
 21
541.649581
 31
0.0
  0
LINE
  8
0
  6
CONTINUOUS
 62
     9
  5
226
 10
-258.405453
 20
541.649581
 30
0.0
 11
-258.405453
 21
543.649581
 31
0.0
  0
LINE
  8
0
  6
CONTINUOUS
 62
     7
  5
227
 10
-258.405453
 20
543.649581
 30
0.0
 11
677.594547
 21
543.649581
 31
0.0
  0
LINE
  8
0
  6
CONTINUOUS
 62
     9
  5
228
 10
677.594547
 20
541.649581
 30
0.0
 11
677.594547
 21
543.649581
 31
0.0
  0
LINE
  8
0
  6
CONTINUOUS
 62
     7
  5
229
 10
679.594547
 20
541.649581
 30
0.0
 11
679.594547
 21
425.649581
 31
0.0
  0
LINE
  8
0
  6
CONTINUOUS
 62
     9
  5
22A
 10
679.594547
 20
425.649581
 30
0.0
 11
677.594547
 21
425.649581
 31
0.0
  0
LINE
  8
0
  6
CONTINUOUS
 62
     9
  5
22B
 10
677.594547
 20
541.649581
 30
0.0
 11
679.594547
 21
541.649581
 31
0.0
  0
LINE
  8
0
  6
CONTINUOUS
 62
     9
  5
22C
 10
-260.405453
 20
425.649581
 30
0.0
 11
-258.405453
 21
425.649581
 31
0.0
  0
LINE
  8
0
  6
CONTINUOUS
 62
     7
  5
22D
 10
-260.405453
 20
541.649581
 30
0.0
 11
-260.405453
 21
425.649581
 31
0.0
  0
LINE
  8
0
  6
CONTINUOUS
 62
     9
  5
22E
 10
-258.405453
 20
541.649581
 30
0.0
 11
-260.405453
 21
541.649581
 31
0.0
  0
ARC
  8
0
  6
CONTINUOUS
 62
     7
  5
22F
 10
677.594547
 20
541.649581
 30
0.0
 40
2.0
 50
360.0
 51
90.0
210
0.0
220
0.0
230
1.0
  0
ARC
  8
0
  6
CONTINUOUS
 62
     7
  5
230
 10
-258.405453
 20
541.649581
 30
0.0
 40
2.0
 50
90.0
 51
180.0
210
0.0
220
0.0
230
1.0
  0
LINE
  8
0
  6
CONTINUOUS
 62
     9
  5
231
 10
-258.405453
 20
423.649581
 30
0.0
 11
-258.405453
 21
425.649581
 31
0.0
  0
LINE
  8
0
  6
CONTINUOUS
 62
     9
  5
232
 10
677.594547
 20
423.649581
 30
0.0
 11
677.594547
 21
425.649581
 31
0.0
  0
LINE
  8
0
  6
CONTINUOUS
 62
     7
  5
233
 10
677.594547
 20
423.649581
 30
0.0
 11
-258.405453
 21
423.649581
 31
0.0
  0
ARC
  8
0
  6
CONTINUOUS
 62
     7
  5
234
 10
677.594547
 20
425.649581
 30
0.0
 40
2.0
 50
270.0
 51
360.0
210
0.0
220
0.0
230
1.0
  0
ARC
  8
0
  6
CONTINUOUS
 62
     7
  5
235
 10
-258.405453
 20
425.649581
 30
0.0
 40
2.0
 50
180.0
 51
270.0
210
0.0
220
0.0
230
1.0
  0
ENDBLK
  8
0
  5
236
  0
BLOCK
  8
0
  5
239
  2
AID467
 70
     0
 10
0.0
 20
0.0
 30
0.0
  3
#auxiliary draft view
  0
ARC
  8
0
  6
CONTINUOUS
 62
     7
  5
23A
 10
302.594547
 20
-209.911249
 30
0.0
 40
8.0
 50
90.0
 51
180.0
210
0.0
220
0.0
230
1.0
  0
LINE
  8
0
  6
CONTINUOUS
 62
     7
  5
23B
 10
294.594547
 20
-209.911249
 30
0.0
 11
294.594547
 21
-233.911249
 31
0.0
  0
LINE
  8
0
  6
CONTINUOUS
 62
     7
  5
23C
 10
294.594547
 20
-233.911249
 30
0.0
 11
124.594547
 21
-233.911249
 31
0.0
  0
LINE
  8
0
  6
CONTINUOUS
 62
     7
  5
23D
 10
124.594547
 20
-233.911249
 30
0.0
 11
124.594547
 21
-209.911249
 31
0.0
  0
ARC
  8
0
  6
CONTINUOUS
 62
     7
  5
23E
 10
116.594547
 20
-209.911249
 30
0.0
 40
8.0
 50
0.0
 51
90.0
210
0.0
220
0.0
230
1.0
  0
LINE
  8
0
  6
CONTINUOUS
 62
     7
  5
23F
 10
116.594547
 20
-201.911249
 30
0.0
 11
109.594547
 21
-201.911249
 31
0.0
  0
LINE
  8
0
  6
CONTINUOUS
 62
     7
  5
240
 10
109.594547
 20
-201.911249
 30
0.0
 11
109.594547
 21
-105.911249
 31
0.0
  0
LINE
  8
0
  6
CONTINUOUS
 62
     7
  5
241
 10
109.594547
 20
-105.911249
 30
0.0
 11
309.594547
 21
-105.911249
 31
0.0
  0
LINE
  8
0
  6
CONTINUOUS
 62
     7
  5
242
 10
309.594547
 20
-105.911249
 30
0.0
 11
309.594547
 21
-201.911249
 31
0.0
  0
LINE
  8
0
  6
CONTINUOUS
 62
     7
  5
243
 10
309.594547
 20
-201.911249
 30
0.0
 11
302.594547
 21
-201.911249
 31
0.0
  0
CIRCLE
  8
0
  6
CONTINUOUS
 62
     7
  5
244
 10
232.844547
 20
-169.911249
 30
0.0
 40
2.51
210
0.0
220
0.0
230
1.0
  0
CIRCLE
  8
0
  6
CONTINUOUS
 62
     7
  5
245
 10
186.344547
 20
-169.911249
 30
0.0
 40
2.51
210
0.0
220
0.0
230
1.0
  0
CIRCLE
  8
0
  6
CONTINUOUS
 62
     7
  5
246
 10
159.594547
 20
-193.161249
 30
0.0
 40
4.0
210
0.0
220
0.0
230
1.0
  0
CIRCLE
  8
0
  6
CONTINUOUS
 62
     7
  5
247
 10
259.594547
 20
-193.161249
 30
0.0
 40
4.0
210
0.0
220
0.0
230
1.0
  0
CIRCLE
  8
0
  6
CONTINUOUS
 62
     7
  5
248
 10
259.594547
 20
-146.661249
 30
0.0
 40
4.0
210
0.0
220
0.0
230
1.0
  0
CIRCLE
  8
0
  6
CONTINUOUS
 62
     7
  5
249
 10
159.594547
 20
-146.661249
 30
0.0
 40
4.0
210
0.0
220
0.0
230
1.0
  0
CIRCLE
  8
0
  6
CONTINUOUS
 62
     7
  5
24A
 10
259.594547
 20
-146.661249
 30
0.0
 40
3.3235
210
0.0
220
0.0
230
1.0
  0
CIRCLE
  8
0
  6
CONTINUOUS
 62
     7
  5
24B
 10
159.594547
 20
-193.161249
 30
0.0
 40
3.3235
210
0.0
220
0.0
230
1.0
  0
CIRCLE
  8
0
  6
CONTINUOUS
 62
     7
  5
24C
 10
159.594547
 20
-146.661249
 30
0.0
 40
3.3235
210
0.0
220
0.0
230
1.0
  0
CIRCLE
  8
0
  6
CONTINUOUS
 62
     7
  5
24D
 10
259.594547
 20
-193.161249
 30
0.0
 40
3.3235
210
0.0
220
0.0
230
1.0
  0
CIRCLE
  8
0
  6
CONTINUOUS
 62
     7
  5
24E
 10
302.094547
 20
-228.911249
 30
0.0
 40
3.0
210
0.0
220
0.0
230
1.0
  0
CIRCLE
  8
0
  6
CONTINUOUS
 62
     7
  5
24F
 10
302.094547
 20
-215.911249
 30
0.0
 40
3.0
210
0.0
220
0.0
230
1.0
  0
LINE
  8
0
  6
CONTINUOUS
 62
     7
  5
250
 10
309.594547
 20
-201.911249
 30
0.0
 11
309.594547
 21
-233.911249
 31
0.0
  0
LINE
  8
0
  6
CONTINUOUS
 62
     7
  5
251
 10
309.594547
 20
-233.911249
 30
0.0
 11
294.594547
 21
-233.911249
 31
0.0
  0
CIRCLE
  8
0
  6
CONTINUOUS
 62
     7
  5
252
 10
117.094547
 20
-228.911249
 30
0.0
 40
3.0
210
0.0
220
0.0
230
1.0
  0
CIRCLE
  8
0
  6
CONTINUOUS
 62
     7
  5
253
 10
117.094547
 20
-215.911249
 30
0.0
 40
3.0
210
0.0
220
0.0
230
1.0
  0
LINE
  8
0
  6
CONTINUOUS
 62
     7
  5
254
 10
109.594547
 20
-233.911249
 30
0.0
 11
109.594547
 21
-201.911249
 31
0.0
  0
LINE
  8
0
  6
CONTINUOUS
 62
     7
  5
255
 10
124.594547
 20
-233.911249
 30
0.0
 11
109.594547
 21
-233.911249
 31
0.0
  0
CIRCLE
  8
0
  6
CONTINUOUS
 62
     7
  5
256
 10
117.094547
 20
-228.911249
 30
0.0
 40
2.459
210
0.0
220
0.0
230
1.0
  0
CIRCLE
  8
0
  6
CONTINUOUS
 62
     7
  5
257
 10
117.094547
 20
-215.911249
 30
0.0
 40
2.459
210
0.0
220
0.0
230
1.0
  0
CIRCLE
  8
0
  6
CONTINUOUS
 62
     7
  5
258
 10
302.094547
 20
-228.911249
 30
0.0
 40
2.459
210
0.0
220
0.0
230
1.0
  0
CIRCLE
  8
0
  6
CONTINUOUS
 62
     7
  5
259
 10
302.094547
 20
-215.911249
 30
0.0
 40
2.459
210
0.0
220
0.0
230
1.0
  0
LINE
  8
0
  6
CONTINUOUS
 62
     7
  5
25A
 10
108.485397
 20
-123.856319
 30
0.0
 11
101.017799
 21
-126.949504
 31
0.0
  0
LINE
  8
0
  6
CONTINUOUS
 62
     7
  5
25B
 10
106.583069
 20
-122.507743
 30
0.0
 11
101.409358
 21
-124.650767
 31
0.0
  0
LINE
  8
0
  6
CONTINUOUS
 62
     7
  5
25C
 10
310.289067
 20
-124.857325
 30
0.0
 11
317.756665
 21
-127.95051
 31
0.0
  0
LINE
  8
0
  6
CONTINUOUS
 62
     7
  5
25D
 10
310.703698
 20
-123.856319
 30
0.0
 11
318.171296
 21
-126.949504
 31
0.0
  0
LINE
  8
0
  6
CONTINUOUS
 62
     7
  5
25E
 10
108.900028
 20
-124.857325
 30
0.0
 11
101.43243
 21
-127.95051
 31
0.0
  0
LINE
  8
0
  6
CONTINUOUS
 62
     7
  5
25F
 10
312.606026
 20
-122.507743
 30
0.0
 11
317.779737
 21
-124.650767
 31
0.0
  0
ARC
  8
0
  6
CONTINUOUS
 62
     7
  5
260
 10
103.292642
 20
-119.114744
 30
0.0
 40
8.539908
 50
290.580649
 51
307.264194
210
0.0
220
0.0
230
1.0
  0
ARC
  8
0
  6
CONTINUOUS
 62
     7
  5
261
 10
459.857251
 20
-1130.493151
 30
0.0
 40
1063.853857
 50
109.410947
 51
109.623169
210
0.0
220
0.0
230
1.0
  0
ARC
  8
0
  6
CONTINUOUS
 62
     7
  5
262
 10
315.896453
 20
-119.114744
 30
0.0
 40
8.539908
 50
232.735806
 51
249.419351
210
0.0
220
0.0
230
1.0
  0
ARC
  8
0
  6
CONTINUOUS
 62
     7
  5
263
 10
-40.668156
 20
-1130.493151
 30
0.0
 40
1063.853857
 50
70.376831
 51
70.589053
210
0.0
220
0.0
230
1.0
  0
LINE
  8
0
  6
CONTINUOUS
 62
     9
  5
264
 10
312.894457
 20
-127.109621
 30
0.0
 11
312.894457
 21
-133.911249
 31
0.0
  0
LINE
  8
0
  6
CONTINUOUS
 62
     9
  5
265
 10
106.294637
 20
-127.109621
 30
0.0
 11
106.294637
 21
-133.911249
 31
0.0
  0
LINE
  8
0
  6
CONTINUOUS
 62
     7
  5
266
 10
314.677167
 20
-118.552808
 30
0.0
 11
319.111784
 21
-120.389689
 31
0.0
  0
LINE
  8
0
  6
CONTINUOUS
 62
     7
  5
267
 10
312.812387
 20
-120.702913
 30
0.0
 11
318.910026
 21
-123.228641
 31
0.0
  0
LINE
  8
0
  6
CONTINUOUS
 62
     7
  5
268
 10
106.376708
 20
-120.702913
 30
0.0
 11
100.279068
 21
-123.228641
 31
0.0
  0
LINE
  8
0
  6
CONTINUOUS
 62
     7
  5
269
 10
104.511927
 20
-118.552808
 30
0.0
 11
100.07731
 21
-120.389689
 31
0.0
  0
LINE
  8
0
  6
CONTINUOUS
 62
     7
  5
26A
 10
299.094547
 20
-105.811252
 30
0.0
 11
228.094547
 21
-105.811252
 31
0.0
  0
LINE
  8
0
  6
CONTINUOUS
 62
     7
  5
26B
 10
299.094547
 20
-105.911253
 30
0.0
 11
299.094547
 21
-105.811252
 31
0.0
  0
LINE
  8
0
  6
CONTINUOUS
 62
     7
  5
26C
 10
228.094547
 20
-105.911253
 30
0.0
 11
228.094547
 21
-105.811252
 31
0.0
  0
LINE
  8
0
  6
CONTINUOUS
 62
     7
  5
26D
 10
120.094547
 20
-105.811252
 30
0.0
 11
191.094547
 21
-105.811252
 31
0.0
  0
LINE
  8
0
  6
CONTINUOUS
 62
     7
  5
26E
 10
120.094547
 20
-105.911253
 30
0.0
 11
120.094547
 21
-105.811252
 31
0.0
  0
LINE
  8
0
  6
CONTINUOUS
 62
     7
  5
26F
 10
191.094547
 20
-105.911253
 30
0.0
 11
191.094547
 21
-105.811252
 31
0.0
  0
LINE
  8
0
  6
CONTINUOUS
 62
     7
  5
270
 10
-240.405453
 20
-178.911249
 30
0.0
 11
-254.405453
 21
-178.911249
 31
0.0
  0
LINE
  8
0
  6
CONTINUOUS
 62
     7
  5
271
 10
-254.405453
 20
-178.911249
 30
0.0
 11
-254.405453
 21
-162.911249
 31
0.0
  0
LINE
  8
0
  6
CONTINUOUS
 62
     7
  5
272
 10
-254.405453
 20
-162.911249
 30
0.0
 11
-240.405453
 21
-162.911249
 31
0.0
  0
LINE
  8
0
  6
CONTINUOUS
 62
     7
  5
273
 10
-240.405453
 20
-162.911249
 30
0.0
 11
-240.405453
 21
-178.911249
 31
0.0
  0
LINE
  8
0
  6
CONTINUOUS
 62
     7
  5
274
 10
-240.405453
 20
-200.911249
 30
0.0
 11
-240.405453
 21
-178.911249
 31
0.0
  0
LINE
  8
0
  6
CONTINUOUS
 62
     7
  5
275
 10
-254.405453
 20
-200.911249
 30
0.0
 11
-240.405453
 21
-200.911249
 31
0.0
  0
LINE
  8
0
  6
CONTINUOUS
 62
     7
  5
276
 10
-254.405453
 20
-178.911249
 30
0.0
 11
-254.405453
 21
-200.911249
 31
0.0
  0
LINE
  8
0
  6
CONTINUOUS
 62
     7
  5
277
 10
673.594547
 20
-162.911249
 30
0.0
 11
659.594547
 21
-162.911249
 31
0.0
  0
LINE
  8
0
  6
CONTINUOUS
 62
     7
  5
278
 10
673.594547
 20
-178.911249
 30
0.0
 11
673.594547
 21
-162.911249
 31
0.0
  0
LINE
  8
0
  6
CONTINUOUS
 62
     7
  5
279
 10
659.594547
 20
-178.911249
 30
0.0
 11
673.594547
 21
-178.911249
 31
0.0
  0
LINE
  8
0
  6
CONTINUOUS
 62
     7
  5
27A
 10
659.594547
 20
-162.911249
 30
0.0
 11
659.594547
 21
-178.911249
 31
0.0
  0
LINE
  8
0
  6
CONTINUOUS
 62
     7
  5
27B
 10
673.594547
 20
-200.911249
 30
0.0
 11
659.594547
 21
-200.911249
 31
0.0
  0
LINE
  8
0
  6
CONTINUOUS
 62
     7
  5
27C
 10
673.594547
 20
-178.911249
 30
0.0
 11
673.594547
 21
-200.911249
 31
0.0
  0
LINE
  8
0
  6
CONTINUOUS
 62
     7
  5
27D
 10
659.594547
 20
-200.911249
 30
0.0
 11
659.594547
 21
-178.911249
 31
0.0
  0
LINE
  8
0
  6
CONTINUOUS
 62
     7
  5
27E
 10
-240.405453
 20
-200.911249
 30
0.0
 11
-240.405453
 21
-216.911249
 31
0.0
  0
LINE
  8
0
  6
CONTINUOUS
 62
     7
  5
27F
 10
-240.405453
 20
-216.911249
 30
0.0
 11
-254.405453
 21
-216.911249
 31
0.0
  0
LINE
  8
0
  6
CONTINUOUS
 62
     7
  5
280
 10
-254.405453
 20
-216.911249
 30
0.0
 11
-254.405453
 21
-200.911249
 31
0.0
  0
LINE
  8
0
  6
CONTINUOUS
 62
     7
  5
281
 10
659.594547
 20
-216.911249
 30
0.0
 11
673.594547
 21
-216.911249
 31
0.0
  0
LINE
  8
0
  6
CONTINUOUS
 62
     7
  5
282
 10
673.594547
 20
-216.911249
 30
0.0
 11
673.594547
 21
-200.911249
 31
0.0
  0
LINE
  8
0
  6
CONTINUOUS
 62
     7
  5
283
 10
659.594547
 20
-200.911249
 30
0.0
 11
659.594547
 21
-216.911249
 31
0.0
  0
LINE
  8
0
  6
CONTINUOUS
 62
     7
  5
284
 10
609.594547
 20
-139.231808
 30
0.0
 11
309.594547
 21
-139.231808
 31
0.0
  0
LINE
  8
0
  6
CONTINUOUS
 62
     7
  5
285
 10
109.594547
 20
-139.231808
 30
0.0
 11
-190.405453
 21
-139.231808
 31
0.0
  0
LINE
  8
0
  6
CONTINUOUS
 62
     7
  5
286
 10
609.594547
 20
-139.530767
 30
0.0
 11
309.594547
 21
-139.530767
 31
0.0
  0
LINE
  8
0
  6
CONTINUOUS
 62
     7
  5
287
 10
109.594547
 20
-139.530767
 30
0.0
 11
-190.405453
 21
-139.530767
 31
0.0
  0
LINE
  8
0
  6
CONTINUOUS
 62
     7
  5
288
 10
-190.405453
 20
-139.530767
 30
0.0
 11
-190.405453
 21
-139.231808
 31
0.0
  0
LINE
  8
0
  6
CONTINUOUS
 62
     7
  5
289
 10
609.594547
 20
-139.530767
 30
0.0
 11
609.594547
 21
-139.231808
 31
0.0
  0
LINE
  8
0
  6
CONTINUOUS
 62
     7
  5
28A
 10
609.594547
 20
-120.585324
 30
0.0
 11
319.097881
 21
-120.585324
 31
0.0
  0
LINE
  8
0
  6
CONTINUOUS
 62
     7
  5
28B
 10
312.914372
 20
-120.585324
 30
0.0
 11
309.594547
 21
-120.585324
 31
0.0
  0
LINE
  8
0
  6
CONTINUOUS
 62
     7
  5
28C
 10
109.594547
 20
-120.585324
 30
0.0
 11
106.274723
 21
-120.585324
 31
0.0
  0
LINE
  8
0
  6
CONTINUOUS
 62
     7
  5
28D
 10
100.091214
 20
-120.585324
 30
0.0
 11
-190.405453
 21
-120.585324
 31
0.0
  0
LINE
  8
0
  6
CONTINUOUS
 62
     7
  5
28E
 10
-190.405453
 20
-139.231808
 30
0.0
 11
-190.405453
 21
-120.585324
 31
0.0
  0
LINE
  8
0
  6
CONTINUOUS
 62
     7
  5
28F
 10
609.594547
 20
-139.231808
 30
0.0
 11
609.594547
 21
-120.585324
 31
0.0
  0
LINE
  8
0
  6
CONTINUOUS
 62
     7
  5
290
 10
609.594547
 20
-120.290732
 30
0.0
 11
318.872882
 21
-120.290732
 31
0.0
  0
LINE
  8
0
  6
CONTINUOUS
 62
     7
  5
291
 10
313.16987
 20
-120.290732
 30
0.0
 11
309.594547
 21
-120.290732
 31
0.0
  0
LINE
  8
0
  6
CONTINUOUS
 62
     7
  5
292
 10
109.594547
 20
-120.290732
 30
0.0
 11
106.019225
 21
-120.290732
 31
0.0
  0
LINE
  8
0
  6
CONTINUOUS
 62
     7
  5
293
 10
100.316212
 20
-120.290732
 30
0.0
 11
-190.405453
 21
-120.290732
 31
0.0
  0
LINE
  8
0
  6
CONTINUOUS
 62
     7
  5
294
 10
-190.405453
 20
-120.585324
 30
0.0
 11
-190.405453
 21
-120.290732
 31
0.0
  0
LINE
  8
0
  6
CONTINUOUS
 62
     7
  5
295
 10
609.594547
 20
-120.585324
 30
0.0
 11
609.594547
 21
-120.290732
 31
0.0
  0
LINE
  8
0
  6
CONTINUOUS
 62
     7
  5
296
 10
609.594547
 20
-141.166956
 30
0.0
 11
309.594547
 21
-141.166956
 31
0.0
  0
LINE
  8
0
  6
CONTINUOUS
 62
     7
  5
297
 10
109.594547
 20
-141.166956
 30
0.0
 11
-190.405453
 21
-141.166956
 31
0.0
  0
LINE
  8
0
  6
CONTINUOUS
 62
     7
  5
298
 10
-190.405453
 20
-139.530767
 30
0.0
 11
-190.405453
 21
-141.166956
 31
0.0
  0
LINE
  8
0
  6
CONTINUOUS
 62
     7
  5
299
 10
609.594547
 20
-139.530767
 30
0.0
 11
609.594547
 21
-141.166956
 31
0.0
  0
LINE
  8
0
  6
CONTINUOUS
 62
     9
  5
29A
 10
609.594547
 20
-118.654552
 30
0.0
 11
314.9228
 21
-118.654552
 31
0.0
  0
LINE
  8
0
  6
CONTINUOUS
 62
     9
  5
29B
 10
314.588925
 20
-118.654552
 30
0.0
 11
309.594547
 21
-118.654552
 31
0.0
  0
LINE
  8
0
  6
CONTINUOUS
 62
     9
  5
29C
 10
109.594547
 20
-118.654552
 30
0.0
 11
104.60017
 21
-118.654552
 31
0.0
  0
LINE
  8
0
  6
CONTINUOUS
 62
     9
  5
29D
 10
104.266294
 20
-118.654552
 30
0.0
 11
-190.405453
 21
-118.654552
 31
0.0
  0
LINE
  8
0
  6
CONTINUOUS
 62
     7
  5
29E
 10
-190.405453
 20
-118.654552
 30
0.0
 11
-190.405453
 21
-120.290732
 31
0.0
  0
LINE
  8
0
  6
CONTINUOUS
 62
     7
  5
29F
 10
609.594547
 20
-118.654552
 30
0.0
 11
609.594547
 21
-120.290732
 31
0.0
  0
LINE
  8
0
  6
CONTINUOUS
 62
     7
  5
2A0
 10
609.594547
 20
-141.411371
 30
0.0
 11
309.594547
 21
-141.411371
 31
0.0
  0
LINE
  8
0
  6
CONTINUOUS
 62
     7
  5
2A1
 10
109.594547
 20
-141.411371
 30
0.0
 11
-190.405453
 21
-141.411371
 31
0.0
  0
LINE
  8
0
  6
CONTINUOUS
 62
     7
  5
2A2
 10
-190.405453
 20
-141.411371
 30
0.0
 11
-190.405453
 21
-141.166956
 31
0.0
  0
LINE
  8
0
  6
CONTINUOUS
 62
     7
  5
2A3
 10
609.594547
 20
-141.411371
 30
0.0
 11
609.594547
 21
-141.166956
 31
0.0
  0
LINE
  8
0
  6
CONTINUOUS
 62
     7
  5
2A4
 10
609.594547
 20
-118.411135
 30
0.0
 11
309.594547
 21
-118.411135
 31
0.0
  0
LINE
  8
0
  6
CONTINUOUS
 62
     7
  5
2A5
 10
109.594547
 20
-118.411135
 30
0.0
 11
-190.405453
 21
-118.411135
 31
0.0
  0
LINE
  8
0
  6
CONTINUOUS
 62
     7
  5
2A6
 10
-190.405453
 20
-118.654553
 30
0.0
 11
-190.405453
 21
-118.411135
 31
0.0
  0
LINE
  8
0
  6
CONTINUOUS
 62
     7
  5
2A7
 10
609.594547
 20
-118.654553
 30
0.0
 11
609.594547
 21
-118.411135
 31
0.0
  0
LINE
  8
0
  6
CONTINUOUS
 62
     7
  5
2A8
 10
-171.905453
 20
-164.911249
 30
0.0
 11
-195.905453
 21
-164.911249
 31
0.0
  0
LINE
  8
0
  6
CONTINUOUS
 62
     7
  5
2A9
 10
-171.905453
 20
-174.911249
 30
0.0
 11
-171.905453
 21
-164.911249
 31
0.0
  0
LINE
  8
0
  6
CONTINUOUS
 62
     7
  5
2AA
 10
-195.905453
 20
-174.911249
 30
0.0
 11
-171.905453
 21
-174.911249
 31
0.0
  0
LINE
  8
0
  6
CONTINUOUS
 62
     7
  5
2AB
 10
-195.905453
 20
-164.911249
 30
0.0
 11
-195.905453
 21
-174.911249
 31
0.0
  0
LINE
  8
0
  6
CONTINUOUS
 62
     7
  5
2AC
 10
591.094547
 20
-177.911249
 30
0.0
 11
615.094547
 21
-177.911249
 31
0.0
  0
LINE
  8
0
  6
CONTINUOUS
 62
     7
  5
2AD
 10
615.094547
 20
-174.911249
 30
0.0
 11
591.094547
 21
-174.911249
 31
0.0
  0
LINE
  8
0
  6
CONTINUOUS
 62
     7
  5
2AE
 10
615.094547
 20
-177.911249
 30
0.0
 11
615.094547
 21
-174.911249
 31
0.0
  0
LINE
  8
0
  6
CONTINUOUS
 62
     7
  5
2AF
 10
591.094547
 20
-174.911249
 30
0.0
 11
591.094547
 21
-177.911249
 31
0.0
  0
LINE
  8
0
  6
CONTINUOUS
 62
     7
  5
2B0
 10
-171.905453
 20
-174.911249
 30
0.0
 11
-171.905453
 21
-177.911249
 31
0.0
  0
LINE
  8
0
  6
CONTINUOUS
 62
     7
  5
2B1
 10
-171.905453
 20
-177.911249
 30
0.0
 11
-195.905453
 21
-177.911249
 31
0.0
  0
LINE
  8
0
  6
CONTINUOUS
 62
     7
  5
2B2
 10
-195.905453
 20
-177.911249
 30
0.0
 11
-195.905453
 21
-174.911249
 31
0.0
  0
LINE
  8
0
  6
CONTINUOUS
 62
     7
  5
2B3
 10
591.094547
 20
-164.911249
 30
0.0
 11
615.094547
 21
-164.911249
 31
0.0
  0
LINE
  8
0
  6
CONTINUOUS
 62
     7
  5
2B4
 10
615.094547
 20
-164.911249
 30
0.0
 11
615.094547
 21
-174.911249
 31
0.0
  0
LINE
  8
0
  6
CONTINUOUS
 62
     7
  5
2B5
 10
591.094547
 20
-174.911249
 30
0.0
 11
591.094547
 21
-164.911249
 31
0.0
  0
LINE
  8
0
  6
CONTINUOUS
 62
     7
  5
2B6
 10
615.094547
 20
-161.911249
 30
0.0
 11
591.094547
 21
-161.911249
 31
0.0
  0
LINE
  8
0
  6
CONTINUOUS
 62
     7
  5
2B7
 10
615.094547
 20
-164.911249
 30
0.0
 11
615.094547
 21
-161.911249
 31
0.0
  0
LINE
  8
0
  6
CONTINUOUS
 62
     7
  5
2B8
 10
591.094547
 20
-161.911249
 30
0.0
 11
591.094547
 21
-164.911249
 31
0.0
  0
LINE
  8
0
  6
CONTINUOUS
 62
     7
  5
2B9
 10
-195.905453
 20
-161.911249
 30
0.0
 11
-171.905453
 21
-161.911249
 31
0.0
  0
LINE
  8
0
  6
CONTINUOUS
 62
     7
  5
2BA
 10
-171.905453
 20
-161.911249
 30
0.0
 11
-171.905453
 21
-164.911249
 31
0.0
  0
LINE
  8
0
  6
CONTINUOUS
 62
     7
  5
2BB
 10
-195.905453
 20
-164.911249
 30
0.0
 11
-195.905453
 21
-161.911249
 31
0.0
  0
LINE
  8
0
  6
CONTINUOUS
 62
     7
  5
2BC
 10
585.094547
 20
-163.911249
 30
0.0
 11
585.094547
 21
-175.911249
 31
0.0
  0
LINE
  8
0
  6
CONTINUOUS
 62
     7
  5
2BD
 10
-165.905453
 20
-163.911249
 30
0.0
 11
-165.905453
 21
-175.911249
 31
0.0
  0
LINE
  8
0
  6
CONTINUOUS
 62
     9
  5
2BE
 10
-258.405453
 20
-227.911249
 30
0.0
 11
-258.405453
 21
-111.911249
 31
0.0
  0
LINE
  8
0
  6
CONTINUOUS
 62
     9
  5
2BF
 10
-258.405453
 20
-227.911249
 30
0.0
 11
-260.405453
 21
-227.911249
 31
0.0
  0
LINE
  8
0
  6
CONTINUOUS
 62
     7
  5
2C0
 10
-260.405453
 20
-111.911249
 30
0.0
 11
-260.405453
 21
-227.911249
 31
0.0
  0
LINE
  8
0
  6
CONTINUOUS
 62
     9
  5
2C1
 10
-260.405453
 20
-111.911249
 30
0.0
 11
-258.405453
 21
-111.911249
 31
0.0
  0
ARC
  8
0
  6
CONTINUOUS
 62
     7
  5
2C2
 10
-258.405453
 20
-227.911249
 30
0.0
 40
2.0
 50
180.0
 51
270.0
210
0.0
220
0.0
230
1.0
  0
LINE
  8
0
  6
CONTINUOUS
 62
     9
  5
2C3
 10
-258.405453
 20
-229.911249
 30
0.0
 11
-258.405453
 21
-227.911249
 31
0.0
  0
LINE
  8
0
  6
CONTINUOUS
 62
     7
  5
2C4
 10
679.594547
 20
-111.911249
 30
0.0
 11
679.594547
 21
-227.911249
 31
0.0
  0
LINE
  8
0
  6
CONTINUOUS
 62
     9
  5
2C5
 10
677.594547
 20
-227.911249
 30
0.0
 11
679.594547
 21
-227.911249
 31
0.0
  0
LINE
  8
0
  6
CONTINUOUS
 62
     9
  5
2C6
 10
677.594547
 20
-227.911249
 30
0.0
 11
677.594547
 21
-111.911249
 31
0.0
  0
LINE
  8
0
  6
CONTINUOUS
 62
     9
  5
2C7
 10
679.594547
 20
-111.911249
 30
0.0
 11
677.594547
 21
-111.911249
 31
0.0
  0
LINE
  8
0
  6
CONTINUOUS
 62
     9
  5
2C8
 10
-258.405453
 20
-111.911249
 30
0.0
 11
-258.405453
 21
-109.911249
 31
0.0
  0
ARC
  8
0
  6
CONTINUOUS
 62
     7
  5
2C9
 10
-258.405453
 20
-111.911249
 30
0.0
 40
2.0
 50
90.0
 51
180.0
210
0.0
220
0.0
230
1.0
  0
ARC
  8
0
  6
CONTINUOUS
 62
     7
  5
2CA
 10
677.594547
 20
-227.911249
 30
0.0
 40
2.0
 50
270.0
 51
360.0
210
0.0
220
0.0
230
1.0
  0
LINE
  8
0
  6
CONTINUOUS
 62
     9
  5
2CB
 10
677.594547
 20
-229.911249
 30
0.0
 11
677.594547
 21
-227.911249
 31
0.0
  0
LINE
  8
0
  6
CONTINUOUS
 62
     9
  5
2CC
 10
677.594547
 20
-111.911249
 30
0.0
 11
677.594547
 21
-109.911249
 31
0.0
  0
ARC
  8
0
  6
CONTINUOUS
 62
     7
  5
2CD
 10
677.594547
 20
-111.911249
 30
0.0
 40
2.0
 50
0.0
 51
90.0
210
0.0
220
0.0
230
1.0
  0
LINE
  8
0
  6
CONTINUOUS
 62
     9
  5
2CE
 10
-258.405453
 20
-227.911249
 30
0.0
 11
109.594547
 21
-227.911249
 31
0.0
  0
LINE
  8
0
  6
CONTINUOUS
 62
     9
  5
2CF
 10
114.848065
 20
-227.911249
 30
0.0
 11
119.341029
 21
-227.911249
 31
0.0
  0
LINE
  8
0
  6
CONTINUOUS
 62
     9
  5
2D0
 10
299.848065
 20
-227.911249
 30
0.0
 11
304.341029
 21
-227.911249
 31
0.0
  0
LINE
  8
0
  6
CONTINUOUS
 62
     9
  5
2D1
 10
309.594547
 20
-227.911249
 30
0.0
 11
677.594547
 21
-227.911249
 31
0.0
  0
LINE
  8
0
  6
CONTINUOUS
 62
     7
  5
2D2
 10
677.594547
 20
-229.911249
 30
0.0
 11
309.594547
 21
-229.911249
 31
0.0
  0
LINE
  8
0
  6
CONTINUOUS
 62
     7
  5
2D3
 10
304.341029
 20
-229.911249
 30
0.0
 11
299.848065
 21
-229.911249
 31
0.0
  0
LINE
  8
0
  6
CONTINUOUS
 62
     7
  5
2D4
 10
119.341029
 20
-229.911249
 30
0.0
 11
114.848065
 21
-229.911249
 31
0.0
  0
LINE
  8
0
  6
CONTINUOUS
 62
     7
  5
2D5
 10
109.594547
 20
-229.911249
 30
0.0
 11
-258.405453
 21
-229.911249
 31
0.0
  0
LINE
  8
0
  6
CONTINUOUS
 62
     7
  5
2D6
 10
-258.405453
 20
-109.911249
 30
0.0
 11
109.594547
 21
-109.911249
 31
0.0
  0
LINE
  8
0
  6
CONTINUOUS
 62
     7
  5
2D7
 10
309.594547
 20
-109.911249
 30
0.0
 11
677.594547
 21
-109.911249
 31
0.0
  0
LINE
  8
0
  6
CONTINUOUS
 62
     9
  5
2D8
 10
677.594547
 20
-111.911249
 30
0.0
 11
309.594547
 21
-111.911249
 31
0.0
  0
LINE
  8
0
  6
CONTINUOUS
 62
     9
  5
2D9
 10
109.594547
 20
-111.911249
 30
0.0
 11
-258.405453
 21
-111.911249
 31
0.0
  0
ARC
  8
0
  6
CONTINUOUS
 62
     7
  5
2DA
 10
95.41152
 20
-124.811833
 30
0.0
 40
6.0
 50
339.128178
 51
1.538253
210
0.0
220
0.0
230
1.0
  0
ARC
  8
0
  6
CONTINUOUS
 62
     7
  5
2DB
 10
110.938067
 20
-118.380517
 30
0.0
 40
6.0
 50
223.461807
 51
245.871882
210
0.0
220
0.0
230
1.0
  0
LINE
  8
0
  6
CONTINUOUS
 62
     7
  5
2DC
 10
317.756665
 20
-127.95051
 30
0.0
 11
318.171296
 21
-126.949504
 31
0.0
  0
LINE
  8
0
  6
CONTINUOUS
 62
     7
  5
2DD
 10
310.703698
 20
-123.856319
 30
0.0
 11
310.289067
 21
-124.857325
 31
0.0
  0
LINE
  8
0
  6
CONTINUOUS
 62
     7
  5
2DE
 10
108.900028
 20
-124.857325
 30
0.0
 11
108.485397
 21
-123.856319
 31
0.0
  0
LINE
  8
0
  6
CONTINUOUS
 62
     7
  5
2DF
 10
101.017799
 20
-126.949504
 30
0.0
 11
101.43243
 21
-127.95051
 31
0.0
  0
ARC
  8
0
  6
CONTINUOUS
 62
     7
  5
2E0
 10
308.251027
 20
-118.380517
 30
0.0
 40
6.0
 50
294.128118
 51
316.538193
210
0.0
220
0.0
230
1.0
  0
ARC
  8
0
  6
CONTINUOUS
 62
     7
  5
2E1
 10
323.777575
 20
-124.811833
 30
0.0
 40
6.0
 50
178.461747
 51
200.871822
210
0.0
220
0.0
230
1.0
  0
LINE
  8
0
  6
CONTINUOUS
 62
     7
  5
2E2
 10
101.43243
 20
-127.95051
 30
0.0
 11
102.58057
 21
-128.426086
 31
0.0
  0
LINE
  8
0
  6
CONTINUOUS
 62
     7
  5
2E3
 10
102.58057
 20
-128.426086
 30
0.0
 11
102.580879
 21
-128.426214
 31
0.0
  0
LINE
  8
0
  6
CONTINUOUS
 62
     7
  5
2E4
 10
108.463273
 20
-125.911749
 30
0.0
 11
108.463481
 21
-125.911247
 31
0.0
  0
LINE
  8
0
  6
CONTINUOUS
 62
     7
  5
2E5
 10
108.463481
 20
-125.911247
 30
0.0
 11
108.900028
 21
-124.857325
 31
0.0
  0
LINE
  8
0
  6
CONTINUOUS
 62
     7
  5
2E6
 10
310.289067
 20
-124.857325
 30
0.0
 11
310.725614
 21
-125.911247
 31
0.0
  0
LINE
  8
0
  6
CONTINUOUS
 62
     7
  5
2E7
 10
310.725614
 20
-125.911247
 30
0.0
 11
310.725821
 21
-125.911749
 31
0.0
  0
LINE
  8
0
  6
CONTINUOUS
 62
     7
  5
2E8
 10
316.608215
 20
-128.426214
 30
0.0
 11
316.608524
 21
-128.426086
 31
0.0
  0
LINE
  8
0
  6
CONTINUOUS
 62
     7
  5
2E9
 10
316.608524
 20
-128.426086
 30
0.0
 11
317.756665
 21
-127.95051
 31
0.0
  0
LINE
  8
0
  6
CONTINUOUS
 62
     7
  5
2EA
 10
309.594547
 20
-133.911249
 30
0.0
 11
312.894457
 21
-133.911249
 31
0.0
  0
LINE
  8
0
  6
CONTINUOUS
 62
     7
  5
2EB
 10
310.726121
 20
-125.911247
 30
0.0
 11
310.725614
 21
-125.911247
 31
0.0
  0
LINE
  8
0
  6
CONTINUOUS
 62
     7
  5
2EC
 10
310.725614
 20
-125.911247
 30
0.0
 11
309.594547
 21
-125.911247
 31
0.0
  0
LINE
  8
0
  6
CONTINUOUS
 62
     7
  5
2ED
 10
109.594547
 20
-125.911247
 30
0.0
 11
108.463481
 21
-125.911247
 31
0.0
  0
LINE
  8
0
  6
CONTINUOUS
 62
     7
  5
2EE
 10
108.463481
 20
-125.911247
 30
0.0
 11
108.462974
 21
-125.911247
 31
0.0
  0
LINE
  8
0
  6
CONTINUOUS
 62
     7
  5
2EF
 10
106.294637
 20
-133.911249
 30
0.0
 11
109.594547
 21
-133.911249
 31
0.0
  0
ARC
  8
0
  6
CONTINUOUS
 62
     7
  5
2F0
 10
312.894457
 20
-129.911248
 30
0.0
 40
4.0
 50
270.0
 51
360.0
210
0.0
220
0.0
230
1.0
  0
ARC
  8
0
  6
CONTINUOUS
 62
     7
  5
2F1
 10
312.894457
 20
-129.911248
 30
0.0
 40
4.0
 50
0.0
 51
21.799499
210
0.0
220
0.0
230
1.0
  0
ARC
  8
0
  6
CONTINUOUS
 62
     7
  5
2F2
 10
106.294637
 20
-129.911248
 30
0.0
 40
4.0
 50
158.200501
 51
270.0
210
0.0
220
0.0
230
1.0
  0
LINE
  8
0
  6
CONTINUOUS
 62
     7
  5
2F3
 10
318.910026
 20
-123.228641
 30
0.0
 11
319.111784
 21
-120.389689
 31
0.0
  0
LINE
  8
0
  6
CONTINUOUS
 62
     7
  5
2F4
 10
314.677167
 20
-118.552808
 30
0.0
 11
312.812387
 21
-120.702913
 31
0.0
  0
LINE
  8
0
  6
CONTINUOUS
 62
     7
  5
2F5
 10
106.376708
 20
-120.702913
 30
0.0
 11
104.511927
 21
-118.552808
 31
0.0
  0
LINE
  8
0
  6
CONTINUOUS
 62
     7
  5
2F6
 10
100.07731
 20
-120.389689
 30
0.0
 11
100.279068
 21
-123.228641
 31
0.0
  0
ARC
  8
0
  6
CONTINUOUS
 62
     7
  5
2F7
 10
315.861207
 20
-121.965722
 30
0.0
 40
3.299999
 50
157.500853
 51
189.453589
210
0.0
220
0.0
230
1.0
  0
ARC
  8
0
  6
CONTINUOUS
 62
     7
  5
2F8
 10
315.861245
 20
-121.965738
 30
0.0
 40
3.299999
 50
305.546351
 51
337.499087
210
0.0
220
0.0
230
1.0
  0
ARC
  8
0
  6
CONTINUOUS
 62
     7
  5
2F9
 10
103.32785
 20
-121.965738
 30
0.0
 40
3.299999
 50
202.500913
 51
234.453649
210
0.0
220
0.0
230
1.0
  0
ARC
  8
0
  6
CONTINUOUS
 62
     7
  5
2FA
 10
103.327887
 20
-121.965722
 30
0.0
 40
3.299999
 50
350.546411
 51
22.499147
210
0.0
220
0.0
230
0.9999999999999999
  0
LINE
  8
0
  6
CONTINUOUS
 62
     7
  5
2FB
 10
585.094547
 20
-175.911249
 30
0.0
 11
591.094547
 21
-175.911249
 31
0.0
  0
LINE
  8
0
  6
CONTINUOUS
 62
     7
  5
2FC
 10
591.094547
 20
-163.911249
 30
0.0
 11
585.094547
 21
-163.911249
 31
0.0
  0
LINE
  8
0
  6
CONTINUOUS
 62
     7
  5
2FD
 10
-165.905453
 20
-163.911249
 30
0.0
 11
-171.905453
 21
-163.911249
 31
0.0
  0
LINE
  8
0
  6
CONTINUOUS
 62
     7
  5
2FE
 10
-171.905453
 20
-175.911249
 30
0.0
 11
-165.905453
 21
-175.911249
 31
0.0
  0
ENDBLK
  8
0
  5
2FF
  0
BLOCK
  8
0
  5
302
  2
AID865
 70
     0
 10
0.0
 20
0.0
 30
0.0
  3
#auxiliary draft view
  0
POLYLINE
  8
0
  6
CONTINUOUS
 62
     7
  5
303
 66
     1
 10
0.0
 20
0.0
 30
0.0
 40
0.1
 41
0.1
  0
VERTEX
  8
0
 62
     7
  5
304
 10
-402.808383
 20
174.966886
 30
0.0
  0
VERTEX
  8
0
 62
     7
  5
305
 10
-402.80503
 20
174.762018
 30
0.0
  0
VERTEX
  8
0
 62
     7
  5
306
 10
-402.794998
 20
174.558646
 30
0.0
  0
VERTEX
  8
0
 62
     7
  5
307
 10
-402.778359
 20
174.358254
 30
0.0
  0
VERTEX
  8
0
 62
     7
  5
308
 10
-402.755234
 20
174.162305
 30
0.0
  0
VERTEX
  8
0
 62
     7
  5
309
 10
-402.725793
 20
173.97223
 30
0.0
  0
VERTEX
  8
0
 62
     7
  5
30A
 10
-402.69025
 20
173.789415
 30
0.0
  0
VERTEX
  8
0
 62
     7
  5
30B
 10
-402.648866
 20
173.615196
 30
0.0
  0
VERTEX
  8
0
 62
     7
  5
30C
 10
-402.601941
 20
173.450844
 30
0.0
  0
VERTEX
  8
0
 62
     7
  5
30D
 10
-402.549818
 20
173.297559
 30
0.0
  0
VERTEX
  8
0
 62
     7
  5
30E
 10
-402.492879
 20
173.15646
 30
0.0
  0
VERTEX
  8
0
 62
     7
  5
30F
 10
-402.431538
 20
173.028577
 30
0.0
  0
VERTEX
  8
0
 62
     7
  5
310
 10
-402.366243
 20
172.914843
 30
0.0
  0
VERTEX
  8
0
 62
     7
  5
311
 10
-402.297472
 20
172.816089
 30
0.0
  0
VERTEX
  8
0
 62
     7
  5
312
 10
-402.225725
 20
172.733036
 30
0.0
  0
VERTEX
  8
0
 62
     7
  5
313
 10
-402.151528
 20
172.66629
 30
0.0
  0
VERTEX
  8
0
 62
     7
  5
314
 10
-402.075421
 20
172.616337
 30
0.0
  0
VERTEX
  8
0
 62
     7
  5
315
 10
-401.997959
 20
172.583544
 30
0.0
  0
VERTEX
  8
0
 62
     7
  5
316
 10
-401.91971
 20
172.568149
 30
0.0
  0
VERTEX
  8
0
 62
     7
  5
317
 10
-401.841243
 20
172.570264
 30
0.0
  0
VERTEX
  8
0
 62
     7
  5
318
 10
-401.763131
 20
172.589874
 30
0.0
  0
SEQEND
  8
0
  5
319
  0
LINE
  8
0
  6
CONTINUOUS
 62
     7
  5
31B
 10
-404.210105
 20
178.235298
 30
0.0
 11
-404.384483
 21
178.266905
 31
0.0
  0
POLYLINE
  8
0
  6
CONTINUOUS
 62
     7
  5
31C
 66
     1
 10
0.0
 20
0.0
 30
0.0
 40
0.1
 41
0.1
  0
VERTEX
  8
0
 62
     7
  5
31D
 10
-401.763131
 20
177.343897
 30
0.0
  0
VERTEX
  8
0
 62
     7
  5
31E
 10
-401.841243
 20
177.363507
 30
0.0
  0
VERTEX
  8
0
 62
     7
  5
31F
 10
-401.91971
 20
177.365622
 30
0.0
  0
VERTEX
  8
0
 62
     7
  5
320
 10
-401.997959
 20
177.350227
 30
0.0
  0
VERTEX
  8
0
 62
     7
  5
321
 10
-402.075421
 20
177.317434
 30
0.0
  0
VERTEX
  8
0
 62
     7
  5
322
 10
-402.151528
 20
177.267481
 30
0.0
  0
VERTEX
  8
0
 62
     7
  5
323
 10
-402.225725
 20
177.200735
 30
0.0
  0
VERTEX
  8
0
 62
     7
  5
324
 10
-402.297472
 20
177.117682
 30
0.0
  0
VERTEX
  8
0
 62
     7
  5
325
 10
-402.366243
 20
177.018928
 30
0.0
  0
VERTEX
  8
0
 62
     7
  5
326
 10
-402.431538
 20
176.905194
 30
0.0
  0
VERTEX
  8
0
 62
     7
  5
327
 10
-402.492879
 20
176.777311
 30
0.0
  0
VERTEX
  8
0
 62
     7
  5
328
 10
-402.549818
 20
176.636212
 30
0.0
  0
VERTEX
  8
0
 62
     7
  5
329
 10
-402.601941
 20
176.482927
 30
0.0
  0
VERTEX
  8
0
 62
     7
  5
32A
 10
-402.648866
 20
176.318575
 30
0.0
  0
VERTEX
  8
0
 62
     7
  5
32B
 10
-402.69025
 20
176.144356
 30
0.0
  0
VERTEX
  8
0
 62
     7
  5
32C
 10
-402.725793
 20
175.961541
 30
0.0
  0
VERTEX
  8
0
 62
     7
  5
32D
 10
-402.755234
 20
175.771466
 30
0.0
  0
VERTEX
  8
0
 62
     7
  5
32E
 10
-402.778359
 20
175.575517
 30
0.0
  0
VERTEX
  8
0
 62
     7
  5
32F
 10
-402.794998
 20
175.375125
 30
0.0
  0
VERTEX
  8
0
 62
     7
  5
330
 10
-402.80503
 20
175.171753
 30
0.0
  0
VERTEX
  8
0
 62
     7
  5
331
 10
-402.808383
 20
174.966886
 30
0.0
  0
SEQEND
  8
0
  5
332
  0
POLYLINE
  8
0
  6
CONTINUOUS
 62
     7
  5
333
 66
     1
 10
0.0
 20
0.0
 30
0.0
 40
0.1
 41
0.1
  0
VERTEX
  8
0
 62
     7
  5
334
 10
-401.763131
 20
172.589874
 30
0.0
  0
VERTEX
  8
0
 62
     7
  5
335
 10
-401.691227
 20
172.623735
 30
0.0
  0
VERTEX
  8
0
 62
     7
  5
336
 10
-401.620581
 20
172.672424
 30
0.0
  0
VERTEX
  8
0
 62
     7
  5
337
 10
-401.551639
 20
172.735633
 30
0.0
  0
VERTEX
  8
0
 62
     7
  5
338
 10
-401.484838
 20
172.812962
 30
0.0
  0
VERTEX
  8
0
 62
     7
  5
339
 10
-401.420601
 20
172.903921
 30
0.0
  0
VERTEX
  8
0
 62
     7
  5
33A
 10
-401.359334
 20
173.007936
 30
0.0
  0
VERTEX
  8
0
 62
     7
  5
33B
 10
-401.301424
 20
173.124347
 30
0.0
  0
VERTEX
  8
0
 62
     7
  5
33C
 10
-401.247239
 20
173.252418
 30
0.0
  0
VERTEX
  8
0
 62
     7
  5
33D
 10
-401.197121
 20
173.391338
 30
0.0
  0
VERTEX
  8
0
 62
     7
  5
33E
 10
-401.151388
 20
173.540229
 30
0.0
  0
VERTEX
  8
0
 62
     7
  5
33F
 10
-401.110328
 20
173.698149
 30
0.0
  0
VERTEX
  8
0
 62
     7
  5
340
 10
-401.074201
 20
173.864097
 30
0.0
  0
VERTEX
  8
0
 62
     7
  5
341
 10
-401.043237
 20
174.037024
 30
0.0
  0
VERTEX
  8
0
 62
     7
  5
342
 10
-401.017631
 20
174.215835
 30
0.0
  0
VERTEX
  8
0
 62
     7
  5
343
 10
-400.997546
 20
174.399399
 30
0.0
  0
VERTEX
  8
0
 62
     7
  5
344
 10
-400.983107
 20
174.586554
 30
0.0
  0
VERTEX
  8
0
 62
     7
  5
345
 10
-400.974407
 20
174.776116
 30
0.0
  0
VERTEX
  8
0
 62
     7
  5
346
 10
-400.971501
 20
174.966886
 30
0.0
  0
VERTEX
  8
0
 62
     7
  5
347
 10
-400.974407
 20
175.157655
 30
0.0
  0
VERTEX
  8
0
 62
     7
  5
348
 10
-400.983107
 20
175.347217
 30
0.0
  0
VERTEX
  8
0
 62
     7
  5
349
 10
-400.997546
 20
175.534372
 30
0.0
  0
VERTEX
  8
0
 62
     7
  5
34A
 10
-401.017631
 20
175.717936
 30
0.0
  0
VERTEX
  8
0
 62
     7
  5
34B
 10
-401.043237
 20
175.896748
 30
0.0
  0
VERTEX
  8
0
 62
     7
  5
34C
 10
-401.074201
 20
176.069674
 30
0.0
  0
VERTEX
  8
0
 62
     7
  5
34D
 10
-401.110328
 20
176.235623
 30
0.0
  0
VERTEX
  8
0
 62
     7
  5
34E
 10
-401.151388
 20
176.393542
 30
0.0
  0
VERTEX
  8
0
 62
     7
  5
34F
 10
-401.197121
 20
176.542433
 30
0.0
  0
VERTEX
  8
0
 62
     7
  5
350
 10
-401.247239
 20
176.681353
 30
0.0
  0
VERTEX
  8
0
 62
     7
  5
351
 10
-401.301424
 20
176.809424
 30
0.0
  0
VERTEX
  8
0
 62
     7
  5
352
 10
-401.359334
 20
176.925835
 30
0.0
  0
VERTEX
  8
0
 62
     7
  5
353
 10
-401.420601
 20
177.02985
 30
0.0
  0
VERTEX
  8
0
 62
     7
  5
354
 10
-401.484838
 20
177.120809
 30
0.0
  0
VERTEX
  8
0
 62
     7
  5
355
 10
-401.551639
 20
177.198138
 30
0.0
  0
VERTEX
  8
0
 62
     7
  5
356
 10
-401.620581
 20
177.261347
 30
0.0
  0
VERTEX
  8
0
 62
     7
  5
357
 10
-401.691227
 20
177.310036
 30
0.0
  0
VERTEX
  8
0
 62
     7
  5
358
 10
-401.763131
 20
177.343897
 30
0.0
  0
SEQEND
  8
0
  5
359
  0
POLYLINE
  8
0
  6
CONTINUOUS
 62
     7
  5
35A
 66
     1
 10
0.0
 20
0.0
 30
0.0
 40
0.1
 41
0.1
  0
VERTEX
  8
0
 62
     7
  5
35B
 10
-406.274783
 20
177.671816
 30
0.0
  0
VERTEX
  8
0
 62
     7
  5
35C
 10
-406.358479
 20
177.603624
 30
0.0
  0
VERTEX
  8
0
 62
     7
  5
35D
 10
-406.439762
 20
177.51778
 30
0.0
  0
VERTEX
  8
0
 62
     7
  5
35E
 10
-406.518087
 20
177.414859
 30
0.0
  0
VERTEX
  8
0
 62
     7
  5
35F
 10
-406.59293
 20
177.295551
 30
0.0
  0
VERTEX
  8
0
 62
     7
  5
360
 10
-406.66379
 20
177.160653
 30
0.0
  0
VERTEX
  8
0
 62
     7
  5
361
 10
-406.730193
 20
177.01107
 30
0.0
  0
VERTEX
  8
0
 62
     7
  5
362
 10
-406.791694
 20
176.847802
 30
0.0
  0
VERTEX
  8
0
 62
     7
  5
363
 10
-406.847881
 20
176.671943
 30
0.0
  0
VERTEX
  8
0
 62
     7
  5
364
 10
-406.898378
 20
176.484669
 30
0.0
  0
VERTEX
  8
0
 62
     7
  5
365
 10
-406.942848
 20
176.287235
 30
0.0
  0
VERTEX
  8
0
 62
     7
  5
366
 10
-406.980992
 20
176.080961
 30
0.0
  0
VERTEX
  8
0
 62
     7
  5
367
 10
-407.012555
 20
175.86723
 30
0.0
  0
VERTEX
  8
0
 62
     7
  5
368
 10
-407.037326
 20
175.647471
 30
0.0
  0
VERTEX
  8
0
 62
     7
  5
369
 10
-407.055139
 20
175.423156
 30
0.0
  0
VERTEX
  8
0
 62
     7
  5
36A
 10
-407.065874
 20
175.195787
 30
0.0
  0
VERTEX
  8
0
 62
     7
  5
36B
 10
-407.069461
 20
174.966885
 30
0.0
  0
VERTEX
  8
0
 62
     7
  5
36C
 10
-407.065874
 20
174.737984
 30
0.0
  0
VERTEX
  8
0
 62
     7
  5
36D
 10
-407.055139
 20
174.510615
 30
0.0
  0
VERTEX
  8
0
 62
     7
  5
36E
 10
-407.037326
 20
174.2863
 30
0.0
  0
VERTEX
  8
0
 62
     7
  5
36F
 10
-407.012555
 20
174.066541
 30
0.0
  0
VERTEX
  8
0
 62
     7
  5
370
 10
-406.980992
 20
173.85281
 30
0.0
  0
VERTEX
  8
0
 62
     7
  5
371
 10
-406.942848
 20
173.646536
 30
0.0
  0
VERTEX
  8
0
 62
     7
  5
372
 10
-406.898378
 20
173.449102
 30
0.0
  0
VERTEX
  8
0
 62
     7
  5
373
 10
-406.847881
 20
173.261828
 30
0.0
  0
VERTEX
  8
0
 62
     7
  5
374
 10
-406.791694
 20
173.085969
 30
0.0
  0
VERTEX
  8
0
 62
     7
  5
375
 10
-406.730193
 20
172.922701
 30
0.0
  0
VERTEX
  8
0
 62
     7
  5
376
 10
-406.66379
 20
172.773118
 30
0.0
  0
VERTEX
  8
0
 62
     7
  5
377
 10
-406.59293
 20
172.63822
 30
0.0
  0
VERTEX
  8
0
 62
     7
  5
378
 10
-406.518087
 20
172.518912
 30
0.0
  0
VERTEX
  8
0
 62
     7
  5
379
 10
-406.439762
 20
172.415991
 30
0.0
  0
VERTEX
  8
0
 62
     7
  5
37A
 10
-406.358479
 20
172.330147
 30
0.0
  0
VERTEX
  8
0
 62
     7
  5
37B
 10
-406.274783
 20
172.261955
 30
0.0
  0
SEQEND
  8
0
  5
37C
  0
LINE
  8
0
  6
CONTINUOUS
 62
     7
  5
37E
 10
-404.384468
 20
171.666866
 30
0.0
 11
-404.210105
 21
171.698473
 31
0.0
  0
POLYLINE
  8
0
  6
CONTINUOUS
 62
     7
  5
37F
 66
     1
 10
0.0
 20
0.0
 30
0.0
 40
0.1
 41
0.1
  0
VERTEX
  8
0
 62
     7
  5
380
 10
-404.384483
 20
178.266905
 30
0.0
  0
VERTEX
  8
0
 62
     7
  5
381
 10
-404.494548
 20
178.254345
 30
0.0
  0
VERTEX
  8
0
 62
     7
  5
382
 10
-404.603776
 20
178.216765
 30
0.0
  0
VERTEX
  8
0
 62
     7
  5
383
 10
-404.711335
 20
178.154452
 30
0.0
  0
VERTEX
  8
0
 62
     7
  5
384
 10
-404.816406
 20
178.06788
 30
0.0
  0
VERTEX
  8
0
 62
     7
  5
385
 10
-404.91819
 20
177.957707
 30
0.0
  0
VERTEX
  8
0
 62
     7
  5
386
 10
-405.015912
 20
177.824773
 30
0.0
  0
VERTEX
  8
0
 62
     7
  5
387
 10
-405.108828
 20
177.670088
 30
0.0
  0
VERTEX
  8
0
 62
     7
  5
388
 10
-405.196232
 20
177.494831
 30
0.0
  0
VERTEX
  8
0
 62
     7
  5
389
 10
-405.277458
 20
177.300334
 30
0.0
  0
VERTEX
  8
0
 62
     7
  5
38A
 10
-405.351887
 20
177.088078
 30
0.0
  0
VERTEX
  8
0
 62
     7
  5
38B
 10
-405.418954
 20
176.859679
 30
0.0
  0
VERTEX
  8
0
 62
     7
  5
38C
 10
-405.478148
 20
176.616875
 30
0.0
  0
VERTEX
  8
0
 62
     7
  5
38D
 10
-405.529018
 20
176.361514
 30
0.0
  0
VERTEX
  8
0
 62
     7
  5
38E
 10
-405.571178
 20
176.095538
 30
0.0
  0
VERTEX
  8
0
 62
     7
  5
38F
 10
-405.604306
 20
175.820973
 30
0.0
  0
VERTEX
  8
0
 62
     7
  5
390
 10
-405.628151
 20
175.539907
 30
0.0
  0
VERTEX
  8
0
 62
     7
  5
391
 10
-405.64253
 20
175.254481
 30
0.0
  0
VERTEX
  8
0
 62
     7
  5
392
 10
-405.647335
 20
174.966866
 30
0.0
  0
VERTEX
  8
0
 62
     7
  5
393
 10
-405.642529
 20
174.679251
 30
0.0
  0
VERTEX
  8
0
 62
     7
  5
394
 10
-405.628148
 20
174.393825
 30
0.0
  0
VERTEX
  8
0
 62
     7
  5
395
 10
-405.604302
 20
174.112761
 30
0.0
  0
VERTEX
  8
0
 62
     7
  5
396
 10
-405.571173
 20
173.838196
 30
0.0
  0
VERTEX
  8
0
 62
     7
  5
397
 10
-405.529012
 20
173.572222
 30
0.0
  0
VERTEX
  8
0
 62
     7
  5
398
 10
-405.47814
 20
173.316862
 30
0.0
  0
VERTEX
  8
0
 62
     7
  5
399
 10
-405.418945
 20
173.07406
 30
0.0
  0
VERTEX
  8
0
 62
     7
  5
39A
 10
-405.351877
 20
172.845663
 30
0.0
  0
VERTEX
  8
0
 62
     7
  5
39B
 10
-405.277447
 20
172.63341
 30
0.0
  0
VERTEX
  8
0
 62
     7
  5
39C
 10
-405.19622
 20
172.438915
 30
0.0
  0
VERTEX
  8
0
 62
     7
  5
39D
 10
-405.108816
 20
172.263661
 30
0.0
  0
VERTEX
  8
0
 62
     7
  5
39E
 10
-405.015899
 20
172.108979
 30
0.0
  0
VERTEX
  8
0
 62
     7
  5
39F
 10
-404.918176
 20
171.976047
 30
0.0
  0
VERTEX
  8
0
 62
     7
  5
3A0
 10
-404.816392
 20
171.865878
 30
0.0
  0
VERTEX
  8
0
 62
     7
  5
3A1
 10
-404.71132
 20
171.779309
 30
0.0
  0
VERTEX
  8
0
 62
     7
  5
3A2
 10
-404.603761
 20
171.716999
 30
0.0
  0
VERTEX
  8
0
 62
     7
  5
3A3
 10
-404.494533
 20
171.679423
 30
0.0
  0
VERTEX
  8
0
 62
     7
  5
3A4
 10
-404.384468
 20
171.666866
 30
0.0
  0
SEQEND
  8
0
  5
3A5
  0
POLYLINE
  8
0
  6
CONTINUOUS
 62
     7
  5
3A6
 66
     1
 10
0.0
 20
0.0
 30
0.0
 40
0.1
 41
0.1
  0
VERTEX
  8
0
 62
     7
  5
3A7
 10
-407.216337
 20
178.685974
 30
0.0
  0
VERTEX
  8
0
 62
     7
  5
3A8
 10
-407.288608
 20
178.760741
 30
0.0
  0
VERTEX
  8
0
 62
     7
  5
3A9
 10
-407.362224
 20
178.825926
 30
0.0
  0
VERTEX
  8
0
 62
     7
  5
3AA
 10
-407.437002
 20
178.881364
 30
0.0
  0
VERTEX
  8
0
 62
     7
  5
3AB
 10
-407.51275
 20
178.926915
 30
0.0
  0
VERTEX
  8
0
 62
     7
  5
3AC
 10
-407.589279
 20
178.962463
 30
0.0
  0
VERTEX
  8
0
 62
     7
  5
3AD
 10
-407.666394
 20
178.987918
 30
0.0
  0
VERTEX
  8
0
 62
     7
  5
3AE
 10
-407.743902
 20
179.003217
 30
0.0
  0
VERTEX
  8
0
 62
     7
  5
3AF
 10
-407.821606
 20
179.008321
 30
0.0
  0
SEQEND
  8
0
  5
3B0
  0
POLYLINE
  8
0
  6
CONTINUOUS
 62
     7
  5
3B1
 66
     1
 10
0.0
 20
0.0
 30
0.0
 40
0.1
 41
0.1
  0
VERTEX
  8
0
 62
     7
  5
3B2
 10
-408.822611
 20
179.008321
 30
0.0
  0
VERTEX
  8
0
 62
     7
  5
3B3
 10
-408.905136
 20
179.002564
 30
0.0
  0
VERTEX
  8
0
 62
     7
  5
3B4
 10
-408.987426
 20
178.985308
 30
0.0
  0
VERTEX
  8
0
 62
     7
  5
3B5
 10
-409.069247
 20
178.956602
 30
0.0
  0
VERTEX
  8
0
 62
     7
  5
3B6
 10
-409.150365
 20
178.916528
 30
0.0
  0
VERTEX
  8
0
 62
     7
  5
3B7
 10
-409.230549
 20
178.865201
 30
0.0
  0
VERTEX
  8
0
 62
     7
  5
3B8
 10
-409.30957
 20
178.802767
 30
0.0
  0
VERTEX
  8
0
 62
     7
  5
3B9
 10
-409.387204
 20
178.729403
 30
0.0
  0
VERTEX
  8
0
 62
     7
  5
3BA
 10
-409.46323
 20
178.645319
 30
0.0
  0
SEQEND
  8
0
  5
3BB
  0
POLYLINE
  8
0
  6
CONTINUOUS
 62
     7
  5
3BC
 66
     1
 10
0.0
 20
0.0
 30
0.0
 40
0.1
 41
0.1
  0
VERTEX
  8
0
 62
     7
  5
3BD
 10
-407.821606
 20
170.92545
 30
0.0
  0
VERTEX
  8
0
 62
     7
  5
3BE
 10
-407.743902
 20
170.930554
 30
0.0
  0
VERTEX
  8
0
 62
     7
  5
3BF
 10
-407.666395
 20
170.945853
 30
0.0
  0
VERTEX
  8
0
 62
     7
  5
3C0
 10
-407.589279
 20
170.971308
 30
0.0
  0
VERTEX
  8
0
 62
     7
  5
3C1
 10
-407.512751
 20
171.006856
 30
0.0
  0
VERTEX
  8
0
 62
     7
  5
3C2
 10
-407.437002
 20
171.052406
 30
0.0
  0
VERTEX
  8
0
 62
     7
  5
3C3
 10
-407.362225
 20
171.107844
 30
0.0
  0
VERTEX
  8
0
 62
     7
  5
3C4
 10
-407.288609
 20
171.173029
 30
0.0
  0
VERTEX
  8
0
 62
     7
  5
3C5
 10
-407.216338
 20
171.247796
 30
0.0
  0
SEQEND
  8
0
  5
3C6
  0
POLYLINE
  8
0
  6
CONTINUOUS
 62
     7
  5
3C7
 66
     1
 10
0.0
 20
0.0
 30
0.0
 40
0.1
 41
0.1
  0
VERTEX
  8
0
 62
     7
  5
3C8
 10
-407.821606
 20
179.008321
 30
0.0
  0
VERTEX
  8
0
 62
     7
  5
3C9
 10
-407.9564
 20
178.992943
 30
0.0
  0
VERTEX
  8
0
 62
     7
  5
3CA
 10
-408.090169
 20
178.946923
 30
0.0
  0
VERTEX
  8
0
 62
     7
  5
3CB
 10
-408.221893
 20
178.870613
 30
0.0
  0
VERTEX
  8
0
 62
     7
  5
3CC
 10
-408.350571
 20
178.764593
 30
0.0
  0
VERTEX
  8
0
 62
     7
  5
3CD
 10
-408.475224
 20
178.62967
 30
0.0
  0
VERTEX
  8
0
 62
     7
  5
3CE
 10
-408.594902
 20
178.466872
 30
0.0
  0
VERTEX
  8
0
 62
     7
  5
3CF
 10
-408.708695
 20
178.277436
 30
0.0
  0
VERTEX
  8
0
 62
     7
  5
3D0
 10
-408.815736
 20
178.062805
 30
0.0
  0
VERTEX
  8
0
 62
     7
  5
3D1
 10
-408.915212
 20
177.824612
 30
0.0
  0
VERTEX
  8
0
 62
     7
  5
3D2
 10
-409.006364
 20
177.56467
 30
0.0
  0
VERTEX
  8
0
 62
     7
  5
3D3
 10
-409.0885
 20
177.284958
 30
0.0
  0
VERTEX
  8
0
 62
     7
  5
3D4
 10
-409.160994
 20
176.987603
 30
0.0
  0
VERTEX
  8
0
 62
     7
  5
3D5
 10
-409.223295
 20
176.67487
 30
0.0
  0
VERTEX
  8
0
 62
     7
  5
3D6
 10
-409.274927
 20
176.349138
 30
0.0
  0
VERTEX
  8
0
 62
     7
  5
3D7
 10
-409.315499
 20
176.012886
 30
0.0
  0
VERTEX
  8
0
 62
     7
  5
3D8
 10
-409.344702
 20
175.668674
 30
0.0
  0
VERTEX
  8
0
 62
     7
  5
3D9
 10
-409.362313
 20
175.31912
 30
0.0
  0
VERTEX
  8
0
 62
     7
  5
3DA
 10
-409.368198
 20
174.966886
 30
0.0
  0
VERTEX
  8
0
 62
     7
  5
3DB
 10
-409.362313
 20
174.614651
 30
0.0
  0
VERTEX
  8
0
 62
     7
  5
3DC
 10
-409.344702
 20
174.265098
 30
0.0
  0
VERTEX
  8
0
 62
     7
  5
3DD
 10
-409.315499
 20
173.920885
 30
0.0
  0
VERTEX
  8
0
 62
     7
  5
3DE
 10
-409.274927
 20
173.584633
 30
0.0
  0
VERTEX
  8
0
 62
     7
  5
3DF
 10
-409.223295
 20
173.258901
 30
0.0
  0
VERTEX
  8
0
 62
     7
  5
3E0
 10
-409.160994
 20
172.946168
 30
0.0
  0
VERTEX
  8
0
 62
     7
  5
3E1
 10
-409.0885
 20
172.648813
 30
0.0
  0
VERTEX
  8
0
 62
     7
  5
3E2
 10
-409.006364
 20
172.369101
 30
0.0
  0
VERTEX
  8
0
 62
     7
  5
3E3
 10
-408.915212
 20
172.109159
 30
0.0
  0
VERTEX
  8
0
 62
     7
  5
3E4
 10
-408.815736
 20
171.870966
 30
0.0
  0
VERTEX
  8
0
 62
     7
  5
3E5
 10
-408.708695
 20
171.656335
 30
0.0
  0
VERTEX
  8
0
 62
     7
  5
3E6
 10
-408.594902
 20
171.466899
 30
0.0
  0
VERTEX
  8
0
 62
     7
  5
3E7
 10
-408.475224
 20
171.304101
 30
0.0
  0
VERTEX
  8
0
 62
     7
  5
3E8
 10
-408.350571
 20
171.169178
 30
0.0
  0
VERTEX
  8
0
 62
     7
  5
3E9
 10
-408.221893
 20
171.063158
 30
0.0
  0
VERTEX
  8
0
 62
     7
  5
3EA
 10
-408.090169
 20
170.986848
 30
0.0
  0
VERTEX
  8
0
 62
     7
  5
3EB
 10
-407.9564
 20
170.940829
 30
0.0
  0
VERTEX
  8
0
 62
     7
  5
3EC
 10
-407.821606
 20
170.92545
 30
0.0
  0
SEQEND
  8
0
  5
3ED
  0
ARC
  8
0
  6
CONTINUOUS
 62
     7
  5
3EE
 10
-404.394943
 20
174.966883
 30
0.0
 40
6.449844
 50
154.364232
 51
205.63563
210
0.0
220
0.0
230
1.0
  0
POLYLINE
  8
0
  6
CONTINUOUS
 62
     7
  5
3EF
 66
     1
 10
0.0
 20
0.0
 30
0.0
 40
0.1
 41
0.1
  0
VERTEX
  8
0
 62
     7
  5
3F0
 10
-409.46323
 20
171.288452
 30
0.0
  0
VERTEX
  8
0
 62
     7
  5
3F1
 10
-409.387204
 20
171.204368
 30
0.0
  0
VERTEX
  8
0
 62
     7
  5
3F2
 10
-409.30957
 20
171.131004
 30
0.0
  0
VERTEX
  8
0
 62
     7
  5
3F3
 10
-409.230549
 20
171.06857
 30
0.0
  0
VERTEX
  8
0
 62
     7
  5
3F4
 10
-409.150365
 20
171.017243
 30
0.0
  0
VERTEX
  8
0
 62
     7
  5
3F5
 10
-409.069247
 20
170.977169
 30
0.0
  0
VERTEX
  8
0
 62
     7
  5
3F6
 10
-408.987426
 20
170.948463
 30
0.0
  0
VERTEX
  8
0
 62
     7
  5
3F7
 10
-408.905136
 20
170.931207
 30
0.0
  0
VERTEX
  8
0
 62
     7
  5
3F8
 10
-408.822611
 20
170.92545
 30
0.0
  0
SEQEND
  8
0
  5
3F9
  0
POLYLINE
  8
0
  6
CONTINUOUS
 62
     7
  5
3FA
 66
     1
 10
0.0
 20
0.0
 30
0.0
 40
0.1
 41
0.1
  0
VERTEX
  8
0
 62
     7
  5
3FB
 10
-409.46323
 20
178.645319
 30
0.0
  0
VERTEX
  8
0
 62
     7
  5
3FC
 10
-409.575965
 20
178.496446
 30
0.0
  0
VERTEX
  8
0
 62
     7
  5
3FD
 10
-409.683674
 20
178.32403
 30
0.0
  0
VERTEX
  8
0
 62
     7
  5
3FE
 10
-409.78564
 20
178.129221
 30
0.0
  0
VERTEX
  8
0
 62
     7
  5
3FF
 10
-409.881183
 20
177.913318
 30
0.0
  0
VERTEX
  8
0
 62
     7
  5
400
 10
-409.969664
 20
177.677762
 30
0.0
  0
VERTEX
  8
0
 62
     7
  5
401
 10
-410.050495
 20
177.424124
 30
0.0
  0
VERTEX
  8
0
 62
     7
  5
402
 10
-410.123135
 20
177.154096
 30
0.0
  0
VERTEX
  8
0
 62
     7
  5
403
 10
-410.1871
 20
176.869478
 30
0.0
  0
VERTEX
  8
0
 62
     7
  5
404
 10
-410.241964
 20
176.57217
 30
0.0
  0
VERTEX
  8
0
 62
     7
  5
405
 10
-410.287361
 20
176.264154
 30
0.0
  0
VERTEX
  8
0
 62
     7
  5
406
 10
-410.322987
 20
175.947485
 30
0.0
  0
VERTEX
  8
0
 62
     7
  5
407
 10
-410.348606
 20
175.624275
 30
0.0
  0
VERTEX
  8
0
 62
     7
  5
408
 10
-410.364045
 20
175.29668
 30
0.0
  0
VERTEX
  8
0
 62
     7
  5
409
 10
-410.369204
 20
174.966886
 30
0.0
  0
VERTEX
  8
0
 62
     7
  5
40A
 10
-410.364045
 20
174.637091
 30
0.0
  0
VERTEX
  8
0
 62
     7
  5
40B
 10
-410.348606
 20
174.309496
 30
0.0
  0
VERTEX
  8
0
 62
     7
  5
40C
 10
-410.322987
 20
173.986286
 30
0.0
  0
VERTEX
  8
0
 62
     7
  5
40D
 10
-410.287361
 20
173.669617
 30
0.0
  0
VERTEX
  8
0
 62
     7
  5
40E
 10
-410.241964
 20
173.361601
 30
0.0
  0
VERTEX
  8
0
 62
     7
  5
40F
 10
-410.1871
 20
173.064293
 30
0.0
  0
VERTEX
  8
0
 62
     7
  5
410
 10
-410.123135
 20
172.779675
 30
0.0
  0
VERTEX
  8
0
 62
     7
  5
411
 10
-410.050495
 20
172.509647
 30
0.0
  0
VERTEX
  8
0
 62
     7
  5
412
 10
-409.969664
 20
172.256009
 30
0.0
  0
VERTEX
  8
0
 62
     7
  5
413
 10
-409.881183
 20
172.020453
 30
0.0
  0
VERTEX
  8
0
 62
     7
  5
414
 10
-409.78564
 20
171.80455
 30
0.0
  0
VERTEX
  8
0
 62
     7
  5
415
 10
-409.683674
 20
171.609741
 30
0.0
  0
VERTEX
  8
0
 62
     7
  5
416
 10
-409.575965
 20
171.437325
 30
0.0
  0
VERTEX
  8
0
 62
     7
  5
417
 10
-409.46323
 20
171.288452
 30
0.0
  0
SEQEND
  8
0
  5
418
  0
ARC
  8
0
  6
CONTINUOUS
 62
     7
  5
419
 10
-412.329942
 20
174.966886
 30
0.0
 40
4.000001
 50
52.423233
 51
307.576767
210
0.0
220
0.0
230
1.0
  0
LINE
  8
0
  6
CONTINUOUS
 62
     7
  5
41A
 10
-388.329943
 20
185.96689
 30
0.0
 11
-388.329943
 21
204.96689
 31
0.0
  0
LINE
  8
0
  6
CONTINUOUS
 62
     7
  5
41B
 10
-388.329943
 20
185.96689
 30
0.0
 11
-436.329943
 21
185.96689
 31
0.0
  0
LINE
  8
0
  6
CONTINUOUS
 62
     7
  5
41C
 10
-436.329943
 20
180.96689
 30
0.0
 11
-436.329943
 21
185.96689
 31
0.0
  0
LINE
  8
0
  6
CONTINUOUS
 62
     7
  5
41D
 10
-446.329943
 20
180.96689
 30
0.0
 11
-436.329943
 21
180.96689
 31
0.0
  0
LINE
  8
0
  6
CONTINUOUS
 62
     7
  5
41E
 10
-446.329943
 20
180.96689
 30
0.0
 11
-446.329943
 21
162.34189
 31
0.0
  0
LINE
  8
0
  6
CONTINUOUS
 62
     7
  5
41F
 10
-499.329943
 20
148.46689
 30
0.0
 11
-502.329943
 21
148.46689
 31
0.0
  0
LINE
  8
0
  6
CONTINUOUS
 62
     7
  5
420
 10
-502.329943
 20
148.46689
 30
0.0
 11
-502.329943
 21
191.96689
 31
0.0
  0
LINE
  8
0
  6
CONTINUOUS
 62
     7
  5
421
 10
-502.329943
 20
191.96689
 30
0.0
 11
-516.329943
 21
191.96689
 31
0.0
  0
LINE
  8
0
  6
CONTINUOUS
 62
     7
  5
422
 10
-516.329943
 20
191.96689
 30
0.0
 11
-516.329943
 21
199.96689
 31
0.0
  0
LINE
  8
0
  6
CONTINUOUS
 62
     7
  5
423
 10
-484.329943
 20
199.96689
 30
0.0
 11
-516.329943
 21
199.96689
 31
0.0
  0
LINE
  8
0
  6
CONTINUOUS
 62
     7
  5
424
 10
-484.329943
 20
204.96689
 30
0.0
 11
-484.329943
 21
199.96689
 31
0.0
  0
LINE
  8
0
  6
CONTINUOUS
 62
     7
  5
425
 10
-388.329943
 20
204.96689
 30
0.0
 11
-484.329943
 21
204.96689
 31
0.0
  0
ARC
  8
0
  6
CONTINUOUS
 62
     7
  5
426
 10
-495.204529
 20
177.96689
 30
0.0
 40
2.0
 50
270.0
 51
337.045832
210
0.0
220
0.0
230
1.0
  0
LINE
  8
0
  6
CONTINUOUS
 62
     7
  5
427
 10
-496.829943
 20
175.96689
 30
0.0
 11
-495.204529
 21
175.96689
 31
0.0
  0
ARC
  8
0
  6
CONTINUOUS
 62
     7
  5
428
 10
-496.829943
 20
174.96689
 30
0.0
 40
1.0
 50
90.0
 51
180.0
210
0.0
220
0.0
230
1.0
  0
LINE
  8
0
  6
CONTINUOUS
 62
     7
  5
429
 10
-497.829943
 20
164.96689
 30
0.0
 11
-497.829943
 21
174.96689
 31
0.0
  0
ARC
  8
0
  6
CONTINUOUS
 62
     7
  5
42A
 10
-496.829943
 20
164.96689
 30
0.0
 40
1.0
 50
180.0
 51
253.292794
210
0.0
220
0.0
230
1.0
  0
ARC
  8
0
  6
CONTINUOUS
 62
     7
  5
42B
 10
-476.329943
 20
169.96689
 30
0.0
 40
18.5
 50
44.644246
 51
157.028647
210
0.0
220
0.0
230
1.0
  0
LINE
  8
0
  6
CONTINUOUS
 62
     7
  5
42C
 10
-388.629952
 20
153.766905
 30
0.0
 11
-388.629952
 21
178.966864
 31
0.0
  0
LINE
  8
0
  6
CONTINUOUS
 62
     7
  5
42D
 10
-390.629967
 20
151.766891
 30
0.0
 11
-388.629952
 21
153.766905
 31
0.0
  0
LINE
  8
0
  6
CONTINUOUS
 62
     7
  5
42E
 10
-401.529904
 20
151.766891
 30
0.0
 11
-390.629967
 21
151.766891
 31
0.0
  0
LINE
  8
0
  6
CONTINUOUS
 62
     7
  5
42F
 10
-434.029932
 20
151.766891
 30
0.0
 11
-423.129974
 21
151.766891
 31
0.0
  0
LINE
  8
0
  6
CONTINUOUS
 62
     7
  5
430
 10
-436.029934
 20
153.766893
 30
0.0
 11
-434.029932
 21
151.766891
 31
0.0
  0
LINE
  8
0
  6
CONTINUOUS
 62
     7
  5
431
 10
-436.029934
 20
178.966863
 30
0.0
 11
-436.029934
 21
153.766893
 31
0.0
  0
LINE
  8
0
  6
CONTINUOUS
 62
     7
  5
432
 10
-434.029913
 20
180.966886
 30
0.0
 11
-436.029934
 21
178.966863
 31
0.0
  0
LINE
  8
0
  6
CONTINUOUS
 62
     7
  5
433
 10
-390.629972
 20
180.966886
 30
0.0
 11
-434.029913
 21
180.966886
 31
0.0
  0
LINE
  8
0
  6
CONTINUOUS
 62
     7
  5
434
 10
-388.629952
 20
178.966864
 30
0.0
 11
-390.629972
 21
180.966886
 31
0.0
  0
LINE
  8
0
  6
CONTINUOUS
 62
     9
  5
435
 10
-492.329943
 20
204.96689
 30
0.0
 11
-492.329943
 21
199.96689
 31
0.0
  0
LINE
  8
0
  6
CONTINUOUS
 62
     7
  5
436
 10
-492.329943
 20
204.96689
 30
0.0
 11
-484.329943
 21
204.96689
 31
0.0
  0
LINE
  8
0
  6
CONTINUOUS
 62
     7
  5
437
 10
-436.029934
 20
153.8169
 30
0.0
 11
-436.329943
 21
154.116909
 31
0.0
  0
LINE
  8
0
  6
CONTINUOUS
 62
     7
  5
438
 10
-436.079943
 20
160.516895
 30
0.0
 11
-436.079943
 21
177.716918
 31
0.0
  0
LINE
  8
0
  6
CONTINUOUS
 62
     7
  5
439
 10
-436.079943
 20
177.716918
 30
0.0
 11
-436.329943
 21
177.96692
 31
0.0
  0
LINE
  8
0
  6
CONTINUOUS
 62
     7
  5
43A
 10
-436.329943
 20
184.466871
 30
0.0
 11
-434.829922
 21
185.96689
 31
0.0
  0
LINE
  8
0
  6
CONTINUOUS
 62
     7
  5
43B
 10
-389.829967
 20
185.96689
 30
0.0
 11
-388.329947
 21
184.466867
 31
0.0
  0
LINE
  8
0
  6
CONTINUOUS
 62
     7
  5
43C
 10
-388.329947
 20
184.466867
 30
0.0
 11
-388.329947
 21
177.966934
 31
0.0
  0
LINE
  8
0
  6
CONTINUOUS
 62
     7
  5
43D
 10
-388.329947
 20
177.966934
 30
0.0
 11
-388.579943
 21
177.716939
 31
0.0
  0
LINE
  8
0
  6
CONTINUOUS
 62
     7
  5
43E
 10
-388.579943
 20
177.716939
 30
0.0
 11
-388.579943
 21
160.516873
 31
0.0
  0
LINE
  8
0
  6
CONTINUOUS
 62
     7
  5
43F
 10
-388.579943
 20
160.516873
 30
0.0
 11
-388.229946
 21
160.166876
 31
0.0
  0
LINE
  8
0
  6
CONTINUOUS
 62
     7
  5
440
 10
-388.229946
 20
160.166876
 30
0.0
 11
-388.229946
 21
154.166911
 31
0.0
  0
LINE
  8
0
  6
CONTINUOUS
 62
     7
  5
441
 10
-436.329943
 20
154.116909
 30
0.0
 11
-436.329943
 21
160.266895
 31
0.0
  0
LINE
  8
0
  6
CONTINUOUS
 62
     7
  5
442
 10
-436.329943
 20
160.266895
 30
0.0
 11
-436.079943
 21
160.516895
 31
0.0
  0
LINE
  8
0
  6
CONTINUOUS
 62
     7
  5
443
 10
-436.329943
 20
177.96692
 30
0.0
 11
-436.329943
 21
180.96689
 31
0.0
  0
LINE
  8
0
  6
CONTINUOUS
 62
     7
  5
444
 10
-388.229946
 20
154.166911
 30
0.0
 11
-388.629952
 21
153.766905
 31
0.0
  0
LINE
  8
0
  6
CONTINUOUS
 62
     7
  5
445
 10
-516.329943
 20
204.96689
 30
0.0
 11
-516.329943
 21
199.96689
 31
0.0
  0
LINE
  8
0
  6
CONTINUOUS
 62
     7
  5
446
 10
-492.329943
 20
204.96689
 30
0.0
 11
-516.329943
 21
204.96689
 31
0.0
  0
LINE
  8
0
  6
CONTINUOUS
 62
     9
  5
447
 10
-512.329943
 20
107.96689
 30
0.0
 11
-510.329943
 21
107.96689
 31
0.0
  0
LINE
  8
0
  6
CONTINUOUS
 62
     9
  5
448
 10
-510.329943
 20
105.96689
 30
0.0
 11
-510.329943
 21
107.96689
 31
0.0
  0
ARC
  8
0
  6
CONTINUOUS
 62
     7
  5
449
 10
-510.329943
 20
107.96689
 30
0.0
 40
2.0
 50
180.0
 51
270.0
210
0.0
220
0.0
230
1.0
  0
LINE
  8
0
  6
CONTINUOUS
 62
     9
  5
44A
 10
-394.329943
 20
107.96689
 30
0.0
 11
-394.329943
 21
143.96689
 31
0.0
  0
LINE
  8
0
  6
CONTINUOUS
 62
     9
  5
44B
 10
-394.329943
 20
143.96689
 30
0.0
 11
-392.329943
 21
143.96689
 31
0.0
  0
LINE
  8
0
  6
CONTINUOUS
 62
     7
  5
44C
 10
-392.329943
 20
143.96689
 30
0.0
 11
-392.329943
 21
107.96689
 31
0.0
  0
LINE
  8
0
  6
CONTINUOUS
 62
     9
  5
44D
 10
-394.329943
 20
107.96689
 30
0.0
 11
-392.329943
 21
107.96689
 31
0.0
  0
LINE
  8
0
  6
CONTINUOUS
 62
     7
  5
44E
 10
-512.329943
 20
107.96689
 30
0.0
 11
-512.329943
 21
143.96689
 31
0.0
  0
LINE
  8
0
  6
CONTINUOUS
 62
     9
  5
44F
 10
-512.329943
 20
143.96689
 30
0.0
 11
-510.329943
 21
143.96689
 31
0.0
  0
LINE
  8
0
  6
CONTINUOUS
 62
     9
  5
450
 10
-510.329943
 20
143.96689
 30
0.0
 11
-510.329943
 21
107.96689
 31
0.0
  0
LINE
  8
0
  6
CONTINUOUS
 62
     9
  5
451
 10
-394.329943
 20
143.96689
 30
0.0
 11
-394.329943
 21
145.96689
 31
0.0
  0
ARC
  8
0
  6
CONTINUOUS
 62
     7
  5
452
 10
-394.329943
 20
143.96689
 30
0.0
 40
2.0
 50
360.0
 51
90.0
210
0.0
220
0.0
230
1.0
  0
LINE
  8
0
  6
CONTINUOUS
 62
     9
  5
453
 10
-510.329943
 20
145.96689
 30
0.0
 11
-510.329943
 21
143.96689
 31
0.0
  0
ARC
  8
0
  6
CONTINUOUS
 62
     7
  5
454
 10
-510.329943
 20
143.96689
 30
0.0
 40
2.0
 50
90.0
 51
180.0
210
0.0
220
0.0
230
1.0
  0
LINE
  8
0
  6
CONTINUOUS
 62
     9
  5
455
 10
-394.329943
 20
143.96689
 30
0.0
 11
-510.329943
 21
143.96689
 31
0.0
  0
LINE
  8
0
  6
CONTINUOUS
 62
     7
  5
456
 10
-510.329943
 20
145.96689
 30
0.0
 11
-394.329943
 21
145.96689
 31
0.0
  0
LINE
  8
0
  6
CONTINUOUS
 62
     9
  5
457
 10
-510.329943
 20
107.96689
 30
0.0
 11
-394.329943
 21
107.96689
 31
0.0
  0
LINE
  8
0
  6
CONTINUOUS
 62
     9
  5
458
 10
-394.329943
 20
107.96689
 30
0.0
 11
-394.329943
 21
105.96689
 31
0.0
  0
LINE
  8
0
  6
CONTINUOUS
 62
     7
  5
459
 10
-394.329943
 20
105.96689
 30
0.0
 11
-510.329943
 21
105.96689
 31
0.0
  0
ARC
  8
0
  6
CONTINUOUS
 62
     7
  5
45A
 10
-394.329943
 20
107.96689
 30
0.0
 40
2.0
 50
270.0
 51
360.0
210
0.0
220
0.0
230
1.0
  0
LINE
  8
0
  6
CONTINUOUS
 62
     7
  5
45B
 10
-499.329943
 20
160.96689
 30
0.0
 11
-483.329943
 21
182.96689
 31
0.0
  0
LINE
  8
0
  6
CONTINUOUS
 62
     7
  5
45C
 10
-461.329943
 20
182.96689
 30
0.0
 11
-483.329943
 21
182.96689
 31
0.0
  0
LINE
  8
0
  6
CONTINUOUS
 62
     7
  5
45D
 10
-499.329943
 20
160.96689
 30
0.0
 11
-499.329943
 21
145.96689
 31
0.0
  0
LINE
  8
0
  6
CONTINUOUS
 62
     7
  5
45E
 10
-445.329943
 20
160.96689
 30
0.0
 11
-445.329943
 21
145.96689
 31
0.0
  0
LINE
  8
0
  6
CONTINUOUS
 62
     7
  5
45F
 10
-461.329943
 20
182.96689
 30
0.0
 11
-445.329943
 21
160.96689
 31
0.0
  0
LINE
  8
0
  6
CONTINUOUS
 62
     7
  5
460
 10
-445.329943
 20
158.96689
 30
0.0
 11
-444.329943
 21
157.96689
 31
0.0
  0
LINE
  8
0
  6
CONTINUOUS
 62
     7
  5
461
 10
-444.329943
 20
157.96689
 30
0.0
 11
-444.329943
 21
145.96689
 31
0.0
  0
LINE
  8
0
  6
CONTINUOUS
 62
     7
  5
462
 10
-421.129951
 20
153.766914
 30
0.0
 11
-421.129951
 21
158.846923
 31
0.0
  0
LINE
  8
0
  6
CONTINUOUS
 62
     7
  5
463
 10
-421.129951
 20
158.846923
 30
0.0
 11
-421.94157
 21
159.658544
 31
0.0
  0
ARC
  8
0
  6
CONTINUOUS
 62
     7
  5
464
 10
-423.972155
 20
159.424437
 30
0.0
 40
2.044035
 50
6.576644
 51
79.15876
210
0.0
220
0.0
230
1.0
  0
ARC
  8
0
  6
CONTINUOUS
 62
     7
  5
465
 10
-423.530097
 20
161.726409
 30
0.0
 40
0.3
 50
179.163134
 51
258.93068
210
0.0
220
0.0
230
1.0
  0
ARC
  8
0
  6
CONTINUOUS
 62
     7
  5
466
 10
-423.530097
 20
163.706649
 30
0.0
 40
0.3
 50
100.671542
 51
179.163134
210
0.0
220
0.0
230
1.0
  0
ARC
  8
0
  6
CONTINUOUS
 62
     7
  5
467
 10
-423.972155
 20
166.008621
 30
0.0
 40
2.044035
 50
280.899621
 51
351.713227
210
0.0
220
0.0
230
1.0
  0
LINE
  8
0
  6
CONTINUOUS
 62
     7
  5
468
 10
-400.829829
 20
163.706649
 30
0.0
 11
-400.829821
 21
161.726409
 31
0.0
  0
ARC
  8
0
  6
CONTINUOUS
 62
     7
  5
469
 10
-401.129829
 20
161.726409
 30
0.0
 40
0.3
 50
280.871391
 51
360.0
210
0.0
220
0.0
230
1.0
  0
ARC
  8
0
  6
CONTINUOUS
 62
     7
  5
46A
 10
-400.687731
 20
159.424437
 30
0.0
 40
2.044035
 50
100.871391
 51
173.422754
210
0.0
220
0.0
230
1.0
  0
LINE
  8
0
  6
CONTINUOUS
 62
     7
  5
46B
 10
-403.529975
 20
158.846904
 30
0.0
 11
-403.529975
 21
153.766962
 31
0.0
  0
LINE
  8
0
  6
CONTINUOUS
 62
     7
  5
46C
 10
-403.529975
 20
153.766962
 30
0.0
 11
-400.829943
 21
151.06693
 31
0.0
  0
LINE
  8
0
  6
CONTINUOUS
 62
     7
  5
46D
 10
-400.829943
 20
151.06693
 30
0.0
 11
-400.829943
 21
147.166892
 31
0.0
  0
LINE
  8
0
  6
CONTINUOUS
 62
     7
  5
46E
 10
-400.829943
 20
147.166892
 30
0.0
 11
-402.029947
 21
145.96689
 31
0.0
  0
LINE
  8
0
  6
CONTINUOUS
 62
     7
  5
46F
 10
-408.579992
 20
145.96689
 30
0.0
 11
-409.080007
 21
146.466905
 31
0.0
  0
ARC
  8
0
  6
CONTINUOUS
 62
     7
  5
470
 10
-421.653185
 20
165.6669
 30
0.0
 40
0.3
 50
89.487529
 51
170.963555
210
0.0
220
0.0
230
1.0
  0
ARC
  8
0
  6
CONTINUOUS
 62
     7
  5
471
 10
-403.006701
 20
165.6669
 30
0.0
 40
0.3
 50
7.728991
 51
89.487529
210
0.0
220
0.0
230
1.0
  0
ARC
  8
0
  6
CONTINUOUS
 62
     7
  5
472
 10
-401.129829
 20
163.706649
 30
0.0
 40
0.3
 50
360.0
 51
79.128609
210
0.0
220
0.0
230
1.0
  0
LINE
  8
0
  6
CONTINUOUS
 62
     7
  5
473
 10
-423.830065
 20
161.73079
 30
0.0
 11
-423.830065
 21
163.71103
 31
0.0
  0
LINE
  8
0
  6
CONTINUOUS
 62
     7
  5
474
 10
-409.080007
 20
146.466905
 30
0.0
 11
-415.5799
 21
146.466905
 31
0.0
  0
LINE
  8
0
  6
CONTINUOUS
 62
     7
  5
475
 10
-402.718312
 20
159.658566
 30
0.0
 11
-403.529975
 21
158.846904
 31
0.0
  0
LINE
  8
0
  6
CONTINUOUS
 62
     7
  5
476
 10
-415.5799
 20
146.466905
 30
0.0
 11
-416.079913
 21
145.96689
 31
0.0
  0
LINE
  8
0
  6
CONTINUOUS
 62
     7
  5
477
 10
-423.829943
 20
147.166908
 30
0.0
 11
-423.829943
 21
151.066922
 31
0.0
  0
LINE
  8
0
  6
CONTINUOUS
 62
     7
  5
478
 10
-421.650501
 20
165.966888
 30
0.0
 11
-403.004017
 21
165.966888
 31
0.0
  0
LINE
  8
0
  6
CONTINUOUS
 62
     7
  5
479
 10
-423.829943
 20
151.066922
 30
0.0
 11
-421.129951
 21
153.766914
 31
0.0
  0
LINE
  8
0
  6
CONTINUOUS
 62
     7
  5
47A
 10
-422.629925
 20
145.96689
 30
0.0
 11
-423.829943
 21
147.166908
 31
0.0
  0
ARC
  8
0
  6
CONTINUOUS
 62
     7
  5
47B
 10
-400.687731
 20
166.008621
 30
0.0
 40
2.044035
 50
188.478662
 51
259.128609
210
0.0
220
0.0
230
0.9999999999999999
  0
LINE
  8
0
  6
CONTINUOUS
 62
     7
  5
47C
 10
-404.210105
 20
171.698473
 30
0.0
 11
-401.763131
 21
172.589874
 31
0.0
  0
LINE
  8
0
  6
CONTINUOUS
 62
     7
  5
47D
 10
-401.763131
 20
177.343897
 30
0.0
 11
-404.210105
 21
178.235298
 31
0.0
  0
ARC
  8
0
  6
CONTINUOUS
 62
     7
  5
47E
 10
-404.384424
 20
174.966869
 30
0.0
 40
3.300002
 50
235.03567
 51
269.999116
210
0.0
220
0.0
230
1.0
  0
ARC
  8
0
  6
CONTINUOUS
 62
     7
  5
47F
 10
-404.384424
 20
174.966902
 30
0.0
 40
3.300002
 50
90.000948
 51
124.966325
210
0.0
220
0.0
230
1.0
  0
ARC
  8
0
  6
CONTINUOUS
 62
     7
  5
480
 10
-404.397761
 20
181.310906
 30
0.0
 40
3.851576
 50
222.962935
 51
244.857154
210
0.0
220
0.0
230
1.0
  0
ARC
  8
0
  6
CONTINUOUS
 62
     7
  5
481
 10
-404.425475
 20
168.660897
 30
0.0
 40
3.805387
 50
115.00488
 51
137.171686
210
0.0
220
0.0
230
1.0
  0
LINE
  8
0
  6
CONTINUOUS
 62
     7
  5
482
 10
-408.822611
 20
170.92545
 30
0.0
 11
-407.821606
 21
170.92545
 31
0.0
  0
LINE
  8
0
  6
CONTINUOUS
 62
     7
  5
483
 10
-407.821606
 20
179.008321
 30
0.0
 11
-408.822611
 21
179.008321
 31
0.0
  0
LINE
  8
0
  6
CONTINUOUS
 62
     7
  5
484
 10
-409.46323
 20
178.645319
 30
0.0
 11
-410.21015
 21
177.757079
 31
0.0
  0
LINE
  8
0
  6
CONTINUOUS
 62
     7
  5
485
 10
-410.209989
 20
172.176501
 30
0.0
 11
-409.46323
 21
171.288452
 31
0.0
  0
ENDBLK
  8
0
  5
486
  0
BLOCK
  8
0
  5
489
  2
AID1115
 70
     0
 10
0.0
 20
0.0
 30
0.0
  3
#auxiliary draft view
  0
LINE
  8
0
  6
CONTINUOUS
 62
     7
  5
48B
 10
859.858388
 20
178.235298
 30
0.0
 11
860.032764
 21
178.266905
 31
0.0
  0
POLYLINE
  8
0
  6
CONTINUOUS
 62
     7
  5
48C
 66
     1
 10
0.0
 20
0.0
 30
0.0
 40
0.1
 41
0.1
  0
VERTEX
  8
0
 62
     7
  5
48D
 10
857.411414
 20
172.589874
 30
0.0
  0
VERTEX
  8
0
 62
     7
  5
48E
 10
857.346652
 20
172.619678
 30
0.0
  0
VERTEX
  8
0
 62
     7
  5
48F
 10
857.282871
 20
172.661514
 30
0.0
  0
VERTEX
  8
0
 62
     7
  5
490
 10
857.220399
 20
172.715168
 30
0.0
  0
VERTEX
  8
0
 62
     7
  5
491
 10
857.159557
 20
172.780365
 30
0.0
  0
VERTEX
  8
0
 62
     7
  5
492
 10
857.100656
 20
172.856772
 30
0.0
  0
VERTEX
  8
0
 62
     7
  5
493
 10
857.043998
 20
172.943996
 30
0.0
  0
VERTEX
  8
0
 62
     7
  5
494
 10
856.989874
 20
173.041589
 30
0.0
  0
VERTEX
  8
0
 62
     7
  5
495
 10
856.938561
 20
173.149053
 30
0.0
  0
VERTEX
  8
0
 62
     7
  5
496
 10
856.890322
 20
173.265836
 30
0.0
  0
VERTEX
  8
0
 62
     7
  5
497
 10
856.845404
 20
173.391338
 30
0.0
  0
VERTEX
  8
0
 62
     7
  5
498
 10
856.804038
 20
173.524918
 30
0.0
  0
VERTEX
  8
0
 62
     7
  5
499
 10
856.766436
 20
173.66589
 30
0.0
  0
VERTEX
  8
0
 62
     7
  5
49A
 10
856.73279
 20
173.813531
 30
0.0
  0
VERTEX
  8
0
 62
     7
  5
49B
 10
856.703273
 20
173.967085
 30
0.0
  0
VERTEX
  8
0
 62
     7
  5
49C
 10
856.678036
 20
174.125764
 30
0.0
  0
VERTEX
  8
0
 62
     7
  5
49D
 10
856.65721
 20
174.288755
 30
0.0
  0
VERTEX
  8
0
 62
     7
  5
49E
 10
856.640899
 20
174.455222
 30
0.0
  0
VERTEX
  8
0
 62
     7
  5
49F
 10
856.629189
 20
174.624312
 30
0.0
  0
VERTEX
  8
0
 62
     7
  5
4A0
 10
856.622138
 20
174.795159
 30
0.0
  0
VERTEX
  8
0
 62
     7
  5
4A1
 10
856.619784
 20
174.966886
 30
0.0
  0
SEQEND
  8
0
  5
4A2
  0
POLYLINE
  8
0
  6
CONTINUOUS
 62
     7
  5
4A3
 66
     1
 10
0.0
 20
0.0
 30
0.0
 40
0.1
 41
0.1
  0
VERTEX
  8
0
 62
     7
  5
4A4
 10
857.411414
 20
177.343897
 30
0.0
  0
VERTEX
  8
0
 62
     7
  5
4A5
 10
857.489526
 20
177.363507
 30
0.0
  0
VERTEX
  8
0
 62
     7
  5
4A6
 10
857.567993
 20
177.365622
 30
0.0
  0
VERTEX
  8
0
 62
     7
  5
4A7
 10
857.646242
 20
177.350227
 30
0.0
  0
VERTEX
  8
0
 62
     7
  5
4A8
 10
857.723703
 20
177.317434
 30
0.0
  0
VERTEX
  8
0
 62
     7
  5
4A9
 10
857.79981
 20
177.267481
 30
0.0
  0
VERTEX
  8
0
 62
     7
  5
4AA
 10
857.874008
 20
177.200735
 30
0.0
  0
VERTEX
  8
0
 62
     7
  5
4AB
 10
857.945754
 20
177.117682
 30
0.0
  0
VERTEX
  8
0
 62
     7
  5
4AC
 10
858.014526
 20
177.018928
 30
0.0
  0
VERTEX
  8
0
 62
     7
  5
4AD
 10
858.07982
 20
176.905194
 30
0.0
  0
VERTEX
  8
0
 62
     7
  5
4AE
 10
858.141161
 20
176.777311
 30
0.0
  0
VERTEX
  8
0
 62
     7
  5
4AF
 10
858.198101
 20
176.636212
 30
0.0
  0
VERTEX
  8
0
 62
     7
  5
4B0
 10
858.250223
 20
176.482927
 30
0.0
  0
VERTEX
  8
0
 62
     7
  5
4B1
 10
858.297148
 20
176.318575
 30
0.0
  0
VERTEX
  8
0
 62
     7
  5
4B2
 10
858.338533
 20
176.144356
 30
0.0
  0
VERTEX
  8
0
 62
     7
  5
4B3
 10
858.374076
 20
175.961541
 30
0.0
  0
VERTEX
  8
0
 62
     7
  5
4B4
 10
858.403517
 20
175.771466
 30
0.0
  0
VERTEX
  8
0
 62
     7
  5
4B5
 10
858.426642
 20
175.575517
 30
0.0
  0
VERTEX
  8
0
 62
     7
  5
4B6
 10
858.443281
 20
175.375125
 30
0.0
  0
VERTEX
  8
0
 62
     7
  5
4B7
 10
858.453313
 20
175.171753
 30
0.0
  0
VERTEX
  8
0
 62
     7
  5
4B8
 10
858.456665
 20
174.966886
 30
0.0
  0
VERTEX
  8
0
 62
     7
  5
4B9
 10
858.453313
 20
174.762018
 30
0.0
  0
VERTEX
  8
0
 62
     7
  5
4BA
 10
858.443281
 20
174.558646
 30
0.0
  0
VERTEX
  8
0
 62
     7
  5
4BB
 10
858.426642
 20
174.358254
 30
0.0
  0
VERTEX
  8
0
 62
     7
  5
4BC
 10
858.403517
 20
174.162305
 30
0.0
  0
VERTEX
  8
0
 62
     7
  5
4BD
 10
858.374076
 20
173.97223
 30
0.0
  0
VERTEX
  8
0
 62
     7
  5
4BE
 10
858.338533
 20
173.789415
 30
0.0
  0
VERTEX
  8
0
 62
     7
  5
4BF
 10
858.297148
 20
173.615196
 30
0.0
  0
VERTEX
  8
0
 62
     7
  5
4C0
 10
858.250223
 20
173.450844
 30
0.0
  0
VERTEX
  8
0
 62
     7
  5
4C1
 10
858.198101
 20
173.297559
 30
0.0
  0
VERTEX
  8
0
 62
     7
  5
4C2
 10
858.141161
 20
173.15646
 30
0.0
  0
VERTEX
  8
0
 62
     7
  5
4C3
 10
858.07982
 20
173.028577
 30
0.0
  0
VERTEX
  8
0
 62
     7
  5
4C4
 10
858.014526
 20
172.914843
 30
0.0
  0
VERTEX
  8
0
 62
     7
  5
4C5
 10
857.945754
 20
172.816089
 30
0.0
  0
VERTEX
  8
0
 62
     7
  5
4C6
 10
857.874008
 20
172.733036
 30
0.0
  0
VERTEX
  8
0
 62
     7
  5
4C7
 10
857.79981
 20
172.66629
 30
0.0
  0
VERTEX
  8
0
 62
     7
  5
4C8
 10
857.723703
 20
172.616337
 30
0.0
  0
VERTEX
  8
0
 62
     7
  5
4C9
 10
857.646242
 20
172.583544
 30
0.0
  0
VERTEX
  8
0
 62
     7
  5
4CA
 10
857.567993
 20
172.568149
 30
0.0
  0
VERTEX
  8
0
 62
     7
  5
4CB
 10
857.489526
 20
172.570264
 30
0.0
  0
VERTEX
  8
0
 62
     7
  5
4CC
 10
857.411414
 20
172.589874
 30
0.0
  0
SEQEND
  8
0
  5
4CD
  0
POLYLINE
  8
0
  6
CONTINUOUS
 62
     7
  5
4CE
 66
     1
 10
0.0
 20
0.0
 30
0.0
 40
0.1
 41
0.1
  0
VERTEX
  8
0
 62
     7
  5
4CF
 10
861.295618
 20
174.966886
 30
0.0
  0
VERTEX
  8
0
 62
     7
  5
4D0
 10
861.291725
 20
174.707972
 30
0.0
  0
VERTEX
  8
0
 62
     7
  5
4D1
 10
861.28007
 20
174.450654
 30
0.0
  0
VERTEX
  8
0
 62
     7
  5
4D2
 10
861.260726
 20
174.196519
 30
0.0
  0
VERTEX
  8
0
 62
     7
  5
4D3
 10
861.23381
 20
173.947133
 30
0.0
  0
VERTEX
  8
0
 62
     7
  5
4D4
 10
861.19949
 20
173.704035
 30
0.0
  0
VERTEX
  8
0
 62
     7
  5
4D5
 10
861.157977
 20
173.468722
 30
0.0
  0
VERTEX
  8
0
 62
     7
  5
4D6
 10
861.109526
 20
173.242645
 30
0.0
  0
VERTEX
  8
0
 62
     7
  5
4D7
 10
861.054437
 20
173.027199
 30
0.0
  0
VERTEX
  8
0
 62
     7
  5
4D8
 10
860.993049
 20
172.823712
 30
0.0
  0
VERTEX
  8
0
 62
     7
  5
4D9
 10
860.92574
 20
172.633437
 30
0.0
  0
VERTEX
  8
0
 62
     7
  5
4DA
 10
860.852927
 20
172.457549
 30
0.0
  0
VERTEX
  8
0
 62
     7
  5
4DB
 10
860.775056
 20
172.297132
 30
0.0
  0
VERTEX
  8
0
 62
     7
  5
4DC
 10
860.692609
 20
172.153174
 30
0.0
  0
VERTEX
  8
0
 62
     7
  5
4DD
 10
860.606094
 20
172.026563
 30
0.0
  0
VERTEX
  8
0
 62
     7
  5
4DE
 10
860.516044
 20
171.91808
 30
0.0
  0
VERTEX
  8
0
 62
     7
  5
4DF
 10
860.423015
 20
171.828393
 30
0.0
  0
VERTEX
  8
0
 62
     7
  5
4E0
 10
860.32758
 20
171.758056
 30
0.0
  0
VERTEX
  8
0
 62
     7
  5
4E1
 10
860.230326
 20
171.707502
 30
0.0
  0
VERTEX
  8
0
 62
     7
  5
4E2
 10
860.131855
 20
171.677043
 30
0.0
  0
VERTEX
  8
0
 62
     7
  5
4E3
 10
860.032773
 20
171.666866
 30
0.0
  0
SEQEND
  8
0
  5
4E4
  0
POLYLINE
  8
0
  6
CONTINUOUS
 62
     7
  5
4E5
 66
     1
 10
0.0
 20
0.0
 30
0.0
 40
0.1
 41
0.1
  0
VERTEX
  8
0
 62
     7
  5
4E6
 10
856.619784
 20
174.966886
 30
0.0
  0
VERTEX
  8
0
 62
     7
  5
4E7
 10
856.622138
 20
175.138612
 30
0.0
  0
VERTEX
  8
0
 62
     7
  5
4E8
 10
856.629189
 20
175.309459
 30
0.0
  0
VERTEX
  8
0
 62
     7
  5
4E9
 10
856.640899
 20
175.478549
 30
0.0
  0
VERTEX
  8
0
 62
     7
  5
4EA
 10
856.65721
 20
175.645017
 30
0.0
  0
VERTEX
  8
0
 62
     7
  5
4EB
 10
856.678036
 20
175.808008
 30
0.0
  0
VERTEX
  8
0
 62
     7
  5
4EC
 10
856.703273
 20
175.966687
 30
0.0
  0
VERTEX
  8
0
 62
     7
  5
4ED
 10
856.73279
 20
176.12024
 30
0.0
  0
VERTEX
  8
0
 62
     7
  5
4EE
 10
856.766436
 20
176.267881
 30
0.0
  0
VERTEX
  8
0
 62
     7
  5
4EF
 10
856.804038
 20
176.408853
 30
0.0
  0
VERTEX
  8
0
 62
     7
  5
4F0
 10
856.845404
 20
176.542433
 30
0.0
  0
VERTEX
  8
0
 62
     7
  5
4F1
 10
856.890322
 20
176.667936
 30
0.0
  0
VERTEX
  8
0
 62
     7
  5
4F2
 10
856.938561
 20
176.784718
 30
0.0
  0
VERTEX
  8
0
 62
     7
  5
4F3
 10
856.989874
 20
176.892182
 30
0.0
  0
VERTEX
  8
0
 62
     7
  5
4F4
 10
857.043998
 20
176.989776
 30
0.0
  0
VERTEX
  8
0
 62
     7
  5
4F5
 10
857.100656
 20
177.076999
 30
0.0
  0
VERTEX
  8
0
 62
     7
  5
4F6
 10
857.159557
 20
177.153406
 30
0.0
  0
VERTEX
  8
0
 62
     7
  5
4F7
 10
857.220399
 20
177.218603
 30
0.0
  0
VERTEX
  8
0
 62
     7
  5
4F8
 10
857.282871
 20
177.272257
 30
0.0
  0
VERTEX
  8
0
 62
     7
  5
4F9
 10
857.346652
 20
177.314093
 30
0.0
  0
VERTEX
  8
0
 62
     7
  5
4FA
 10
857.411414
 20
177.343897
 30
0.0
  0
SEQEND
  8
0
  5
4FB
  0
POLYLINE
  8
0
  6
CONTINUOUS
 62
     7
  5
4FC
 66
     1
 10
0.0
 20
0.0
 30
0.0
 40
0.1
 41
0.1
  0
VERTEX
  8
0
 62
     7
  5
4FD
 10
861.923071
 20
177.671812
 30
0.0
  0
VERTEX
  8
0
 62
     7
  5
4FE
 10
862.006767
 20
177.603619
 30
0.0
  0
VERTEX
  8
0
 62
     7
  5
4FF
 10
862.088049
 20
177.517774
 30
0.0
  0
VERTEX
  8
0
 62
     7
  5
500
 10
862.166374
 20
177.414853
 30
0.0
  0
VERTEX
  8
0
 62
     7
  5
501
 10
862.241217
 20
177.295544
 30
0.0
  0
VERTEX
  8
0
 62
     7
  5
502
 10
862.312076
 20
177.160647
 30
0.0
  0
VERTEX
  8
0
 62
     7
  5
503
 10
862.378479
 20
177.011064
 30
0.0
  0
VERTEX
  8
0
 62
     7
  5
504
 10
862.439979
 20
176.847796
 30
0.0
  0
VERTEX
  8
0
 62
     7
  5
505
 10
862.496165
 20
176.671937
 30
0.0
  0
VERTEX
  8
0
 62
     7
  5
506
 10
862.546662
 20
176.484663
 30
0.0
  0
VERTEX
  8
0
 62
     7
  5
507
 10
862.591132
 20
176.28723
 30
0.0
  0
VERTEX
  8
0
 62
     7
  5
508
 10
862.629275
 20
176.080957
 30
0.0
  0
VERTEX
  8
0
 62
     7
  5
509
 10
862.660838
 20
175.867226
 30
0.0
  0
VERTEX
  8
0
 62
     7
  5
50A
 10
862.685609
 20
175.647468
 30
0.0
  0
VERTEX
  8
0
 62
     7
  5
50B
 10
862.703422
 20
175.423155
 30
0.0
  0
VERTEX
  8
0
 62
     7
  5
50C
 10
862.714157
 20
175.195786
 30
0.0
  0
VERTEX
  8
0
 62
     7
  5
50D
 10
862.717744
 20
174.966886
 30
0.0
  0
SEQEND
  8
0
  5
50E
  0
POLYLINE
  8
0
  6
CONTINUOUS
 62
     7
  5
50F
 66
     1
 10
0.0
 20
0.0
 30
0.0
 40
0.1
 41
0.1
  0
VERTEX
  8
0
 62
     7
  5
510
 10
860.032764
 20
178.266905
 30
0.0
  0
VERTEX
  8
0
 62
     7
  5
511
 10
860.131846
 20
178.25673
 30
0.0
  0
VERTEX
  8
0
 62
     7
  5
512
 10
860.230318
 20
178.226273
 30
0.0
  0
VERTEX
  8
0
 62
     7
  5
513
 10
860.327572
 20
178.17572
 30
0.0
  0
VERTEX
  8
0
 62
     7
  5
514
 10
860.423008
 20
178.105384
 30
0.0
  0
VERTEX
  8
0
 62
     7
  5
515
 10
860.516038
 20
178.015698
 30
0.0
  0
VERTEX
  8
0
 62
     7
  5
516
 10
860.606088
 20
177.907216
 30
0.0
  0
VERTEX
  8
0
 62
     7
  5
517
 10
860.692604
 20
177.780606
 30
0.0
  0
VERTEX
  8
0
 62
     7
  5
518
 10
860.775051
 20
177.636648
 30
0.0
  0
VERTEX
  8
0
 62
     7
  5
519
 10
860.852923
 20
177.476231
 30
0.0
  0
VERTEX
  8
0
 62
     7
  5
51A
 10
860.925737
 20
177.300342
 30
0.0
  0
VERTEX
  8
0
 62
     7
  5
51B
 10
860.993046
 20
177.110068
 30
0.0
  0
VERTEX
  8
0
 62
     7
  5
51C
 10
861.054435
 20
176.90658
 30
0.0
  0
VERTEX
  8
0
 62
     7
  5
51D
 10
861.109524
 20
176.691133
 30
0.0
  0
VERTEX
  8
0
 62
     7
  5
51E
 10
861.157975
 20
176.465056
 30
0.0
  0
VERTEX
  8
0
 62
     7
  5
51F
 10
861.199489
 20
176.229742
 30
0.0
  0
VERTEX
  8
0
 62
     7
  5
520
 10
861.23381
 20
175.986643
 30
0.0
  0
VERTEX
  8
0
 62
     7
  5
521
 10
861.260725
 20
175.737256
 30
0.0
  0
VERTEX
  8
0
 62
     7
  5
522
 10
861.28007
 20
175.48312
 30
0.0
  0
VERTEX
  8
0
 62
     7
  5
523
 10
861.291725
 20
175.225801
 30
0.0
  0
VERTEX
  8
0
 62
     7
  5
524
 10
861.295618
 20
174.966886
 30
0.0
  0
SEQEND
  8
0
  5
525
  0
LINE
  8
0
  6
CONTINUOUS
 62
     7
  5
527
 10
860.032773
 20
171.666866
 30
0.0
 11
859.858388
 21
171.698473
 31
0.0
  0
POLYLINE
  8
0
  6
CONTINUOUS
 62
     7
  5
528
 66
     1
 10
0.0
 20
0.0
 30
0.0
 40
0.1
 41
0.1
  0
VERTEX
  8
0
 62
     7
  5
529
 10
862.717744
 20
174.966886
 30
0.0
  0
VERTEX
  8
0
 62
     7
  5
52A
 10
862.714157
 20
174.737984
 30
0.0
  0
VERTEX
  8
0
 62
     7
  5
52B
 10
862.703421
 20
174.510615
 30
0.0
  0
VERTEX
  8
0
 62
     7
  5
52C
 10
862.685609
 20
174.2863
 30
0.0
  0
VERTEX
  8
0
 62
     7
  5
52D
 10
862.660838
 20
174.066541
 30
0.0
  0
VERTEX
  8
0
 62
     7
  5
52E
 10
862.629275
 20
173.85281
 30
0.0
  0
VERTEX
  8
0
 62
     7
  5
52F
 10
862.591131
 20
173.646537
 30
0.0
  0
VERTEX
  8
0
 62
     7
  5
530
 10
862.546661
 20
173.449102
 30
0.0
  0
VERTEX
  8
0
 62
     7
  5
531
 10
862.496164
 20
173.261829
 30
0.0
  0
VERTEX
  8
0
 62
     7
  5
532
 10
862.439977
 20
173.085969
 30
0.0
  0
VERTEX
  8
0
 62
     7
  5
533
 10
862.378476
 20
172.922701
 30
0.0
  0
VERTEX
  8
0
 62
     7
  5
534
 10
862.312073
 20
172.773118
 30
0.0
  0
VERTEX
  8
0
 62
     7
  5
535
 10
862.241213
 20
172.638221
 30
0.0
  0
VERTEX
  8
0
 62
     7
  5
536
 10
862.16637
 20
172.518912
 30
0.0
  0
VERTEX
  8
0
 62
     7
  5
537
 10
862.088045
 20
172.415992
 30
0.0
  0
VERTEX
  8
0
 62
     7
  5
538
 10
862.006762
 20
172.330148
 30
0.0
  0
VERTEX
  8
0
 62
     7
  5
539
 10
861.923066
 20
172.261955
 30
0.0
  0
SEQEND
  8
0
  5
53A
  0
POLYLINE
  8
0
  6
CONTINUOUS
 62
     7
  5
53B
 66
     1
 10
0.0
 20
0.0
 30
0.0
 40
0.1
 41
0.1
  0
VERTEX
  8
0
 62
     7
  5
53C
 10
864.470894
 20
179.008321
 30
0.0
  0
VERTEX
  8
0
 62
     7
  5
53D
 10
864.553419
 20
179.002564
 30
0.0
  0
VERTEX
  8
0
 62
     7
  5
53E
 10
864.635709
 20
178.985308
 30
0.0
  0
VERTEX
  8
0
 62
     7
  5
53F
 10
864.71753
 20
178.956602
 30
0.0
  0
VERTEX
  8
0
 62
     7
  5
540
 10
864.798647
 20
178.916528
 30
0.0
  0
VERTEX
  8
0
 62
     7
  5
541
 10
864.878831
 20
178.865201
 30
0.0
  0
VERTEX
  8
0
 62
     7
  5
542
 10
864.957853
 20
178.802767
 30
0.0
  0
VERTEX
  8
0
 62
     7
  5
543
 10
865.035487
 20
178.729403
 30
0.0
  0
VERTEX
  8
0
 62
     7
  5
544
 10
865.111513
 20
178.645319
 30
0.0
  0
SEQEND
  8
0
  5
545
  0
POLYLINE
  8
0
  6
CONTINUOUS
 62
     7
  5
546
 66
     1
 10
0.0
 20
0.0
 30
0.0
 40
0.1
 41
0.1
  0
VERTEX
  8
0
 62
     7
  5
547
 10
863.469888
 20
179.008321
 30
0.0
  0
VERTEX
  8
0
 62
     7
  5
548
 10
863.591233
 20
178.995863
 30
0.0
  0
VERTEX
  8
0
 62
     7
  5
549
 10
863.711829
 20
178.958565
 30
0.0
  0
VERTEX
  8
0
 62
     7
  5
54A
 10
863.830933
 20
178.896656
 30
0.0
  0
VERTEX
  8
0
 62
     7
  5
54B
 10
863.947812
 20
178.810519
 30
0.0
  0
VERTEX
  8
0
 62
     7
  5
54C
 10
864.061744
 20
178.700685
 30
0.0
  0
VERTEX
  8
0
 62
     7
  5
54D
 10
864.172027
 20
178.567831
 30
0.0
  0
VERTEX
  8
0
 62
     7
  5
54E
 10
864.277981
 20
178.412776
 30
0.0
  0
VERTEX
  8
0
 62
     7
  5
54F
 10
864.378953
 20
178.236476
 30
0.0
  0
VERTEX
  8
0
 62
     7
  5
550
 10
864.47432
 20
178.040018
 30
0.0
  0
VERTEX
  8
0
 62
     7
  5
551
 10
864.563495
 20
177.824612
 30
0.0
  0
VERTEX
  8
0
 62
     7
  5
552
 10
864.645927
 20
177.591588
 30
0.0
  0
VERTEX
  8
0
 62
     7
  5
553
 10
864.721108
 20
177.342382
 30
0.0
  0
VERTEX
  8
0
 62
     7
  5
554
 10
864.788575
 20
177.07853
 30
0.0
  0
VERTEX
  8
0
 62
     7
  5
555
 10
864.847912
 20
176.801659
 30
0.0
  0
VERTEX
  8
0
 62
     7
  5
556
 10
864.898754
 20
176.513476
 30
0.0
  0
VERTEX
  8
0
 62
     7
  5
557
 10
864.940785
 20
176.215758
 30
0.0
  0
VERTEX
  8
0
 62
     7
  5
558
 10
864.973749
 20
175.91034
 30
0.0
  0
VERTEX
  8
0
 62
     7
  5
559
 10
864.99744
 20
175.599105
 30
0.0
  0
VERTEX
  8
0
 62
     7
  5
55A
 10
865.011713
 20
175.283973
 30
0.0
  0
VERTEX
  8
0
 62
     7
  5
55B
 10
865.016481
 20
174.966886
 30
0.0
  0
SEQEND
  8
0
  5
55C
  0
POLYLINE
  8
0
  6
CONTINUOUS
 62
     7
  5
55D
 66
     1
 10
0.0
 20
0.0
 30
0.0
 40
0.1
 41
0.1
  0
VERTEX
  8
0
 62
     7
  5
55E
 10
863.469888
 20
170.92545
 30
0.0
  0
VERTEX
  8
0
 62
     7
  5
55F
 10
863.392185
 20
170.930554
 30
0.0
  0
VERTEX
  8
0
 62
     7
  5
560
 10
863.314677
 20
170.945853
 30
0.0
  0
VERTEX
  8
0
 62
     7
  5
561
 10
863.237562
 20
170.971309
 30
0.0
  0
VERTEX
  8
0
 62
     7
  5
562
 10
863.161033
 20
171.006857
 30
0.0
  0
VERTEX
  8
0
 62
     7
  5
563
 10
863.085284
 20
171.052407
 30
0.0
  0
VERTEX
  8
0
 62
     7
  5
564
 10
863.010507
 20
171.107845
 30
0.0
  0
VERTEX
  8
0
 62
     7
  5
565
 10
862.93689
 20
171.17303
 30
0.0
  0
VERTEX
  8
0
 62
     7
  5
566
 10
862.86462
 20
171.247798
 30
0.0
  0
SEQEND
  8
0
  5
567
  0
POLYLINE
  8
0
  6
CONTINUOUS
 62
     7
  5
568
 66
     1
 10
0.0
 20
0.0
 30
0.0
 40
0.1
 41
0.1
  0
VERTEX
  8
0
 62
     7
  5
569
 10
866.017486
 20
174.966886
 30
0.0
  0
VERTEX
  8
0
 62
     7
  5
56A
 10
866.013537
 20
174.67824
 30
0.0
  0
VERTEX
  8
0
 62
     7
  5
56B
 10
866.001708
 20
174.391069
 30
0.0
  0
VERTEX
  8
0
 62
     7
  5
56C
 10
865.98206
 20
174.106839
 30
0.0
  0
VERTEX
  8
0
 62
     7
  5
56D
 10
865.954694
 20
173.827001
 30
0.0
  0
VERTEX
  8
0
 62
     7
  5
56E
 10
865.91975
 20
173.552986
 30
0.0
  0
VERTEX
  8
0
 62
     7
  5
56F
 10
865.877405
 20
173.286192
 30
0.0
  0
VERTEX
  8
0
 62
     7
  5
570
 10
865.827877
 20
173.027982
 30
0.0
  0
VERTEX
  8
0
 62
     7
  5
571
 10
865.771418
 20
172.779675
 30
0.0
  0
VERTEX
  8
0
 62
     7
  5
572
 10
865.708316
 20
172.54254
 30
0.0
  0
VERTEX
  8
0
 62
     7
  5
573
 10
865.638894
 20
172.317787
 30
0.0
  0
VERTEX
  8
0
 62
     7
  5
574
 10
865.563506
 20
172.106565
 30
0.0
  0
VERTEX
  8
0
 62
     7
  5
575
 10
865.482538
 20
171.909952
 30
0.0
  0
VERTEX
  8
0
 62
     7
  5
576
 10
865.396403
 20
171.728952
 30
0.0
  0
VERTEX
  8
0
 62
     7
  5
577
 10
865.30554
 20
171.56449
 30
0.0
  0
VERTEX
  8
0
 62
     7
  5
578
 10
865.210415
 20
171.417406
 30
0.0
  0
VERTEX
  8
0
 62
     7
  5
579
 10
865.111513
 20
171.288452
 30
0.0
  0
SEQEND
  8
0
  5
57A
  0
POLYLINE
  8
0
  6
CONTINUOUS
 62
     7
  5
57B
 66
     1
 10
0.0
 20
0.0
 30
0.0
 40
0.1
 41
0.1
  0
VERTEX
  8
0
 62
     7
  5
57C
 10
865.016481
 20
174.966886
 30
0.0
  0
VERTEX
  8
0
 62
     7
  5
57D
 10
865.011713
 20
174.649798
 30
0.0
  0
VERTEX
  8
0
 62
     7
  5
57E
 10
864.99744
 20
174.334666
 30
0.0
  0
VERTEX
  8
0
 62
     7
  5
57F
 10
864.973749
 20
174.023431
 30
0.0
  0
VERTEX
  8
0
 62
     7
  5
580
 10
864.940785
 20
173.718013
 30
0.0
  0
VERTEX
  8
0
 62
     7
  5
581
 10
864.898754
 20
173.420295
 30
0.0
  0
VERTEX
  8
0
 62
     7
  5
582
 10
864.847912
 20
173.132112
 30
0.0
  0
VERTEX
  8
0
 62
     7
  5
583
 10
864.788575
 20
172.855241
 30
0.0
  0
VERTEX
  8
0
 62
     7
  5
584
 10
864.721108
 20
172.591389
 30
0.0
  0
VERTEX
  8
0
 62
     7
  5
585
 10
864.645927
 20
172.342183
 30
0.0
  0
VERTEX
  8
0
 62
     7
  5
586
 10
864.563495
 20
172.109159
 30
0.0
  0
VERTEX
  8
0
 62
     7
  5
587
 10
864.47432
 20
171.893754
 30
0.0
  0
VERTEX
  8
0
 62
     7
  5
588
 10
864.378953
 20
171.697295
 30
0.0
  0
VERTEX
  8
0
 62
     7
  5
589
 10
864.277981
 20
171.520995
 30
0.0
  0
VERTEX
  8
0
 62
     7
  5
58A
 10
864.172027
 20
171.36594
 30
0.0
  0
VERTEX
  8
0
 62
     7
  5
58B
 10
864.061744
 20
171.233086
 30
0.0
  0
VERTEX
  8
0
 62
     7
  5
58C
 10
863.947812
 20
171.123252
 30
0.0
  0
VERTEX
  8
0
 62
     7
  5
58D
 10
863.830933
 20
171.037115
 30
0.0
  0
VERTEX
  8
0
 62
     7
  5
58E
 10
863.711829
 20
170.975206
 30
0.0
  0
VERTEX
  8
0
 62
     7
  5
58F
 10
863.591233
 20
170.937908
 30
0.0
  0
VERTEX
  8
0
 62
     7
  5
590
 10
863.469888
 20
170.92545
 30
0.0
  0
SEQEND
  8
0
  5
591
  0
POLYLINE
  8
0
  6
CONTINUOUS
 62
     7
  5
592
 66
     1
 10
0.0
 20
0.0
 30
0.0
 40
0.1
 41
0.1
  0
VERTEX
  8
0
 62
     7
  5
593
 10
862.864621
 20
178.685975
 30
0.0
  0
VERTEX
  8
0
 62
     7
  5
594
 10
862.936892
 20
178.760742
 30
0.0
  0
VERTEX
  8
0
 62
     7
  5
595
 10
863.010508
 20
178.825927
 30
0.0
  0
VERTEX
  8
0
 62
     7
  5
596
 10
863.085285
 20
178.881365
 30
0.0
  0
VERTEX
  8
0
 62
     7
  5
597
 10
863.161034
 20
178.926915
 30
0.0
  0
VERTEX
  8
0
 62
     7
  5
598
 10
863.237562
 20
178.962463
 30
0.0
  0
VERTEX
  8
0
 62
     7
  5
599
 10
863.314677
 20
178.987918
 30
0.0
  0
VERTEX
  8
0
 62
     7
  5
59A
 10
863.392185
 20
179.003217
 30
0.0
  0
VERTEX
  8
0
 62
     7
  5
59B
 10
863.469888
 20
179.008321
 30
0.0
  0
SEQEND
  8
0
  5
59C
  0
ARC
  8
0
  6
CONTINUOUS
 62
     7
  5
59D
 10
860.043226
 20
174.966883
 30
0.0
 40
6.449844
 50
334.36437
 51
25.635768
210
0.0
220
0.0
230
1.0
  0
POLYLINE
  8
0
  6
CONTINUOUS
 62
     7
  5
59E
 66
     1
 10
0.0
 20
0.0
 30
0.0
 40
0.1
 41
0.1
  0
VERTEX
  8
0
 62
     7
  5
59F
 10
865.111513
 20
178.645319
 30
0.0
  0
VERTEX
  8
0
 62
     7
  5
5A0
 10
865.210415
 20
178.516365
 30
0.0
  0
VERTEX
  8
0
 62
     7
  5
5A1
 10
865.30554
 20
178.369281
 30
0.0
  0
VERTEX
  8
0
 62
     7
  5
5A2
 10
865.396403
 20
178.204819
 30
0.0
  0
VERTEX
  8
0
 62
     7
  5
5A3
 10
865.482538
 20
178.023819
 30
0.0
  0
VERTEX
  8
0
 62
     7
  5
5A4
 10
865.563506
 20
177.827206
 30
0.0
  0
VERTEX
  8
0
 62
     7
  5
5A5
 10
865.638894
 20
177.615984
 30
0.0
  0
VERTEX
  8
0
 62
     7
  5
5A6
 10
865.708316
 20
177.391231
 30
0.0
  0
VERTEX
  8
0
 62
     7
  5
5A7
 10
865.771418
 20
177.154096
 30
0.0
  0
VERTEX
  8
0
 62
     7
  5
5A8
 10
865.827877
 20
176.905789
 30
0.0
  0
VERTEX
  8
0
 62
     7
  5
5A9
 10
865.877405
 20
176.647579
 30
0.0
  0
VERTEX
  8
0
 62
     7
  5
5AA
 10
865.91975
 20
176.380786
 30
0.0
  0
VERTEX
  8
0
 62
     7
  5
5AB
 10
865.954694
 20
176.10677
 30
0.0
  0
VERTEX
  8
0
 62
     7
  5
5AC
 10
865.98206
 20
175.826933
 30
0.0
  0
VERTEX
  8
0
 62
     7
  5
5AD
 10
866.001708
 20
175.542702
 30
0.0
  0
VERTEX
  8
0
 62
     7
  5
5AE
 10
866.013537
 20
175.255531
 30
0.0
  0
VERTEX
  8
0
 62
     7
  5
5AF
 10
866.017486
 20
174.966886
 30
0.0
  0
SEQEND
  8
0
  5
5B0
  0
POLYLINE
  8
0
  6
CONTINUOUS
 62
     7
  5
5B1
 66
     1
 10
0.0
 20
0.0
 30
0.0
 40
0.1
 41
0.1
  0
VERTEX
  8
0
 62
     7
  5
5B2
 10
865.111513
 20
171.288452
 30
0.0
  0
VERTEX
  8
0
 62
     7
  5
5B3
 10
865.035487
 20
171.204368
 30
0.0
  0
VERTEX
  8
0
 62
     7
  5
5B4
 10
864.957853
 20
171.131004
 30
0.0
  0
VERTEX
  8
0
 62
     7
  5
5B5
 10
864.878831
 20
171.06857
 30
0.0
  0
VERTEX
  8
0
 62
     7
  5
5B6
 10
864.798647
 20
171.017243
 30
0.0
  0
VERTEX
  8
0
 62
     7
  5
5B7
 10
864.71753
 20
170.977169
 30
0.0
  0
VERTEX
  8
0
 62
     7
  5
5B8
 10
864.635709
 20
170.948463
 30
0.0
  0
VERTEX
  8
0
 62
     7
  5
5B9
 10
864.553419
 20
170.931207
 30
0.0
  0
VERTEX
  8
0
 62
     7
  5
5BA
 10
864.470894
 20
170.92545
 30
0.0
  0
SEQEND
  8
0
  5
5BB
  0
ARC
  8
0
  6
CONTINUOUS
 62
     7
  5
5BC
 10
867.978225
 20
174.966886
 30
0.0
 40
4.000001
 50
232.423233
 51
360.0
210
0.0
220
0.0
230
1.0
  0
ARC
  8
0
  6
CONTINUOUS
 62
     7
  5
5BD
 10
867.978225
 20
174.966886
 30
0.0
 40
4.000001
 50
0.0
 51
127.576767
210
0.0
220
0.0
230
1.0
  0
ARC
  8
0
  6
CONTINUOUS
 62
     7
  5
5BE
 10
952.478225
 20
164.96689
 30
0.0
 40
1.0
 50
286.707206
 51
360.0
210
0.0
220
0.0
230
1.0
  0
LINE
  8
0
  6
CONTINUOUS
 62
     7
  5
5BF
 10
953.478225
 20
164.96689
 30
0.0
 11
953.478225
 21
174.96689
 31
0.0
  0
ARC
  8
0
  6
CONTINUOUS
 62
     7
  5
5C0
 10
952.478225
 20
174.96689
 30
0.0
 40
1.0
 50
0.0
 51
90.0
210
0.0
220
0.0
230
1.0
  0
LINE
  8
0
  6
CONTINUOUS
 62
     7
  5
5C1
 10
952.478225
 20
175.96689
 30
0.0
 11
950.852811
 21
175.96689
 31
0.0
  0
ARC
  8
0
  6
CONTINUOUS
 62
     7
  5
5C2
 10
950.852811
 20
177.96689
 30
0.0
 40
2.0
 50
202.954168
 51
270.0
210
0.0
220
0.0
230
1.0
  0
ARC
  8
0
  6
CONTINUOUS
 62
     7
  5
5C3
 10
931.978225
 20
169.96689
 30
0.0
 40
18.5
 50
22.971353
 51
135.355754
210
0.0
220
0.0
230
1.0
  0
LINE
  8
0
  6
CONTINUOUS
 62
     7
  5
5C4
 10
891.978225
 20
180.96689
 30
0.0
 11
901.978225
 21
180.96689
 31
0.0
  0
LINE
  8
0
  6
CONTINUOUS
 62
     7
  5
5C5
 10
891.978225
 20
180.96689
 30
0.0
 11
891.978225
 21
185.96689
 31
0.0
  0
LINE
  8
0
  6
CONTINUOUS
 62
     7
  5
5C6
 10
891.978225
 20
185.96689
 30
0.0
 11
843.978225
 21
185.96689
 31
0.0
  0
LINE
  8
0
  6
CONTINUOUS
 62
     7
  5
5C7
 10
843.978225
 20
185.96689
 30
0.0
 11
843.978225
 21
204.96689
 31
0.0
  0
LINE
  8
0
  6
CONTINUOUS
 62
     7
  5
5C8
 10
939.978225
 20
204.96689
 30
0.0
 11
843.978225
 21
204.96689
 31
0.0
  0
LINE
  8
0
  6
CONTINUOUS
 62
     7
  5
5C9
 10
939.978225
 20
204.96689
 30
0.0
 11
939.978225
 21
199.96689
 31
0.0
  0
LINE
  8
0
  6
CONTINUOUS
 62
     7
  5
5CA
 10
971.978225
 20
199.96689
 30
0.0
 11
939.978225
 21
199.96689
 31
0.0
  0
LINE
  8
0
  6
CONTINUOUS
 62
     7
  5
5CB
 10
971.978225
 20
191.96689
 30
0.0
 11
971.978225
 21
199.96689
 31
0.0
  0
LINE
  8
0
  6
CONTINUOUS
 62
     7
  5
5CC
 10
971.978225
 20
191.96689
 30
0.0
 11
957.978225
 21
191.96689
 31
0.0
  0
LINE
  8
0
  6
CONTINUOUS
 62
     7
  5
5CD
 10
957.978225
 20
191.96689
 30
0.0
 11
957.978225
 21
148.46689
 31
0.0
  0
LINE
  8
0
  6
CONTINUOUS
 62
     7
  5
5CE
 10
957.978225
 20
148.46689
 30
0.0
 11
954.978225
 21
148.46689
 31
0.0
  0
LINE
  8
0
  6
CONTINUOUS
 62
     7
  5
5CF
 10
901.978225
 20
162.34189
 30
0.0
 11
901.978225
 21
180.96689
 31
0.0
  0
LINE
  8
0
  6
CONTINUOUS
 62
     7
  5
5D0
 10
889.678214
 20
151.766891
 30
0.0
 11
878.778256
 21
151.766891
 31
0.0
  0
LINE
  8
0
  6
CONTINUOUS
 62
     7
  5
5D1
 10
844.278234
 20
178.966864
 30
0.0
 11
846.278254
 21
180.966886
 31
0.0
  0
LINE
  8
0
  6
CONTINUOUS
 62
     7
  5
5D2
 10
844.278234
 20
153.766905
 30
0.0
 11
844.278234
 21
178.966864
 31
0.0
  0
LINE
  8
0
  6
CONTINUOUS
 62
     7
  5
5D3
 10
857.178186
 20
151.766891
 30
0.0
 11
846.278249
 21
151.766891
 31
0.0
  0
LINE
  8
0
  6
CONTINUOUS
 62
     7
  5
5D4
 10
846.278249
 20
151.766891
 30
0.0
 11
844.278234
 21
153.766905
 31
0.0
  0
LINE
  8
0
  6
CONTINUOUS
 62
     7
  5
5D5
 10
891.678216
 20
178.966863
 30
0.0
 11
891.678216
 21
153.766893
 31
0.0
  0
LINE
  8
0
  6
CONTINUOUS
 62
     7
  5
5D6
 10
889.678195
 20
180.966886
 30
0.0
 11
891.678216
 21
178.966863
 31
0.0
  0
LINE
  8
0
  6
CONTINUOUS
 62
     7
  5
5D7
 10
891.678216
 20
153.766893
 30
0.0
 11
889.678214
 21
151.766891
 31
0.0
  0
LINE
  8
0
  6
CONTINUOUS
 62
     7
  5
5D8
 10
846.278254
 20
180.966886
 30
0.0
 11
889.678195
 21
180.966886
 31
0.0
  0
LINE
  8
0
  6
CONTINUOUS
 62
     9
  5
5D9
 10
947.978225
 20
204.96689
 30
0.0
 11
947.978225
 21
199.96689
 31
0.0
  0
LINE
  8
0
  6
CONTINUOUS
 62
     7
  5
5DA
 10
939.978225
 20
204.96689
 30
0.0
 11
947.978225
 21
204.96689
 31
0.0
  0
LINE
  8
0
  6
CONTINUOUS
 62
     7
  5
5DB
 10
843.878228
 20
160.166876
 30
0.0
 11
843.878228
 21
154.166911
 31
0.0
  0
LINE
  8
0
  6
CONTINUOUS
 62
     7
  5
5DC
 10
844.228225
 20
160.516873
 30
0.0
 11
843.878228
 21
160.166876
 31
0.0
  0
LINE
  8
0
  6
CONTINUOUS
 62
     7
  5
5DD
 10
844.228225
 20
177.716939
 30
0.0
 11
844.228225
 21
160.516873
 31
0.0
  0
LINE
  8
0
  6
CONTINUOUS
 62
     7
  5
5DE
 10
843.978229
 20
177.966934
 30
0.0
 11
844.228225
 21
177.716939
 31
0.0
  0
LINE
  8
0
  6
CONTINUOUS
 62
     7
  5
5DF
 10
843.978229
 20
184.466867
 30
0.0
 11
843.978229
 21
177.966934
 31
0.0
  0
LINE
  8
0
  6
CONTINUOUS
 62
     7
  5
5E0
 10
845.478249
 20
185.96689
 30
0.0
 11
843.978229
 21
184.466867
 31
0.0
  0
LINE
  8
0
  6
CONTINUOUS
 62
     7
  5
5E1
 10
891.978225
 20
184.466871
 30
0.0
 11
890.478204
 21
185.96689
 31
0.0
  0
LINE
  8
0
  6
CONTINUOUS
 62
     7
  5
5E2
 10
891.978225
 20
177.96692
 30
0.0
 11
891.978225
 21
180.96689
 31
0.0
  0
LINE
  8
0
  6
CONTINUOUS
 62
     7
  5
5E3
 10
891.728225
 20
177.716918
 30
0.0
 11
891.978225
 21
177.96692
 31
0.0
  0
LINE
  8
0
  6
CONTINUOUS
 62
     7
  5
5E4
 10
891.728225
 20
160.516895
 30
0.0
 11
891.728225
 21
177.716918
 31
0.0
  0
LINE
  8
0
  6
CONTINUOUS
 62
     7
  5
5E5
 10
891.978225
 20
160.266895
 30
0.0
 11
891.728225
 21
160.516895
 31
0.0
  0
LINE
  8
0
  6
CONTINUOUS
 62
     7
  5
5E6
 10
891.978225
 20
154.116909
 30
0.0
 11
891.978225
 21
160.266895
 31
0.0
  0
LINE
  8
0
  6
CONTINUOUS
 62
     7
  5
5E7
 10
891.678216
 20
153.8169
 30
0.0
 11
891.978225
 21
154.116909
 31
0.0
  0
LINE
  8
0
  6
CONTINUOUS
 62
     7
  5
5E8
 10
843.878228
 20
154.166911
 30
0.0
 11
844.278234
 21
153.766905
 31
0.0
  0
LINE
  8
0
  6
CONTINUOUS
 62
     7
  5
5E9
 10
971.978225
 20
204.96689
 30
0.0
 11
971.978225
 21
199.96689
 31
0.0
  0
LINE
  8
0
  6
CONTINUOUS
 62
     7
  5
5EA
 10
971.978225
 20
204.96689
 30
0.0
 11
947.978225
 21
204.96689
 31
0.0
  0
LINE
  8
0
  6
CONTINUOUS
 62
     9
  5
5EB
 10
965.978225
 20
105.96689
 30
0.0
 11
965.978225
 21
107.96689
 31
0.0
  0
LINE
  8
0
  6
CONTINUOUS
 62
     9
  5
5EC
 10
967.978225
 20
107.96689
 30
0.0
 11
965.978225
 21
107.96689
 31
0.0
  0
ARC
  8
0
  6
CONTINUOUS
 62
     7
  5
5ED
 10
965.978225
 20
107.96689
 30
0.0
 40
2.0
 50
270.0
 51
360.0
210
0.0
220
0.0
230
1.0
  0
LINE
  8
0
  6
CONTINUOUS
 62
     7
  5
5EE
 10
847.978225
 20
143.96689
 30
0.0
 11
847.978225
 21
107.96689
 31
0.0
  0
LINE
  8
0
  6
CONTINUOUS
 62
     9
  5
5EF
 10
849.978225
 20
143.96689
 30
0.0
 11
847.978225
 21
143.96689
 31
0.0
  0
LINE
  8
0
  6
CONTINUOUS
 62
     9
  5
5F0
 10
849.978225
 20
107.96689
 30
0.0
 11
849.978225
 21
143.96689
 31
0.0
  0
LINE
  8
0
  6
CONTINUOUS
 62
     9
  5
5F1
 10
849.978225
 20
107.96689
 30
0.0
 11
847.978225
 21
107.96689
 31
0.0
  0
LINE
  8
0
  6
CONTINUOUS
 62
     9
  5
5F2
 10
965.978225
 20
143.96689
 30
0.0
 11
965.978225
 21
107.96689
 31
0.0
  0
LINE
  8
0
  6
CONTINUOUS
 62
     9
  5
5F3
 10
967.978225
 20
143.96689
 30
0.0
 11
965.978225
 21
143.96689
 31
0.0
  0
LINE
  8
0
  6
CONTINUOUS
 62
     7
  5
5F4
 10
967.978225
 20
107.96689
 30
0.0
 11
967.978225
 21
143.96689
 31
0.0
  0
ARC
  8
0
  6
CONTINUOUS
 62
     7
  5
5F5
 10
849.978225
 20
143.96689
 30
0.0
 40
2.0
 50
90.0
 51
180.0
210
0.0
220
0.0
230
1.0
  0
LINE
  8
0
  6
CONTINUOUS
 62
     9
  5
5F6
 10
849.978225
 20
143.96689
 30
0.0
 11
849.978225
 21
145.96689
 31
0.0
  0
LINE
  8
0
  6
CONTINUOUS
 62
     9
  5
5F7
 10
965.978225
 20
145.96689
 30
0.0
 11
965.978225
 21
143.96689
 31
0.0
  0
ARC
  8
0
  6
CONTINUOUS
 62
     7
  5
5F8
 10
965.978225
 20
143.96689
 30
0.0
 40
2.0
 50
0.0
 51
90.0
210
0.0
220
0.0
230
1.0
  0
LINE
  8
0
  6
CONTINUOUS
 62
     7
  5
5F9
 10
965.978225
 20
145.96689
 30
0.0
 11
849.978225
 21
145.96689
 31
0.0
  0
LINE
  8
0
  6
CONTINUOUS
 62
     9
  5
5FA
 10
849.978225
 20
143.96689
 30
0.0
 11
965.978225
 21
143.96689
 31
0.0
  0
LINE
  8
0
  6
CONTINUOUS
 62
     7
  5
5FB
 10
849.978225
 20
105.96689
 30
0.0
 11
965.978225
 21
105.96689
 31
0.0
  0
LINE
  8
0
  6
CONTINUOUS
 62
     9
  5
5FC
 10
849.978225
 20
107.96689
 30
0.0
 11
849.978225
 21
105.96689
 31
0.0
  0
LINE
  8
0
  6
CONTINUOUS
 62
     9
  5
5FD
 10
965.978225
 20
107.96689
 30
0.0
 11
849.978225
 21
107.96689
 31
0.0
  0
ARC
  8
0
  6
CONTINUOUS
 62
     7
  5
5FE
 10
849.978225
 20
107.96689
 30
0.0
 40
2.0
 50
180.0
 51
270.0
210
0.0
220
0.0
230
1.0
  0
LINE
  8
0
  6
CONTINUOUS
 62
     7
  5
5FF
 10
916.978225
 20
182.96689
 30
0.0
 11
900.978225
 21
160.96689
 31
0.0
  0
LINE
  8
0
  6
CONTINUOUS
 62
     7
  5
600
 10
954.978225
 20
160.96689
 30
0.0
 11
954.978225
 21
145.96689
 31
0.0
  0
LINE
  8
0
  6
CONTINUOUS
 62
     7
  5
601
 10
954.978225
 20
160.96689
 30
0.0
 11
938.978225
 21
182.96689
 31
0.0
  0
LINE
  8
0
  6
CONTINUOUS
 62
     7
  5
602
 10
916.978225
 20
182.96689
 30
0.0
 11
938.978225
 21
182.96689
 31
0.0
  0
LINE
  8
0
  6
CONTINUOUS
 62
     7
  5
603
 10
900.978225
 20
160.96689
 30
0.0
 11
900.978225
 21
145.96689
 31
0.0
  0
LINE
  8
0
  6
CONTINUOUS
 62
     7
  5
604
 10
899.978225
 20
157.96689
 30
0.0
 11
899.978225
 21
145.96689
 31
0.0
  0
LINE
  8
0
  6
CONTINUOUS
 62
     7
  5
605
 10
900.978225
 20
158.96689
 30
0.0
 11
899.978225
 21
157.96689
 31
0.0
  0
LINE
  8
0
  6
CONTINUOUS
 62
     7
  5
606
 10
856.478225
 20
147.166892
 30
0.0
 11
857.678229
 21
145.96689
 31
0.0
  0
LINE
  8
0
  6
CONTINUOUS
 62
     7
  5
607
 10
856.478225
 20
151.06693
 30
0.0
 11
856.478225
 21
147.166892
 31
0.0
  0
LINE
  8
0
  6
CONTINUOUS
 62
     7
  5
608
 10
859.178257
 20
153.766962
 30
0.0
 11
856.478225
 21
151.06693
 31
0.0
  0
LINE
  8
0
  6
CONTINUOUS
 62
     7
  5
609
 10
859.178257
 20
158.846904
 30
0.0
 11
859.178257
 21
153.766962
 31
0.0
  0
LINE
  8
0
  6
CONTINUOUS
 62
     7
  5
60A
 10
858.366595
 20
159.658566
 30
0.0
 11
859.178257
 21
158.846904
 31
0.0
  0
ARC
  8
0
  6
CONTINUOUS
 62
     7
  5
60B
 10
856.336013
 20
159.424437
 30
0.0
 40
2.044035
 50
6.577246
 51
79.128609
210
0.0
220
0.0
230
1.0
  0
LINE
  8
0
  6
CONTINUOUS
 62
     7
  5
60C
 10
856.478111
 20
163.706649
 30
0.0
 11
856.478103
 21
161.726409
 31
0.0
  0
ARC
  8
0
  6
CONTINUOUS
 62
     7
  5
60D
 10
856.778111
 20
163.706649
 30
0.0
 40
0.3
 50
100.871391
 51
180.0
210
0.0
220
0.0
230
1.0
  0
ARC
  8
0
  6
CONTINUOUS
 62
     7
  5
60E
 10
858.654983
 20
165.6669
 30
0.0
 40
0.3
 50
90.512471
 51
172.271009
210
0.0
220
0.0
230
1.0
  0
LINE
  8
0
  6
CONTINUOUS
 62
     7
  5
60F
 10
877.298784
 20
165.966888
 30
0.0
 11
858.6523
 21
165.966888
 31
0.0
  0
ARC
  8
0
  6
CONTINUOUS
 62
     7
  5
610
 10
877.301467
 20
165.6669
 30
0.0
 40
0.3
 50
9.036445
 51
90.512471
210
0.0
220
0.0
230
0.9999999999999999
  0
ARC
  8
0
  6
CONTINUOUS
 62
     7
  5
611
 10
879.620437
 20
166.008621
 30
0.0
 40
2.044035
 50
188.286773
 51
259.100379
210
0.0
220
0.0
230
1.0
  0
ARC
  8
0
  6
CONTINUOUS
 62
     7
  5
612
 10
879.178379
 20
163.706649
 30
0.0
 40
0.3
 50
0.836866
 51
79.328458
210
0.0
220
0.0
230
1.0
  0
LINE
  8
0
  6
CONTINUOUS
 62
     7
  5
613
 10
879.478347
 20
161.73079
 30
0.0
 11
879.478347
 21
163.71103
 31
0.0
  0
ARC
  8
0
  6
CONTINUOUS
 62
     7
  5
614
 10
879.620437
 20
159.424437
 30
0.0
 40
2.044035
 50
100.84124
 51
173.423356
210
0.0
220
0.0
230
1.0
  0
LINE
  8
0
  6
CONTINUOUS
 62
     7
  5
615
 10
876.778233
 20
158.846923
 30
0.0
 11
877.589853
 21
159.658544
 31
0.0
  0
LINE
  8
0
  6
CONTINUOUS
 62
     7
  5
616
 10
879.478225
 20
147.166908
 30
0.0
 11
879.478225
 21
151.066922
 31
0.0
  0
LINE
  8
0
  6
CONTINUOUS
 62
     7
  5
617
 10
878.278207
 20
145.96689
 30
0.0
 11
879.478225
 21
147.166908
 31
0.0
  0
ARC
  8
0
  6
CONTINUOUS
 62
     7
  5
618
 10
856.336013
 20
166.008621
 30
0.0
 40
2.044035
 50
280.871391
 51
351.521338
210
0.0
220
0.0
230
1.0
  0
ARC
  8
0
  6
CONTINUOUS
 62
     7
  5
619
 10
879.178379
 20
161.726409
 30
0.0
 40
0.3
 50
281.06932
 51
0.836866
210
0.0
220
0.0
230
1.0
  0
LINE
  8
0
  6
CONTINUOUS
 62
     7
  5
61A
 10
864.728289
 20
146.466905
 30
0.0
 11
871.228183
 21
146.466905
 31
0.0
  0
LINE
  8
0
  6
CONTINUOUS
 62
     7
  5
61B
 10
876.778233
 20
153.766914
 30
0.0
 11
876.778233
 21
158.846923
 31
0.0
  0
ARC
  8
0
  6
CONTINUOUS
 62
     7
  5
61C
 10
856.778111
 20
161.726409
 30
0.0
 40
0.3
 50
180.0
 51
259.128609
210
0.0
220
0.0
230
1.0
  0
LINE
  8
0
  6
CONTINUOUS
 62
     7
  5
61D
 10
871.228183
 20
146.466905
 30
0.0
 11
871.728196
 21
145.96689
 31
0.0
  0
LINE
  8
0
  6
CONTINUOUS
 62
     7
  5
61E
 10
864.228274
 20
145.96689
 30
0.0
 11
864.728289
 21
146.466905
 31
0.0
  0
LINE
  8
0
  6
CONTINUOUS
 62
     7
  5
61F
 10
879.478225
 20
151.066922
 30
0.0
 11
876.778233
 21
153.766914
 31
0.0
  0
LINE
  8
0
  6
CONTINUOUS
 62
     7
  5
620
 10
859.858388
 20
178.235298
 30
0.0
 11
857.411414
 21
177.343897
 31
0.0
  0
LINE
  8
0
  6
CONTINUOUS
 62
     7
  5
621
 10
857.411414
 20
172.589874
 30
0.0
 11
859.858388
 21
171.698473
 31
0.0
  0
ARC
  8
0
  6
CONTINUOUS
 62
     7
  5
622
 10
860.032707
 20
174.966869
 30
0.0
 40
3.300002
 50
270.001029
 51
304.962921
210
0.0
220
0.0
230
1.0
  0
ARC
  8
0
  6
CONTINUOUS
 62
     7
  5
623
 10
860.032707
 20
174.966902
 30
0.0
 40
3.300002
 50
55.046086
 51
89.998939
210
0.0
220
0.0
230
1.0
  0
LINE
  8
0
  6
CONTINUOUS
 62
     7
  5
624
 10
864.470894
 20
179.008321
 30
0.0
 11
863.469888
 21
179.008321
 31
0.0
  0
LINE
  8
0
  6
CONTINUOUS
 62
     7
  5
625
 10
863.469888
 20
170.92545
 30
0.0
 11
864.470894
 21
170.92545
 31
0.0
  0
ARC
  8
0
  6
CONTINUOUS
 62
     7
  5
626
 10
860.046022
 20
168.622841
 30
0.0
 40
3.851609
 50
42.96298
 51
64.858958
210
0.0
220
0.0
230
1.0
  0
ARC
  8
0
  6
CONTINUOUS
 62
     7
  5
627
 10
860.073791
 20
181.272839
 30
0.0
 40
3.805338
 50
295.007427
 51
317.17174
210
0.0
220
0.0
230
1.0
  0
LINE
  8
0
  6
CONTINUOUS
 62
     7
  5
628
 10
865.111513
 20
171.288452
 30
0.0
 11
865.858272
 21
172.176501
 31
0.0
  0
LINE
  8
0
  6
CONTINUOUS
 62
     7
  5
629
 10
865.858433
 20
177.757079
 30
0.0
 11
865.111513
 21
178.645319
 31
0.0
  0
ENDBLK
  8
0
  5
62A
  0
ENDSEC
  0
SECTION
  2
ENTITIES
  0
INSERT
  8
0
  5
1DD
  2
AID3
 10
0.0
 20
0.0
 30
0.0
  0
INSERT
  8
0
  5
237
  2
AID291
 10
0.0
 20
0.0
 30
0.0
  0
INSERT
  8
0
  5
300
  2
AID467
 10
0.0
 20
0.0
 30
0.0
  0
INSERT
  8
0
  5
487
  2
AID865
 10
0.0
 20
0.0
 30
0.0
  0
INSERT
  8
0
  5
62B
  2
AID1115
 10
0.0
 20
0.0
 30
0.0
  0
LINE
  8
0
  6
CENTER
 62
     1
  5
62D
 10
-229.905453
 20
443.649581
 30
0.0
 11
-215.905453
 21
443.649581
 31
0.0
  0
LINE
  8
0
  6
CENTER
 62
     1
  5
62E
 10
-222.905453
 20
436.649581
 30
0.0
 11
-222.905453
 21
450.649581
 31
0.0
  0
LINE
  8
0
  6
CENTER
 62
     1
  5
62F
 10
-229.905453
 20
523.649581
 30
0.0
 11
-215.905453
 21
523.649581
 31
0.0
  0
LINE
  8
0
  6
CENTER
 62
     1
  5
630
 10
-222.905453
 20
516.649581
 30
0.0
 11
-222.905453
 21
530.649581
 31
0.0
  0
LINE
  8
0
  6
CENTER
 62
     1
  5
631
 10
-189.905453
 20
443.649581
 30
0.0
 11
-175.905453
 21
443.649581
 31
0.0
  0
LINE
  8
0
  6
CENTER
 62
     1
  5
632
 10
-182.905453
 20
436.649581
 30
0.0
 11
-182.905453
 21
450.649581
 31
0.0
  0
LINE
  8
0
  6
CENTER
 62
     1
  5
633
 10
-189.905453
 20
523.649581
 30
0.0
 11
-175.905453
 21
523.649581
 31
0.0
  0
LINE
  8
0
  6
CENTER
 62
     1
  5
634
 10
-182.905453
 20
516.649581
 30
0.0
 11
-182.905453
 21
530.649581
 31
0.0
  0
LINE
  8
0
  6
CENTER
 62
     1
  5
635
 10
595.094547
 20
443.649581
 30
0.0
 11
609.094547
 21
443.649581
 31
0.0
  0
LINE
  8
0
  6
CENTER
 62
     1
  5
636
 10
602.094547
 20
436.649581
 30
0.0
 11
602.094547
 21
450.649581
 31
0.0
  0
LINE
  8
0
  6
CENTER
 62
     1
  5
637
 10
595.094547
 20
523.649581
 30
0.0
 11
609.094547
 21
523.649581
 31
0.0
  0
LINE
  8
0
  6
CENTER
 62
     1
  5
638
 10
602.094547
 20
516.649581
 30
0.0
 11
602.094547
 21
530.649581
 31
0.0
  0
LINE
  8
0
  6
CENTER
 62
     1
  5
639
 10
635.094547
 20
443.649581
 30
0.0
 11
649.094547
 21
443.649581
 31
0.0
  0
LINE
  8
0
  6
CENTER
 62
     1
  5
63A
 10
642.094547
 20
436.649581
 30
0.0
 11
642.094547
 21
450.649581
 31
0.0
  0
LINE
  8
0
  6
CENTER
 62
     1
  5
63B
 10
635.094547
 20
523.649581
 30
0.0
 11
649.094547
 21
523.649581
 31
0.0
  0
LINE
  8
0
  6
CENTER
 62
     1
  5
63C
 10
642.094547
 20
516.649581
 30
0.0
 11
642.094547
 21
530.649581
 31
0.0
  0
LINE
  8
0
  6
CENTER
 62
     1
  5
63D
 10
-412.832506
 20
174.966886
 30
0.0
 11
-398.889942
 21
174.966886
 31
0.0
  0
LINE
  8
0
  6
CENTER
 62
     1
  5
63E
 10
-174.905453
 20
152.96689
 30
0.0
 11
-162.905453
 21
152.96689
 31
0.0
  0
LINE
  8
0
  6
CENTER
 62
     1
  5
63F
 10
594.094547
 20
152.96689
 30
0.0
 11
582.094547
 21
152.96689
 31
0.0
  0
LINE
  8
0
  6
CENTER
 62
     1
  5
640
 10
99.294619
 20
174.966886
 30
0.0
 11
112.594547
 21
174.966886
 31
0.0
  0
LINE
  8
0
  6
CENTER
 62
     1
  5
641
 10
319.894476
 20
174.966886
 30
0.0
 11
306.594547
 21
174.966886
 31
0.0
  0
LINE
  8
0
  6
CENTER
 62
     1
  5
642
 10
-174.905453
 20
-169.911249
 30
0.0
 11
-162.905453
 21
-169.911249
 31
0.0
  0
LINE
  8
0
  6
CENTER
 62
     1
  5
643
 10
594.094547
 20
-169.911249
 30
0.0
 11
582.094547
 21
-169.911249
 31
0.0
  0
LINE
  8
0
  6
CENTER
 62
     1
  5
644
 10
315.894457
 20
-129.911248
 30
0.0
 11
306.594547
 21
-129.911248
 31
0.0
  0
LINE
  8
0
  6
CENTER
 62
     1
  5
645
 10
312.456502
 20
-130.18545
 30
0.0
 11
315.170918
 21
-123.632279
 31
0.0
  0
LINE
  8
0
  6
CENTER
 62
     1
  5
646
 10
101.146567
 20
-116.69961
 30
0.0
 11
104.47594
 21
-124.737415
 31
0.0
  0
LINE
  8
0
  6
CENTER
 62
     1
  5
647
 10
103.603546
 20
-122.631274
 30
0.0
 11
106.31428
 21
-129.175555
 31
0.0
  0
LINE
  8
0
  6
CENTER
 62
     1
  5
648
 10
106.732593
 20
-130.18545
 30
0.0
 11
104.018177
 21
-123.632279
 31
0.0
  0
LINE
  8
0
  6
CENTER
 62
     1
  5
649
 10
103.294637
 20
-129.911248
 30
0.0
 11
112.594547
 21
-129.911248
 31
0.0
  0
LINE
  8
0
  6
CENTER
 62
     1
  5
64A
 10
111.094547
 20
-228.911249
 30
0.0
 11
123.094547
 21
-228.911249
 31
0.0
  0
LINE
  8
0
  6
CENTER
 62
     1
  5
64B
 10
117.094547
 20
-234.911249
 30
0.0
 11
117.094547
 21
-222.911249
 31
0.0
  0
LINE
  8
0
  6
CENTER
 62
     1
  5
64C
 10
111.094547
 20
-215.911249
 30
0.0
 11
123.094547
 21
-215.911249
 31
0.0
  0
LINE
  8
0
  6
CENTER
 62
     1
  5
64D
 10
117.094547
 20
-221.911249
 30
0.0
 11
117.094547
 21
-209.911249
 31
0.0
  0
LINE
  8
0
  6
CENTER
 62
     1
  5
64E
 10
152.594547
 20
-193.161249
 30
0.0
 11
166.594547
 21
-193.161249
 31
0.0
  0
LINE
  8
0
  6
CENTER
 62
     1
  5
64F
 10
159.594547
 20
-200.161249
 30
0.0
 11
159.594547
 21
-186.161249
 31
0.0
  0
LINE
  8
0
  6
CENTER
 62
     1
  5
650
 10
152.594547
 20
-146.661249
 30
0.0
 11
166.594547
 21
-146.661249
 31
0.0
  0
LINE
  8
0
  6
CENTER
 62
     1
  5
651
 10
159.594547
 20
-153.661249
 30
0.0
 11
159.594547
 21
-139.661249
 31
0.0
  0
LINE
  8
0
  6
CENTER
 62
     1
  5
652
 10
180.834547
 20
-169.911249
 30
0.0
 11
191.854547
 21
-169.911249
 31
0.0
  0
LINE
  8
0
  6
CENTER
 62
     1
  5
653
 10
186.344547
 20
-175.421249
 30
0.0
 11
186.344547
 21
-164.401249
 31
0.0
  0
LINE
  8
0
  6
CENTER
 62
     1
  5
654
 10
227.334547
 20
-169.911249
 30
0.0
 11
238.354547
 21
-169.911249
 31
0.0
  0
LINE
  8
0
  6
CENTER
 62
     1
  5
655
 10
232.844547
 20
-175.421249
 30
0.0
 11
232.844547
 21
-164.401249
 31
0.0
  0
LINE
  8
0
  6
CENTER
 62
     1
  5
656
 10
252.594547
 20
-193.161249
 30
0.0
 11
266.594547
 21
-193.161249
 31
0.0
  0
LINE
  8
0
  6
CENTER
 62
     1
  5
657
 10
259.594547
 20
-200.161249
 30
0.0
 11
259.594547
 21
-186.161249
 31
0.0
  0
LINE
  8
0
  6
CENTER
 62
     1
  5
658
 10
252.594547
 20
-146.661249
 30
0.0
 11
266.594547
 21
-146.661249
 31
0.0
  0
LINE
  8
0
  6
CENTER
 62
     1
  5
659
 10
259.594547
 20
-153.661249
 30
0.0
 11
259.594547
 21
-139.661249
 31
0.0
  0
LINE
  8
0
  6
CENTER
 62
     1
  5
65A
 10
296.094547
 20
-228.911249
 30
0.0
 11
308.094547
 21
-228.911249
 31
0.0
  0
LINE
  8
0
  6
CENTER
 62
     1
  5
65B
 10
302.094547
 20
-234.911249
 30
0.0
 11
302.094547
 21
-222.911249
 31
0.0
  0
LINE
  8
0
  6
CENTER
 62
     1
  5
65C
 10
296.094547
 20
-215.911249
 30
0.0
 11
308.094547
 21
-215.911249
 31
0.0
  0
LINE
  8
0
  6
CENTER
 62
     1
  5
65D
 10
302.094547
 20
-221.911249
 30
0.0
 11
302.094547
 21
-209.911249
 31
0.0
  0
LINE
  8
0
  6
CENTER
 62
     1
  5
65E
 10
318.042528
 20
-116.69961
 30
0.0
 11
312.874814
 21
-129.175555
 31
0.0
  0
LINE
  8
0
  6
CENTER
 62
     1
  5
65F
 10
-452.329943
 20
104.96689
 30
0.0
 11
-452.329943
 21
206.96689
 31
0.0
  0
LINE
  8
0
  6
CENTER
 62
     1
  5
660
 10
209.594547
 20
209.96689
 30
0.0
 11
209.594547
 21
145.46689
 31
0.0
  0
LINE
  8
0
  6
CENTER
 62
     1
  5
661
 10
907.978225
 20
206.96689
 30
0.0
 11
907.978225
 21
104.96689
 31
0.0
  0
ENDSEC
  0
EOF
