  0
SECTION
  2
HEADER
  9
$ACADVER
  1
AC1009
  9
$DWGCODEPAGE
  3
ansi_1252
  9
$INSBASE
 10
0.0
 20
0.0
 30
0.0
  9
$EXTMIN
 10
-439.5
 20
-234.0
 30
0.0
  9
$EXTMAX
 10
1077.5
 20
698.899998
 30
4.0
  9
$LIMMIN
 10
-439.5
 20
-234.0
  9
$LIMMAX
 10
1077.5
 20
698.899998
  9
$ORTHOMODE
 70
     0
  9
$REGENMODE
 70
     1
  9
$FILLMODE
 70
     1
  9
$QTEXTMODE
 70
     0
  9
$MIRRTEXT
 70
     1
  9
$DRAGMODE
 70
     2
  9
$LTSCALE
 40
10.0
  9
$OSMODE
 70
     0
  9
$ATTMODE
 70
     1
  9
$TEXTSIZE
 40
0.2
  9
$TRACEWID
 40
0.05
  9
$TEXTSTYLE
  7
STANDARD
  9
$CLAYER
  8
0
  9
$CELTYPE
  6
CONTINUOUS
  9
$CECOLOR
 62
   256
  9
$DIMSCALE
 40
1.0
  9
$DIMASZ
 40
1.25
  9
$DIMEXO
 40
1.0
  9
$DIMDLI
 40
0.38
  9
$DIMRND
 40
0.0
  9
$DIMDLE
 40
0.0
  9
$DIMEXE
 40
0.75
  9
$DIMTP
 40
0.0
  9
$DIMTM
 40
0.0
  9
$DIMTXT
 40
2.5
  9
$DIMCEN
 40
0.09
  9
$DIMTSZ
 40
0.0
  9
$DIMTOL
 70
     0
  9
$DIMLIM
 70
     0
  9
$DIMTIH
 70
     0
  9
$DIMTOH
 70
     0
  9
$DIMSE1
 70
     0
  9
$DIMSE2
 70
     0
  9
$DIMTAD
 70
     1
  9
$DIMZIN
 70
     0
  9
$DIMBLK
  1

  9
$DIMASO
 70
     1
  9
$DIMSHO
 70
     1
  9
$DIMPOST
  1

  9
$DIMAPOST
  1

  9
$DIMALT
 70
     0
  9
$DIMALTD
 70
     2
  9
$DIMALTF
 40
25.4
  9
$DIMLFAC
 40
1.0
  9
$DIMTOFL
 70
     0
  9
$DIMTVP
 40
0.0
  9
$DIMTIX
 70
     0
  9
$DIMSOXD
 70
     0
  9
$DIMSAH
 70
     0
  9
$DIMBLK1
  1

  9
$DIMBLK2
  1

  9
$DIMSTYLE
  2
STANDARD
  9
$DIMCLRD
 70
     7
  9
$DIMCLRE
 70
     7
  9
$DIMCLRT
 70
     7
  9
$DIMTFAC
 40
0.8
  9
$DIMGAP
 40
1.25
  9
$LUNITS
 70
     2
  9
$LUPREC
 70
     4
  9
$AXISMODE
 70
     0
  9
$AXISUNIT
 10
0.0
 20
0.0
  9
$SKETCHINC
 40
0.1
  9
$FILLETRAD
 40
0.0
  9
$AUNITS
 70
     0
  9
$AUPREC
 70
     0
  9
$MENU
  1
acad
  9
$ELEVATION
 40
0.0
  9
$PELEVATION
 40
0.0
  9
$THICKNESS
 40
0.0
  9
$LIMCHECK
 70
     0
  9
$BLIPMODE
 70
     1
  9
$CHAMFERA
 40
0.0
  9
$CHAMFERB
 40
0.0
  9
$SKPOLY
 70
     0
  9
$TDCREATE
 40
2454769.618657407
  9
$TDUPDATE
 40
2454769.576944444
  9
$TDINDWG
 40
0.0000000000
  9
$TDUSRTIMER
 40
0.0000000000
  9
$USRTIMER
 70
     1
  9
$ANGBASE
 50
0.0
  9
$ANGDIR
 70
     0
  9
$PDMODE
 70
     0
  9
$PDSIZE
 40
0.0
  9
$PLINEWID
 40
0.0
  9
$COORDS
 70
     0
  9
$SPLFRAME
 70
     0
  9
$SPLINETYPE
 70
     6
  9
$SPLINESEGS
 70
     8
  9
$ATTDIA
 70
     0
  9
$ATTREQ
 70
     1
  9
$HANDLING
 70
     1
  9
$HANDSEED
  5
A02
  9
$SURFTAB1
 70
     6
  9
$SURFTAB2
 70
     6
  9
$SURFTYPE
 70
     6
  9
$SURFU
 70
     6
  9
$SURFV
 70
     6
  9
$UCSNAME
  2

  9
$UCSORG
 10
0.0
 20
0.0
 30
0.0
  9
$UCSXDIR
 10
1.0
 20
0.0
 30
0.0
  9
$UCSYDIR
 10
0.0
 20
1.0
 30
0.0
  9
$PUCSNAME
  2

  9
$PUCSORG
 10
0.0
 20
0.0
 30
0.0
  9
$PUCSXDIR
 10
1.0
 20
0.0
 30
0.0
  9
$PUCSYDIR
 10
0.0
 20
1.0
 30
0.0
  9
$USERI1
 70
     0
  9
$USERI2
 70
     0
  9
$USERI3
 70
     0
  9
$USERI4
 70
     0
  9
$USERI5
 70
     0
  9
$USERR1
 40
0.0
  9
$USERR2
 40
0.0
  9
$USERR3
 40
0.0
  9
$USERR4
 40
0.0
  9
$USERR5
 40
0.0
  9
$WORLDVIEW
 70
     1
  9
$SHADEDGE
 70
     3
  9
$SHADEDIF
 70
    70
  9
$TILEMODE
 70
     1
  9
$MAXACTVP
 70
    16
  9
$PINSBASE
 10
0.0
 20
0.0
 30
0.0
  9
$PLIMCHECK
 70
     0
  9
$PEXTMIN
 10
1.000000E+20
 20
1.000000E+20
 30
1.000000E+20
  9
$PEXTMAX
 10
-1.000000E+20
 20
-1.000000E+20
 30
-1.000000E+20
  9
$PLIMMIN
 10
0.0
 20
0.0
  9
$PLIMMAX
 10
12.0
 20
9.0
  9
$UNITMODE
 70
     0
  9
$VISRETAIN
 70
     0
  9
$PLINEGEN
 70
     1
  9
$PSLTSCALE
 70
     0
  9
$TREEDEPTH
 70
  3020
  0
ENDSEC
  0
SECTION
  2
TABLES
  0
TABLE
  2
VPORT
 70
     1
  0
VPORT
  2
*ACTIVE
 70
     0
 10
0.0
 20
0.0
 11
1.0
 21
1.0
 12
6.591288
 22
4.579184
 13
0.0
 23
0.0
 14
1.0
 24
1.0
 15
0.0
 25
0.0
 16
0.0
 26
0.0
 36
1.0
 17
0.0
 27
0.0
 37
0.0
 40
9.158369
 41
0.688564
 42
50.0
 43
0.0
 44
0.0
 50
0.0
 51
0.0
 71
     0
 72
   100
 73
     1
 74
     1
 75
     0
 76
     0
 77
     0
 78
     0
  0
ENDTAB
  0
TABLE
  2
LTYPE
 70
     2
  0
LTYPE
  2
CONTINUOUS
 70
    64
  3
Solid line
 72
    65
 73
     0
 40
0.0
  0
LTYPE
  2
CENTER
 70
    64
  3
____ _ ____ _ ____ _ ____ _ ____ _ ____ _ ____
 72
    65
 73
     4
 40
2.0
 49
1.25
 49
-0.25
 49
0.25
 49
-0.25
  0
ENDTAB
  0
TABLE
  2
LAYER
 70
     1
  0
LAYER
  2
0
 70
     0
 62
     7
  6
CONTINUOUS
  0
ENDTAB
  0
TABLE
  2
STYLE
 70
     1
  0
STYLE
  2
STANDARD
 70
     0
 40
0.0
 41
1.0
 50
0.0
 71
     0
 42
0.0
  3
IsonormD
  4

  0
ENDTAB
  0
TABLE
  2
VIEW
 70
     0
  0
ENDTAB
  0
TABLE
  2
UCS
 70
     0
  0
ENDTAB
  0
TABLE
  2
APPID
 70
     2
  0
APPID
  2
ACAD
 70
     0
  0
APPID
  2
TopSolid_Draft
 70
     0
  0
ENDTAB
  0
TABLE
  2
DIMSTYLE
 70
     1
  0
DIMSTYLE
  2
STANDARD
 70
     0
  3

  4

  5

  6

  7

 40
1.0
 41
1.25
 42
1.0
 43
0.38
 44
0.75
 45
0.0
 46
0.0
 47
0.0
 48
0.0
 71
     0
 72
     0
 73
     0
 74
     0
 75
     0
 76
     0
 77
     1
 78
     0
140
2.5
141
0.09
142
0.0
143
25.4
144
1.0
145
0.0
146
0.8
147
1.25
170
     0
171
     2
172
     0
173
     0
174
     0
175
     0
176
     7
177
     7
178
     7
  0
ENDTAB
  0
ENDSEC
  0
SECTION
  2
BLOCKS
  0
BLOCK
  8
0
  5
2D
  2
AID145
 70
     0
 10
0.0
 20
0.0
 30
0.0
  3
#draft view
  0
ARC
  8
0
  6
CONTINUOUS
 62
     7
  5
2E
 10
291.935725
 20
261.342623
 30
0.0
 40
9.093061
 50
270.562534
 51
289.693624
210
0.0
220
0.0
230
1.0
  0
ARC
  8
0
  6
CONTINUOUS
 62
     7
  5
2F
 10
292.155388
 20
261.572774
 30
0.0
 40
9.323686
 50
250.545124
 51
269.198718
210
0.0
220
0.0
230
1.0
  0
LINE
  8
0
  6
CONTINUOUS
 62
     7
  5
30
 10
289.05
 20
252.781433
 30
0.0
 11
289.05
 21
255.718567
 31
0.0
  0
ARC
  8
0
  6
CONTINUOUS
 62
     7
  5
31
 10
292.114275
 20
247.157377
 30
0.0
 40
9.093061
 50
90.562534
 51
109.693624
210
0.0
220
0.0
230
1.0
  0
ARC
  8
0
  6
CONTINUOUS
 62
     7
  5
32
 10
291.894612
 20
246.927226
 30
0.0
 40
9.323686
 50
70.545124
 51
89.198718
210
0.0
220
0.0
230
1.0
  0
LINE
  8
0
  6
CONTINUOUS
 62
     7
  5
33
 10
295.0
 20
252.781433
 30
0.0
 11
295.0
 21
255.718567
 31
0.0
  0
ARC
  8
0
  6
CONTINUOUS
 62
     7
  5
34
 10
297.885725
 20
251.342623
 30
0.0
 40
9.093061
 50
270.562534
 51
289.693624
210
0.0
220
0.0
230
1.0
  0
ARC
  8
0
  6
CONTINUOUS
 62
     7
  5
35
 10
298.105388
 20
251.572774
 30
0.0
 40
9.323686
 50
250.545124
 51
269.198718
210
0.0
220
0.0
230
1.0
  0
LINE
  8
0
  6
CONTINUOUS
 62
     7
  5
36
 10
295.0
 20
242.781433
 30
0.0
 11
295.0
 21
245.718567
 31
0.0
  0
ARC
  8
0
  6
CONTINUOUS
 62
     7
  5
37
 10
298.064275
 20
237.157377
 30
0.0
 40
9.093061
 50
90.562534
 51
109.693624
210
0.0
220
0.0
230
1.0
  0
ARC
  8
0
  6
CONTINUOUS
 62
     7
  5
38
 10
297.844612
 20
236.927226
 30
0.0
 40
9.323686
 50
70.545124
 51
89.198718
210
0.0
220
0.0
230
1.0
  0
LINE
  8
0
  6
CONTINUOUS
 62
     7
  5
39
 10
300.95
 20
242.781433
 30
0.0
 11
300.95
 21
245.718567
 31
0.0
  0
LINE
  8
0
  6
CONTINUOUS
 62
     7
  5
3A
 10
292.025
 20
256.25
 30
0.0
 11
297.975
 21
256.25
 31
0.0
  0
ARC
  8
0
  6
CONTINUOUS
 62
     7
  5
3B
 10
298.064275
 20
247.157377
 30
0.0
 40
9.093061
 50
90.562534
 51
109.693624
210
0.0
220
0.0
230
1.0
  0
ARC
  8
0
  6
CONTINUOUS
 62
     7
  5
3C
 10
291.894612
 20
236.927226
 30
0.0
 40
9.323686
 50
70.545124
 51
89.198718
210
0.0
220
0.0
230
1.0
  0
ARC
  8
0
  6
CONTINUOUS
 62
     7
  5
3D
 10
298.105388
 20
261.572774
 30
0.0
 40
9.323686
 50
250.545124
 51
269.198718
210
0.0
220
0.0
230
1.0
  0
ARC
  8
0
  6
CONTINUOUS
 62
     7
  5
3E
 10
291.935725
 20
251.342623
 30
0.0
 40
9.093061
 50
270.562534
 51
289.693624
210
0.0
220
0.0
230
1.0
  0
ARC
  8
0
  6
CONTINUOUS
 62
     7
  5
3F
 10
292.155388
 20
251.572774
 30
0.0
 40
9.323686
 50
250.545124
 51
269.198718
210
0.0
220
0.0
230
1.0
  0
LINE
  8
0
  6
CONTINUOUS
 62
     7
  5
40
 10
289.05
 20
242.781433
 30
0.0
 11
289.05
 21
245.718567
 31
0.0
  0
ARC
  8
0
  6
CONTINUOUS
 62
     7
  5
41
 10
292.114275
 20
237.157377
 30
0.0
 40
9.093061
 50
90.562534
 51
109.693624
210
0.0
220
0.0
230
1.0
  0
ARC
  8
0
  6
CONTINUOUS
 62
     7
  5
42
 10
297.885725
 20
261.342623
 30
0.0
 40
9.093061
 50
270.562534
 51
289.693624
210
0.0
220
0.0
230
1.0
  0
ARC
  8
0
  6
CONTINUOUS
 62
     7
  5
43
 10
297.844612
 20
246.927226
 30
0.0
 40
9.323686
 50
70.545124
 51
89.198718
210
0.0
220
0.0
230
1.0
  0
LINE
  8
0
  6
CONTINUOUS
 62
     7
  5
44
 10
300.95
 20
252.781433
 30
0.0
 11
300.95
 21
255.718567
 31
0.0
  0
LINE
  8
0
  6
CONTINUOUS
 62
     7
  5
45
 10
292.025
 20
242.25
 30
0.0
 11
297.975
 21
242.25
 31
0.0
  0
LINE
  8
0
  6
CONTINUOUS
 62
     7
  5
46
 10
304.0
 20
252.25
 30
0.0
 11
304.0
 21
246.25
 31
0.0
  0
LINE
  8
0
  6
CONTINUOUS
 62
     7
  5
47
 10
304.0
 20
246.25
 30
0.0
 11
299.0
 21
246.25
 31
0.0
  0
LINE
  8
0
  6
CONTINUOUS
 62
     7
  5
48
 10
299.0
 20
246.25
 30
0.0
 11
299.0
 21
252.25
 31
0.0
  0
LINE
  8
0
  6
CONTINUOUS
 62
     7
  5
49
 10
299.0
 20
252.25
 30
0.0
 11
304.0
 21
252.25
 31
0.0
  0
LINE
  8
0
  6
CONTINUOUS
 62
     7
  5
4A
 10
291.0
 20
252.25
 30
0.0
 11
291.0
 21
246.25
 31
0.0
  0
LINE
  8
0
  6
CONTINUOUS
 62
     7
  5
4B
 10
299.0
 20
246.25
 30
0.0
 11
291.0
 21
246.25
 31
0.0
  0
LINE
  8
0
  6
CONTINUOUS
 62
     7
  5
4C
 10
291.0
 20
252.25
 30
0.0
 11
299.0
 21
252.25
 31
0.0
  0
LINE
  8
0
  6
CONTINUOUS
 62
     7
  5
4D
 10
286.0
 20
246.25
 30
0.0
 11
286.0
 21
252.25
 31
0.0
  0
LINE
  8
0
  6
CONTINUOUS
 62
     7
  5
4E
 10
291.0
 20
246.25
 30
0.0
 11
286.0
 21
246.25
 31
0.0
  0
LINE
  8
0
  6
CONTINUOUS
 62
     7
  5
4F
 10
286.0
 20
252.25
 30
0.0
 11
291.0
 21
252.25
 31
0.0
  0
POLYLINE
  8
0
  6
CONTINUOUS
 62
     7
  5
50
 66
     1
 10
0.0
 20
0.0
 30
0.0
 40
0.5
 41
0.5
  0
VERTEX
  8
0
 62
     7
  5
51
 10
303.592887
 20
268.651754
 30
0.0
  0
VERTEX
  8
0
 62
     7
  5
52
 10
303.581424
 20
268.760489
 30
0.0
  0
VERTEX
  8
0
 62
     7
  5
53
 10
303.573338
 20
268.8686
 30
0.0
  0
VERTEX
  8
0
 62
     7
  5
54
 10
303.568676
 20
268.97547
 30
0.0
  0
VERTEX
  8
0
 62
     7
  5
55
 10
303.567465
 20
269.080485
 30
0.0
  0
VERTEX
  8
0
 62
     7
  5
56
 10
303.56971
 20
269.183043
 30
0.0
  0
VERTEX
  8
0
 62
     7
  5
57
 10
303.575401
 20
269.282558
 30
0.0
  0
VERTEX
  8
0
 62
     7
  5
58
 10
303.584503
 20
269.378459
 30
0.0
  0
VERTEX
  8
0
 62
     7
  5
59
 10
303.596965
 20
269.470197
 30
0.0
  0
VERTEX
  8
0
 62
     7
  5
5A
 10
303.612715
 20
269.557246
 30
0.0
  0
VERTEX
  8
0
 62
     7
  5
5B
 10
303.631663
 20
269.639108
 30
0.0
  0
VERTEX
  8
0
 62
     7
  5
5C
 10
303.653701
 20
269.715313
 30
0.0
  0
VERTEX
  8
0
 62
     7
  5
5D
 10
303.678702
 20
269.785425
 30
0.0
  0
VERTEX
  8
0
 62
     7
  5
5E
 10
303.706524
 20
269.849042
 30
0.0
  0
VERTEX
  8
0
 62
     7
  5
5F
 10
303.737006
 20
269.9058
 30
0.0
  0
VERTEX
  8
0
 62
     7
  5
60
 10
303.769974
 20
269.955374
 30
0.0
  0
VERTEX
  8
0
 62
     7
  5
61
 10
303.805239
 20
269.997479
 30
0.0
  0
VERTEX
  8
0
 62
     7
  5
62
 10
303.842599
 20
270.031875
 30
0.0
  0
VERTEX
  8
0
 62
     7
  5
63
 10
303.881841
 20
270.058364
 30
0.0
  0
VERTEX
  8
0
 62
     7
  5
64
 10
303.922739
 20
270.076795
 30
0.0
  0
VERTEX
  8
0
 62
     7
  5
65
 10
303.965059
 20
270.087061
 30
0.0
  0
SEQEND
  8
0
  5
66
  0
POLYLINE
  8
0
  6
CONTINUOUS
 62
     7
  5
67
 66
     1
 10
0.0
 20
0.0
 30
0.0
 40
0.5
 41
0.5
  0
VERTEX
  8
0
 62
     7
  5
68
 10
304.377354
 20
267.21652
 30
0.0
  0
VERTEX
  8
0
 62
     7
  5
69
 10
304.330547
 20
267.214552
 30
0.0
  0
VERTEX
  8
0
 62
     7
  5
6A
 10
304.282683
 20
267.222106
 30
0.0
  0
VERTEX
  8
0
 62
     7
  5
6B
 10
304.234079
 20
267.23913
 30
0.0
  0
VERTEX
  8
0
 62
     7
  5
6C
 10
304.185056
 20
267.265514
 30
0.0
  0
VERTEX
  8
0
 62
     7
  5
6D
 10
304.13594
 20
267.301081
 30
0.0
  0
VERTEX
  8
0
 62
     7
  5
6E
 10
304.087056
 20
267.345596
 30
0.0
  0
VERTEX
  8
0
 62
     7
  5
6F
 10
304.038728
 20
267.398765
 30
0.0
  0
VERTEX
  8
0
 62
     7
  5
70
 10
303.991276
 20
267.460234
 30
0.0
  0
VERTEX
  8
0
 62
     7
  5
71
 10
303.945014
 20
267.529597
 30
0.0
  0
VERTEX
  8
0
 62
     7
  5
72
 10
303.900249
 20
267.606395
 30
0.0
  0
VERTEX
  8
0
 62
     7
  5
73
 10
303.857277
 20
267.690117
 30
0.0
  0
VERTEX
  8
0
 62
     7
  5
74
 10
303.816383
 20
267.780211
 30
0.0
  0
VERTEX
  8
0
 62
     7
  5
75
 10
303.777839
 20
267.876078
 30
0.0
  0
VERTEX
  8
0
 62
     7
  5
76
 10
303.741899
 20
267.977084
 30
0.0
  0
VERTEX
  8
0
 62
     7
  5
77
 10
303.708801
 20
268.08256
 30
0.0
  0
VERTEX
  8
0
 62
     7
  5
78
 10
303.678765
 20
268.191807
 30
0.0
  0
VERTEX
  8
0
 62
     7
  5
79
 10
303.65199
 20
268.304101
 30
0.0
  0
VERTEX
  8
0
 62
     7
  5
7A
 10
303.628653
 20
268.418698
 30
0.0
  0
VERTEX
  8
0
 62
     7
  5
7B
 10
303.608908
 20
268.534839
 30
0.0
  0
VERTEX
  8
0
 62
     7
  5
7C
 10
303.592887
 20
268.651754
 30
0.0
  0
SEQEND
  8
0
  5
7D
  0
POLYLINE
  8
0
  6
CONTINUOUS
 62
     7
  5
7E
 66
     1
 10
0.0
 20
0.0
 30
0.0
 40
0.5
 41
0.5
  0
VERTEX
  8
0
 62
     7
  5
7F
 10
303.965059
 20
270.087061
 30
0.0
  0
VERTEX
  8
0
 62
     7
  5
80
 10
304.015273
 20
270.088694
 30
0.0
  0
VERTEX
  8
0
 62
     7
  5
81
 10
304.066672
 20
270.079396
 30
0.0
  0
VERTEX
  8
0
 62
     7
  5
82
 10
304.118864
 20
270.059239
 30
0.0
  0
VERTEX
  8
0
 62
     7
  5
83
 10
304.171452
 20
270.028377
 30
0.0
  0
VERTEX
  8
0
 62
     7
  5
84
 10
304.224036
 20
269.987043
 30
0.0
  0
VERTEX
  8
0
 62
     7
  5
85
 10
304.276217
 20
269.935553
 30
0.0
  0
VERTEX
  8
0
 62
     7
  5
86
 10
304.327597
 20
269.874298
 30
0.0
  0
VERTEX
  8
0
 62
     7
  5
87
 10
304.377785
 20
269.803744
 30
0.0
  0
VERTEX
  8
0
 62
     7
  5
88
 10
304.426401
 20
269.724428
 30
0.0
  0
VERTEX
  8
0
 62
     7
  5
89
 10
304.473073
 20
269.636952
 30
0.0
  0
VERTEX
  8
0
 62
     7
  5
8A
 10
304.517447
 20
269.541983
 30
0.0
  0
VERTEX
  8
0
 62
     7
  5
8B
 10
304.559186
 20
269.440242
 30
0.0
  0
VERTEX
  8
0
 62
     7
  5
8C
 10
304.597972
 20
269.332504
 30
0.0
  0
VERTEX
  8
0
 62
     7
  5
8D
 10
304.633509
 20
269.219588
 30
0.0
  0
VERTEX
  8
0
 62
     7
  5
8E
 10
304.665529
 20
269.102352
 30
0.0
  0
VERTEX
  8
0
 62
     7
  5
8F
 10
304.693786
 20
268.98169
 30
0.0
  0
VERTEX
  8
0
 62
     7
  5
90
 10
304.718067
 20
268.858517
 30
0.0
  0
VERTEX
  8
0
 62
     7
  5
91
 10
304.738186
 20
268.733772
 30
0.0
  0
VERTEX
  8
0
 62
     7
  5
92
 10
304.753991
 20
268.608403
 30
0.0
  0
VERTEX
  8
0
 62
     7
  5
93
 10
304.765361
 20
268.483364
 30
0.0
  0
VERTEX
  8
0
 62
     7
  5
94
 10
304.772209
 20
268.359606
 30
0.0
  0
VERTEX
  8
0
 62
     7
  5
95
 10
304.774485
 20
268.23807
 30
0.0
  0
VERTEX
  8
0
 62
     7
  5
96
 10
304.772169
 20
268.119681
 30
0.0
  0
VERTEX
  8
0
 62
     7
  5
97
 10
304.765281
 20
268.005338
 30
0.0
  0
VERTEX
  8
0
 62
     7
  5
98
 10
304.753872
 20
267.895913
 30
0.0
  0
VERTEX
  8
0
 62
     7
  5
99
 10
304.738029
 20
267.792236
 30
0.0
  0
VERTEX
  8
0
 62
     7
  5
9A
 10
304.717873
 20
267.695098
 30
0.0
  0
VERTEX
  8
0
 62
     7
  5
9B
 10
304.693557
 20
267.605236
 30
0.0
  0
VERTEX
  8
0
 62
     7
  5
9C
 10
304.665266
 20
267.523334
 30
0.0
  0
VERTEX
  8
0
 62
     7
  5
9D
 10
304.633215
 20
267.450015
 30
0.0
  0
VERTEX
  8
0
 62
     7
  5
9E
 10
304.597647
 20
267.385837
 30
0.0
  0
VERTEX
  8
0
 62
     7
  5
9F
 10
304.558835
 20
267.331288
 30
0.0
  0
VERTEX
  8
0
 62
     7
  5
A0
 10
304.517072
 20
267.286783
 30
0.0
  0
VERTEX
  8
0
 62
     7
  5
A1
 10
304.472676
 20
267.252661
 30
0.0
  0
VERTEX
  8
0
 62
     7
  5
A2
 10
304.425985
 20
267.22918
 30
0.0
  0
VERTEX
  8
0
 62
     7
  5
A3
 10
304.377354
 20
267.21652
 30
0.0
  0
SEQEND
  8
0
  5
A4
  0
LINE
  8
0
  6
CONTINUOUS
 62
     7
  5
A5
 10
289.05
 20
252.25
 30
0.0
 11
289.05
 21
252.781433
 31
0.0
  0
LINE
  8
0
  6
CONTINUOUS
 62
     7
  5
A6
 10
300.95
 20
246.25
 30
0.0
 11
300.95
 21
245.718567
 31
0.0
  0
LINE
  8
0
  6
CONTINUOUS
 62
     7
  5
A7
 10
300.95
 20
242.781433
 30
0.0
 11
300.95
 21
242.25
 31
0.0
  0
LINE
  8
0
  6
CONTINUOUS
 62
     7
  5
A8
 10
300.95
 20
242.25
 30
0.0
 11
297.975
 21
242.25
 31
0.0
  0
LINE
  8
0
  6
CONTINUOUS
 62
     7
  5
A9
 10
300.95
 20
252.781433
 30
0.0
 11
300.95
 21
252.25
 31
0.0
  0
LINE
  8
0
  6
CONTINUOUS
 62
     7
  5
AA
 10
289.05
 20
255.718567
 30
0.0
 11
289.05
 21
256.25
 31
0.0
  0
LINE
  8
0
  6
CONTINUOUS
 62
     7
  5
AB
 10
289.05
 20
256.25
 30
0.0
 11
292.025
 21
256.25
 31
0.0
  0
LINE
  8
0
  6
CONTINUOUS
 62
     7
  5
AC
 10
289.05
 20
245.718567
 30
0.0
 11
289.05
 21
246.25
 31
0.0
  0
LINE
  8
0
  6
CONTINUOUS
 62
     7
  5
AD
 10
300.95
 20
256.25
 30
0.0
 11
300.95
 21
255.718567
 31
0.0
  0
LINE
  8
0
  6
CONTINUOUS
 62
     7
  5
AE
 10
300.95
 20
256.25
 30
0.0
 11
297.975
 21
256.25
 31
0.0
  0
LINE
  8
0
  6
CONTINUOUS
 62
     7
  5
AF
 10
289.05
 20
242.25
 30
0.0
 11
289.05
 21
242.781433
 31
0.0
  0
LINE
  8
0
  6
CONTINUOUS
 62
     7
  5
B0
 10
289.05
 20
242.25
 30
0.0
 11
292.025
 21
242.25
 31
0.0
  0
LINE
  8
0
  6
CONTINUOUS
 62
     7
  5
B1
 10
298.459
 20
227.25
 30
0.0
 11
291.541
 21
227.25
 31
0.0
  0
LINE
  8
0
  6
CONTINUOUS
 62
     7
  5
B2
 10
291.0
 20
227.791
 30
0.0
 11
295.0
 21
227.791
 31
0.0
  0
LINE
  8
0
  6
CONTINUOUS
 62
     7
  5
B3
 10
295.0
 20
227.791
 30
0.0
 11
299.0
 21
227.791
 31
0.0
  0
LINE
  8
0
  6
CONTINUOUS
 62
     7
  5
B4
 10
291.541
 20
257.25
 30
0.0
 11
298.459
 21
257.25
 31
0.0
  0
LINE
  8
0
  6
CONTINUOUS
 62
     7
  5
B5
 10
299.0
 20
256.709
 30
0.0
 11
291.0
 21
256.709
 31
0.0
  0
LINE
  8
0
  6
CONTINUOUS
 62
     7
  5
B6
 10
395.0
 20
276.25
 30
0.0
 11
395.0
 21
284.25
 31
0.0
  0
LINE
  8
0
  6
CONTINUOUS
 62
     7
  5
B7
 10
395.0
 20
276.25
 30
0.0
 11
195.0
 21
276.25
 31
0.0
  0
LINE
  8
0
  6
CONTINUOUS
 62
     7
  5
B8
 10
195.0
 20
276.25
 30
0.0
 11
195.0
 21
284.25
 31
0.0
  0
LINE
  8
0
  6
CONTINUOUS
 62
     7
  5
B9
 10
210.0
 20
284.25
 30
0.0
 11
195.0
 21
284.25
 31
0.0
  0
LINE
  8
0
  6
CONTINUOUS
 62
     7
  5
BA
 10
380.0
 20
289.25
 30
0.0
 11
210.0
 21
289.25
 31
0.0
  0
LINE
  8
0
  6
CONTINUOUS
 62
     7
  5
BB
 10
380.0
 20
289.25
 30
0.0
 11
380.0
 21
284.25
 31
0.0
  0
LINE
  8
0
  6
CONTINUOUS
 62
     7
  5
BC
 10
380.0
 20
284.25
 30
0.0
 11
395.0
 21
284.25
 31
0.0
  0
LINE
  8
0
  6
CONTINUOUS
 62
     7
  5
BD
 10
210.0
 20
289.25
 30
0.0
 11
210.0
 21
284.25
 31
0.0
  0
LINE
  8
0
  6
CONTINUOUS
 62
     7
  5
BE
 10
323.15
 20
275.0
 30
0.0
 11
383.85
 21
275.0
 31
0.0
  0
LINE
  8
0
  6
CONTINUOUS
 62
     7
  5
BF
 10
323.15
 20
275.0
 30
0.0
 11
323.15
 21
276.25
 31
0.0
  0
LINE
  8
0
  6
CONTINUOUS
 62
     7
  5
C0
 10
383.85
 20
275.0
 30
0.0
 11
383.85
 21
276.25
 31
0.0
  0
LINE
  8
0
  6
CONTINUOUS
 62
     7
  5
C1
 10
323.15
 20
242.65
 30
0.0
 11
323.15
 21
275.0
 31
0.0
  0
LINE
  8
0
  6
CONTINUOUS
 62
     7
  5
C2
 10
383.85
 20
242.65
 30
0.0
 11
383.85
 21
275.0
 31
0.0
  0
LINE
  8
0
  6
CONTINUOUS
 62
     7
  5
C3
 10
266.85
 20
242.65
 30
0.0
 11
266.85
 21
242.15
 31
0.0
  0
LINE
  8
0
  6
CONTINUOUS
 62
     7
  5
C4
 10
266.85
 20
242.15
 30
0.0
 11
206.15
 21
242.15
 31
0.0
  0
LINE
  8
0
  6
CONTINUOUS
 62
     7
  5
C5
 10
206.15
 20
242.15
 30
0.0
 11
206.15
 21
242.65
 31
0.0
  0
LINE
  8
0
  6
CONTINUOUS
 62
     7
  5
C6
 10
266.85
 20
275.0
 30
0.0
 11
206.15
 21
275.0
 31
0.0
  0
LINE
  8
0
  6
CONTINUOUS
 62
     7
  5
C7
 10
266.85
 20
242.65
 30
0.0
 11
266.85
 21
275.0
 31
0.0
  0
LINE
  8
0
  6
CONTINUOUS
 62
     7
  5
C8
 10
206.15
 20
242.65
 30
0.0
 11
206.15
 21
275.0
 31
0.0
  0
LINE
  8
0
  6
CONTINUOUS
 62
     7
  5
C9
 10
323.15
 20
242.15
 30
0.0
 11
383.85
 21
242.15
 31
0.0
  0
LINE
  8
0
  6
CONTINUOUS
 62
     7
  5
CA
 10
323.15
 20
242.65
 30
0.0
 11
323.15
 21
242.15
 31
0.0
  0
LINE
  8
0
  6
CONTINUOUS
 62
     7
  5
CB
 10
383.85
 20
242.15
 30
0.0
 11
383.85
 21
242.65
 31
0.0
  0
LINE
  8
0
  6
CONTINUOUS
 62
     7
  5
CC
 10
266.85
 20
275.0
 30
0.0
 11
266.85
 21
276.25
 31
0.0
  0
LINE
  8
0
  6
CONTINUOUS
 62
     7
  5
CD
 10
206.15
 20
275.0
 30
0.0
 11
206.15
 21
276.25
 31
0.0
  0
LINE
  8
0
  6
CONTINUOUS
 62
     7
  5
CE
 10
195.65
 20
242.65
 30
0.0
 11
195.65
 21
242.15
 31
0.0
  0
LINE
  8
0
  6
CONTINUOUS
 62
     7
  5
CF
 10
195.65
 20
242.15
 30
0.0
 11
206.15
 21
242.15
 31
0.0
  0
LINE
  8
0
  6
CONTINUOUS
 62
     7
  5
D0
 10
394.35
 20
242.65
 30
0.0
 11
394.35
 21
242.15
 31
0.0
  0
LINE
  8
0
  6
CONTINUOUS
 62
     7
  5
D1
 10
394.35
 20
242.15
 30
0.0
 11
383.85
 21
242.15
 31
0.0
  0
LINE
  8
0
  6
CONTINUOUS
 62
     7
  5
D2
 10
312.65
 20
242.15
 30
0.0
 11
312.65
 21
242.65
 31
0.0
  0
LINE
  8
0
  6
CONTINUOUS
 62
     7
  5
D3
 10
312.65
 20
242.15
 30
0.0
 11
323.15
 21
242.15
 31
0.0
  0
LINE
  8
0
  6
CONTINUOUS
 62
     7
  5
D4
 10
277.35
 20
242.15
 30
0.0
 11
277.35
 21
242.65
 31
0.0
  0
LINE
  8
0
  6
CONTINUOUS
 62
     7
  5
D5
 10
277.35
 20
242.15
 30
0.0
 11
266.85
 21
242.15
 31
0.0
  0
CIRCLE
  8
0
  6
CONTINUOUS
 62
     7
  5
D6
 10
271.05
 20
266.25
 30
0.0
 40
2.8
210
0.0
220
0.0
230
1.0
  0
LINE
  8
0
  6
CONTINUOUS
 62
     7
  5
D7
 10
273.25
 20
262.15
 30
0.0
 11
273.25
 21
254.35
 31
0.0
  0
LINE
  8
0
  6
CONTINUOUS
 62
     7
  5
D8
 10
273.25
 20
254.35
 30
0.0
 11
277.35
 21
254.35
 31
0.0
  0
LINE
  8
0
  6
CONTINUOUS
 62
     7
  5
D9
 10
277.35
 20
262.15
 30
0.0
 11
273.25
 21
262.15
 31
0.0
  0
LINE
  8
0
  6
CONTINUOUS
 62
     7
  5
DA
 10
277.35
 20
271.25
 30
0.0
 11
277.35
 21
262.15
 31
0.0
  0
LINE
  8
0
  6
CONTINUOUS
 62
     7
  5
DB
 10
277.35
 20
254.35
 30
0.0
 11
277.35
 21
242.65
 31
0.0
  0
LINE
  8
0
  6
CONTINUOUS
 62
     7
  5
DC
 10
390.25
 20
254.35
 30
0.0
 11
390.25
 21
262.15
 31
0.0
  0
LINE
  8
0
  6
CONTINUOUS
 62
     7
  5
DD
 10
394.35
 20
254.35
 30
0.0
 11
390.25
 21
254.35
 31
0.0
  0
LINE
  8
0
  6
CONTINUOUS
 62
     7
  5
DE
 10
390.25
 20
262.15
 30
0.0
 11
394.35
 21
262.15
 31
0.0
  0
CIRCLE
  8
0
  6
CONTINUOUS
 62
     7
  5
DF
 10
388.05
 20
266.25
 30
0.0
 40
2.8
210
0.0
220
0.0
230
1.0
  0
LINE
  8
0
  6
CONTINUOUS
 62
     7
  5
E0
 10
394.35
 20
242.65
 30
0.0
 11
394.35
 21
254.35
 31
0.0
  0
LINE
  8
0
  6
CONTINUOUS
 62
     7
  5
E1
 10
394.35
 20
262.15
 30
0.0
 11
394.35
 21
271.25
 31
0.0
  0
CIRCLE
  8
0
  6
CONTINUOUS
 62
     7
  5
E2
 10
201.95
 20
266.25
 30
0.0
 40
2.8
210
0.0
220
0.0
230
1.0
  0
LINE
  8
0
  6
CONTINUOUS
 62
     7
  5
E3
 10
199.75
 20
254.35
 30
0.0
 11
199.75
 21
262.15
 31
0.0
  0
LINE
  8
0
  6
CONTINUOUS
 62
     7
  5
E4
 10
199.75
 20
262.15
 30
0.0
 11
195.65
 21
262.15
 31
0.0
  0
LINE
  8
0
  6
CONTINUOUS
 62
     7
  5
E5
 10
195.65
 20
254.35
 30
0.0
 11
199.75
 21
254.35
 31
0.0
  0
LINE
  8
0
  6
CONTINUOUS
 62
     7
  5
E6
 10
195.65
 20
262.15
 30
0.0
 11
195.65
 21
271.25
 31
0.0
  0
LINE
  8
0
  6
CONTINUOUS
 62
     7
  5
E7
 10
195.65
 20
242.65
 30
0.0
 11
195.65
 21
254.35
 31
0.0
  0
LINE
  8
0
  6
CONTINUOUS
 62
     7
  5
E8
 10
277.35
 20
271.75
 30
0.0
 11
266.85
 21
271.75
 31
0.0
  0
LINE
  8
0
  6
CONTINUOUS
 62
     7
  5
E9
 10
277.35
 20
271.25
 30
0.0
 11
277.35
 21
271.75
 31
0.0
  0
CIRCLE
  8
0
  6
CONTINUOUS
 62
     7
  5
EA
 10
318.95
 20
266.25
 30
0.0
 40
2.8
210
0.0
220
0.0
230
1.0
  0
LINE
  8
0
  6
CONTINUOUS
 62
     7
  5
EB
 10
316.75
 20
254.35
 30
0.0
 11
312.65
 21
254.35
 31
0.0
  0
LINE
  8
0
  6
CONTINUOUS
 62
     7
  5
EC
 10
316.75
 20
262.15
 30
0.0
 11
316.75
 21
254.35
 31
0.0
  0
LINE
  8
0
  6
CONTINUOUS
 62
     7
  5
ED
 10
312.65
 20
262.15
 30
0.0
 11
316.75
 21
262.15
 31
0.0
  0
LINE
  8
0
  6
CONTINUOUS
 62
     7
  5
EE
 10
312.65
 20
254.35
 30
0.0
 11
312.65
 21
242.65
 31
0.0
  0
LINE
  8
0
  6
CONTINUOUS
 62
     7
  5
EF
 10
312.65
 20
271.25
 30
0.0
 11
312.65
 21
262.15
 31
0.0
  0
LINE
  8
0
  6
CONTINUOUS
 62
     7
  5
F0
 10
195.65
 20
271.75
 30
0.0
 11
206.15
 21
271.75
 31
0.0
  0
LINE
  8
0
  6
CONTINUOUS
 62
     7
  5
F1
 10
195.65
 20
271.75
 30
0.0
 11
195.65
 21
271.25
 31
0.0
  0
LINE
  8
0
  6
CONTINUOUS
 62
     7
  5
F2
 10
312.65
 20
271.75
 30
0.0
 11
323.15
 21
271.75
 31
0.0
  0
LINE
  8
0
  6
CONTINUOUS
 62
     7
  5
F3
 10
312.65
 20
271.25
 30
0.0
 11
312.65
 21
271.75
 31
0.0
  0
LINE
  8
0
  6
CONTINUOUS
 62
     7
  5
F4
 10
394.35
 20
271.75
 30
0.0
 11
383.85
 21
271.75
 31
0.0
  0
LINE
  8
0
  6
CONTINUOUS
 62
     7
  5
F5
 10
394.35
 20
271.75
 30
0.0
 11
394.35
 21
271.25
 31
0.0
  0
LINE
  8
0
  6
CONTINUOUS
 62
     7
  5
F6
 10
199.1
 20
261.75
 30
0.0
 11
199.1
 21
254.75
 31
0.0
  0
LINE
  8
0
  6
CONTINUOUS
 62
     7
  5
F7
 10
199.0
 20
261.65
 30
0.0
 11
199.0
 21
254.85
 31
0.0
  0
LINE
  8
0
  6
CONTINUOUS
 62
     7
  5
F8
 10
273.9
 20
254.75
 30
0.0
 11
273.9
 21
258.25
 31
0.0
  0
LINE
  8
0
  6
CONTINUOUS
 62
     7
  5
F9
 10
273.9
 20
258.25
 30
0.0
 11
273.9
 21
261.75
 31
0.0
  0
LINE
  8
0
  6
CONTINUOUS
 62
     7
  5
FA
 10
390.9
 20
261.75
 30
0.0
 11
390.9
 21
254.75
 31
0.0
  0
LINE
  8
0
  6
CONTINUOUS
 62
     7
  5
FB
 10
391.0
 20
261.65
 30
0.0
 11
391.0
 21
254.85
 31
0.0
  0
LINE
  8
0
  6
CONTINUOUS
 62
     7
  5
FC
 10
316.0
 20
254.85
 30
0.0
 11
316.0
 21
258.25
 31
0.0
  0
LINE
  8
0
  6
CONTINUOUS
 62
     7
  5
FD
 10
316.1
 20
254.75
 30
0.0
 11
316.1
 21
261.75
 31
0.0
  0
LINE
  8
0
  6
CONTINUOUS
 62
     7
  5
FE
 10
316.0
 20
258.25
 30
0.0
 11
316.0
 21
261.65
 31
0.0
  0
LINE
  8
0
  6
CONTINUOUS
 62
     7
  5
FF
 10
274.0
 20
254.85
 30
0.0
 11
274.0
 21
261.65
 31
0.0
  0
ARC
  8
0
  6
CONTINUOUS
 62
     7
  5
100
 10
201.001731
 20
258.28505
 30
0.0
 40
5.001854
 50
180.401498
 51
197.150018
210
0.0
220
0.0
230
0.9999999999999999
  0
ARC
  8
0
  6
CONTINUOUS
 62
     7
  5
101
 10
201.110223
 20
258.198202
 30
0.0
 40
5.110486
 50
163.029227
 51
179.419256
210
0.0
220
0.0
230
1.0
  0
LINE
  8
0
  6
CONTINUOUS
 62
     7
  5
102
 10
199.0
 20
259.68987
 30
0.0
 11
196.22228
 21
259.68987
 31
0.0
  0
LINE
  8
0
  6
CONTINUOUS
 62
     7
  5
103
 10
196.22228
 20
256.81013
 30
0.0
 11
199.0
 21
256.81013
 31
0.0
  0
LINE
  8
0
  6
CONTINUOUS
 62
     7
  5
104
 10
394.0
 20
258.25
 30
0.0
 11
394.0
 21
260.415064
 31
0.0
  0
ARC
  8
0
  6
CONTINUOUS
 62
     7
  5
105
 10
388.889777
 20
258.198202
 30
0.0
 40
5.110486
 50
0.580744
 51
16.970773
210
0.0
220
0.0
230
1.0
  0
LINE
  8
0
  6
CONTINUOUS
 62
     7
  5
106
 10
393.77772
 20
259.695129
 30
0.0
 11
393.77772
 21
259.68987
 31
0.0
  0
LINE
  8
0
  6
CONTINUOUS
 62
     7
  5
107
 10
394.0
 20
260.415064
 30
0.0
 11
393.77772
 21
259.695129
 31
0.0
  0
LINE
  8
0
  6
CONTINUOUS
 62
     7
  5
108
 10
391.0
 20
259.68987
 30
0.0
 11
393.77772
 21
259.68987
 31
0.0
  0
LINE
  8
0
  6
CONTINUOUS
 62
     7
  5
109
 10
393.77772
 20
259.695129
 30
0.0
 11
391.0
 21
259.695129
 31
0.0
  0
LINE
  8
0
  6
CONTINUOUS
 62
     7
  5
10A
 10
313.22228
 20
259.68987
 30
0.0
 11
313.22228
 21
259.695129
 31
0.0
  0
ARC
  8
0
  6
CONTINUOUS
 62
     7
  5
10B
 10
318.001489
 20
258.214987
 30
0.0
 40
5.001611
 50
162.849572
 51
179.598912
210
0.0
220
0.0
230
1.0
  0
LINE
  8
0
  6
CONTINUOUS
 62
     7
  5
10C
 10
313.0
 20
260.415064
 30
0.0
 11
313.0
 21
258.25
 31
0.0
  0
LINE
  8
0
  6
CONTINUOUS
 62
     7
  5
10D
 10
313.22228
 20
259.695129
 30
0.0
 11
313.0
 21
260.415064
 31
0.0
  0
LINE
  8
0
  6
CONTINUOUS
 62
     7
  5
10E
 10
316.0
 20
256.81013
 30
0.0
 11
313.22228
 21
256.81013
 31
0.0
  0
ARC
  8
0
  6
CONTINUOUS
 62
     7
  5
10F
 10
318.110726
 20
258.301876
 30
0.0
 40
5.110989
 50
180.581556
 51
196.96996
210
0.0
220
0.0
230
1.0
  0
LINE
  8
0
  6
CONTINUOUS
 62
     7
  5
110
 10
313.22228
 20
259.68987
 30
0.0
 11
316.0
 21
259.68987
 31
0.0
  0
LINE
  8
0
  6
CONTINUOUS
 62
     7
  5
111
 10
196.22228
 20
259.695129
 30
0.0
 11
196.22228
 21
259.68987
 31
0.0
  0
LINE
  8
0
  6
CONTINUOUS
 62
     7
  5
112
 10
196.0
 20
258.25
 30
0.0
 11
196.0
 21
260.415064
 31
0.0
  0
LINE
  8
0
  6
CONTINUOUS
 62
     7
  5
113
 10
196.0
 20
260.415064
 30
0.0
 11
196.22228
 21
259.695129
 31
0.0
  0
LINE
  8
0
  6
CONTINUOUS
 62
     7
  5
114
 10
313.0
 20
258.25
 30
0.0
 11
313.0
 21
256.084936
 31
0.0
  0
LINE
  8
0
  6
CONTINUOUS
 62
     7
  5
115
 10
313.22228
 20
256.804871
 30
0.0
 11
313.22228
 21
256.81013
 31
0.0
  0
LINE
  8
0
  6
CONTINUOUS
 62
     7
  5
116
 10
313.0
 20
256.084936
 30
0.0
 11
313.22228
 21
256.804871
 31
0.0
  0
LINE
  8
0
  6
CONTINUOUS
 62
     7
  5
117
 10
277.0
 20
260.415064
 30
0.0
 11
277.0
 21
258.25
 31
0.0
  0
ARC
  8
0
  6
CONTINUOUS
 62
     7
  5
118
 10
271.998511
 20
258.214987
 30
0.0
 40
5.001611
 50
0.401088
 51
17.150428
210
0.0
220
0.0
230
1.0
  0
LINE
  8
0
  6
CONTINUOUS
 62
     7
  5
119
 10
276.77772
 20
259.68987
 30
0.0
 11
276.77772
 21
259.695129
 31
0.0
  0
LINE
  8
0
  6
CONTINUOUS
 62
     7
  5
11A
 10
276.77772
 20
259.695129
 30
0.0
 11
277.0
 21
260.415064
 31
0.0
  0
ARC
  8
0
  6
CONTINUOUS
 62
     7
  5
11B
 10
388.998269
 20
258.28505
 30
0.0
 40
5.001854
 50
342.849982
 51
359.598502
210
0.0
220
0.0
230
1.0
  0
LINE
  8
0
  6
CONTINUOUS
 62
     7
  5
11C
 10
393.77772
 20
256.81013
 30
0.0
 11
391.0
 21
256.81013
 31
0.0
  0
LINE
  8
0
  6
CONTINUOUS
 62
     7
  5
11D
 10
199.0
 20
256.804871
 30
0.0
 11
196.22228
 21
256.804871
 31
0.0
  0
LINE
  8
0
  6
CONTINUOUS
 62
     7
  5
11E
 10
196.22228
 20
256.81013
 30
0.0
 11
196.22228
 21
256.804871
 31
0.0
  0
LINE
  8
0
  6
CONTINUOUS
 62
     7
  5
11F
 10
316.0
 20
259.695129
 30
0.0
 11
313.22228
 21
259.695129
 31
0.0
  0
LINE
  8
0
  6
CONTINUOUS
 62
     7
  5
120
 10
393.77772
 20
256.81013
 30
0.0
 11
393.77772
 21
256.804871
 31
0.0
  0
LINE
  8
0
  6
CONTINUOUS
 62
     7
  5
121
 10
391.0
 20
256.804871
 30
0.0
 11
393.77772
 21
256.804871
 31
0.0
  0
LINE
  8
0
  6
CONTINUOUS
 62
     7
  5
122
 10
276.77772
 20
259.68987
 30
0.0
 11
274.0
 21
259.68987
 31
0.0
  0
LINE
  8
0
  6
CONTINUOUS
 62
     7
  5
123
 10
274.0
 20
259.695129
 30
0.0
 11
276.77772
 21
259.695129
 31
0.0
  0
LINE
  8
0
  6
CONTINUOUS
 62
     7
  5
124
 10
196.22228
 20
259.695129
 30
0.0
 11
199.0
 21
259.695129
 31
0.0
  0
LINE
  8
0
  6
CONTINUOUS
 62
     7
  5
125
 10
274.0
 20
256.81013
 30
0.0
 11
276.77772
 21
256.81013
 31
0.0
  0
LINE
  8
0
  6
CONTINUOUS
 62
     7
  5
126
 10
276.77772
 20
256.804871
 30
0.0
 11
276.77772
 21
256.81013
 31
0.0
  0
LINE
  8
0
  6
CONTINUOUS
 62
     7
  5
127
 10
276.77772
 20
256.804871
 30
0.0
 11
274.0
 21
256.804871
 31
0.0
  0
ARC
  8
0
  6
CONTINUOUS
 62
     7
  5
128
 10
271.889274
 20
258.301876
 30
0.0
 40
5.110989
 50
343.03004
 51
359.418444
210
0.0
220
0.0
230
1.0
  0
LINE
  8
0
  6
CONTINUOUS
 62
     7
  5
129
 10
277.0
 20
258.25
 30
0.0
 11
277.0
 21
256.084936
 31
0.0
  0
LINE
  8
0
  6
CONTINUOUS
 62
     7
  5
12A
 10
277.0
 20
256.084936
 30
0.0
 11
276.77772
 21
256.804871
 31
0.0
  0
LINE
  8
0
  6
CONTINUOUS
 62
     7
  5
12B
 10
394.0
 20
256.084936
 30
0.0
 11
394.0
 21
258.25
 31
0.0
  0
LINE
  8
0
  6
CONTINUOUS
 62
     7
  5
12C
 10
393.77772
 20
256.804871
 30
0.0
 11
394.0
 21
256.084936
 31
0.0
  0
LINE
  8
0
  6
CONTINUOUS
 62
     7
  5
12D
 10
313.22228
 20
256.804871
 30
0.0
 11
316.0
 21
256.804871
 31
0.0
  0
LINE
  8
0
  6
CONTINUOUS
 62
     7
  5
12E
 10
196.22228
 20
256.804871
 30
0.0
 11
196.0
 21
256.084936
 31
0.0
  0
LINE
  8
0
  6
CONTINUOUS
 62
     7
  5
12F
 10
196.0
 20
256.084936
 30
0.0
 11
196.0
 21
258.25
 31
0.0
  0
LINE
  8
0
  6
CONTINUOUS
 62
     7
  5
130
 10
276.77772
 20
261.134998
 30
0.0
 11
274.0
 21
261.134998
 31
0.0
  0
LINE
  8
0
  6
CONTINUOUS
 62
     7
  5
131
 10
277.0
 20
260.415064
 30
0.0
 11
276.77772
 21
261.134998
 31
0.0
  0
LINE
  8
0
  6
CONTINUOUS
 62
     7
  5
132
 10
394.0
 20
256.084936
 30
0.0
 11
393.77772
 21
255.365002
 31
0.0
  0
LINE
  8
0
  6
CONTINUOUS
 62
     7
  5
133
 10
393.77772
 20
255.365002
 30
0.0
 11
391.0
 21
255.365002
 31
0.0
  0
LINE
  8
0
  6
CONTINUOUS
 62
     7
  5
134
 10
313.0
 20
260.415064
 30
0.0
 11
313.22228
 21
261.134998
 31
0.0
  0
LINE
  8
0
  6
CONTINUOUS
 62
     7
  5
135
 10
313.22228
 20
261.134998
 30
0.0
 11
316.0
 21
261.134998
 31
0.0
  0
LINE
  8
0
  6
CONTINUOUS
 62
     7
  5
136
 10
196.0
 20
256.084936
 30
0.0
 11
196.22228
 21
255.365002
 31
0.0
  0
LINE
  8
0
  6
CONTINUOUS
 62
     7
  5
137
 10
196.22228
 20
255.365002
 30
0.0
 11
199.0
 21
255.365002
 31
0.0
  0
LINE
  8
0
  6
CONTINUOUS
 62
     7
  5
138
 10
316.0
 20
255.365002
 30
0.0
 11
313.22228
 21
255.365002
 31
0.0
  0
LINE
  8
0
  6
CONTINUOUS
 62
     7
  5
139
 10
313.22228
 20
255.365002
 30
0.0
 11
313.0
 21
256.084936
 31
0.0
  0
LINE
  8
0
  6
CONTINUOUS
 62
     7
  5
13A
 10
196.22228
 20
261.134998
 30
0.0
 11
196.0
 21
260.415064
 31
0.0
  0
LINE
  8
0
  6
CONTINUOUS
 62
     7
  5
13B
 10
199.0
 20
261.134998
 30
0.0
 11
196.22228
 21
261.134998
 31
0.0
  0
LINE
  8
0
  6
CONTINUOUS
 62
     7
  5
13C
 10
391.0
 20
261.134998
 30
0.0
 11
393.77772
 21
261.134998
 31
0.0
  0
LINE
  8
0
  6
CONTINUOUS
 62
     7
  5
13D
 10
393.77772
 20
261.134998
 30
0.0
 11
394.0
 21
260.415064
 31
0.0
  0
LINE
  8
0
  6
CONTINUOUS
 62
     7
  5
13E
 10
276.77772
 20
255.365002
 30
0.0
 11
277.0
 21
256.084936
 31
0.0
  0
LINE
  8
0
  6
CONTINUOUS
 62
     7
  5
13F
 10
274.0
 20
255.365002
 30
0.0
 11
276.77772
 21
255.365002
 31
0.0
  0
LINE
  8
0
  6
CONTINUOUS
 62
     7
  5
142
 10
277.0
 20
256.084936
 30
0.0
 11
277.0
 21
255.75
 31
0.0
  0
LINE
  8
0
  6
CONTINUOUS
 62
     7
  5
145
 10
394.0
 20
260.415064
 30
0.0
 11
394.0
 21
260.75
 31
0.0
  0
LINE
  8
0
  6
CONTINUOUS
 62
     7
  5
148
 10
313.0
 20
256.084936
 30
0.0
 11
313.0
 21
255.75
 31
0.0
  0
LINE
  8
0
  6
CONTINUOUS
 62
     7
  5
149
 10
394.0
 20
255.75
 30
0.0
 11
394.0
 21
256.084936
 31
0.0
  0
LINE
  8
0
  6
CONTINUOUS
 62
     7
  5
14C
 10
313.0
 20
260.75
 30
0.0
 11
313.0
 21
260.415064
 31
0.0
  0
LINE
  8
0
  6
CONTINUOUS
 62
     7
  5
14F
 10
196.0
 20
255.75
 30
0.0
 11
196.0
 21
256.084936
 31
0.0
  0
LINE
  8
0
  6
CONTINUOUS
 62
     7
  5
152
 10
277.0
 20
260.75
 30
0.0
 11
277.0
 21
260.415064
 31
0.0
  0
LINE
  8
0
  6
CONTINUOUS
 62
     7
  5
157
 10
196.0
 20
260.415064
 30
0.0
 11
196.0
 21
260.75
 31
0.0
  0
LINE
  8
0
  6
CONTINUOUS
 62
     7
  5
158
 10
276.77772
 20
255.365002
 30
0.0
 11
274.0
 21
255.365002
 31
0.0
  0
LINE
  8
0
  6
CONTINUOUS
 62
     7
  5
159
 10
196.22228
 20
261.134998
 30
0.0
 11
199.0
 21
261.134998
 31
0.0
  0
LINE
  8
0
  6
CONTINUOUS
 62
     7
  5
15A
 10
313.22228
 20
255.365002
 30
0.0
 11
316.0
 21
255.365002
 31
0.0
  0
LINE
  8
0
  6
CONTINUOUS
 62
     7
  5
15B
 10
393.77772
 20
261.134998
 30
0.0
 11
391.0
 21
261.134998
 31
0.0
  0
LINE
  8
0
  6
CONTINUOUS
 62
     7
  5
15C
 10
312.65
 20
262.15
 30
0.0
 11
312.65
 21
254.35
 31
0.0
  0
LINE
  8
0
  6
CONTINUOUS
 62
     7
  5
15D
 10
277.35
 20
262.15
 30
0.0
 11
277.35
 21
254.35
 31
0.0
  0
LINE
  8
0
  6
CONTINUOUS
 62
     7
  5
15E
 10
394.35
 20
254.35
 30
0.0
 11
394.35
 21
262.15
 31
0.0
  0
LINE
  8
0
  6
CONTINUOUS
 62
     7
  5
15F
 10
195.65
 20
254.35
 30
0.0
 11
195.65
 21
262.15
 31
0.0
  0
LINE
  8
0
  6
CONTINUOUS
 62
     7
  5
160
 10
304.0
 20
252.25
 30
0.0
 11
304.0
 21
267.151026
 31
0.0
  0
LINE
  8
0
  6
CONTINUOUS
 62
     7
  5
161
 10
304.0
 20
270.089353
 30
0.0
 11
304.0
 21
276.25
 31
0.0
  0
LINE
  8
0
  6
CONTINUOUS
 62
     7
  5
162
 10
286.0
 20
252.25
 30
0.0
 11
286.0
 21
276.25
 31
0.0
  0
LINE
  8
0
  6
CONTINUOUS
 62
     7
  5
163
 10
277.35
 20
241.65
 30
0.0
 11
195.65
 21
241.65
 31
0.0
  0
LINE
  8
0
  6
CONTINUOUS
 62
     7
  5
164
 10
195.65
 20
241.65
 30
0.0
 11
195.65
 21
242.15
 31
0.0
  0
LINE
  8
0
  6
CONTINUOUS
 62
     7
  5
165
 10
277.35
 20
242.15
 30
0.0
 11
277.35
 21
241.65
 31
0.0
  0
LINE
  8
0
  6
CONTINUOUS
 62
     7
  5
166
 10
312.65
 20
241.65
 30
0.0
 11
394.35
 21
241.65
 31
0.0
  0
LINE
  8
0
  6
CONTINUOUS
 62
     7
  5
167
 10
394.35
 20
241.65
 30
0.0
 11
394.35
 21
242.15
 31
0.0
  0
LINE
  8
0
  6
CONTINUOUS
 62
     7
  5
168
 10
312.65
 20
242.15
 30
0.0
 11
312.65
 21
241.65
 31
0.0
  0
LINE
  8
0
  6
CONTINUOUS
 62
     7
  5
169
 10
380.0
 20
289.25
 30
0.0
 11
388.0
 21
289.25
 31
0.0
  0
LINE
  8
0
  6
CONTINUOUS
 62
     7
  5
16A
 10
210.0
 20
289.25
 30
0.0
 11
202.0
 21
289.25
 31
0.0
  0
LINE
  8
0
  6
CONTINUOUS
 62
     7
  5
16B
 10
395.0
 20
289.25
 30
0.0
 11
395.0
 21
284.25
 31
0.0
  0
LINE
  8
0
  6
CONTINUOUS
 62
     7
  5
16C
 10
395.0
 20
289.25
 30
0.0
 11
388.0
 21
289.25
 31
0.0
  0
LINE
  8
0
  6
CONTINUOUS
 62
     7
  5
16D
 10
195.0
 20
289.25
 30
0.0
 11
202.0
 21
289.25
 31
0.0
  0
LINE
  8
0
  6
CONTINUOUS
 62
     7
  5
16E
 10
195.0
 20
289.25
 30
0.0
 11
195.0
 21
284.25
 31
0.0
  0
LINE
  8
0
  6
CONTINUOUS
 62
     7
  5
16F
 10
195.0
 20
271.25
 30
0.0
 11
195.65
 21
271.25
 31
0.0
  0
LINE
  8
0
  6
CONTINUOUS
 62
     7
  5
170
 10
277.35
 20
271.25
 30
0.0
 11
286.0
 21
271.25
 31
0.0
  0
LINE
  8
0
  6
CONTINUOUS
 62
     7
  5
171
 10
304.0
 20
271.25
 30
0.0
 11
312.65
 21
271.25
 31
0.0
  0
LINE
  8
0
  6
CONTINUOUS
 62
     7
  5
172
 10
394.35
 20
271.25
 30
0.0
 11
395.0
 21
271.25
 31
0.0
  0
LINE
  8
0
  6
CONTINUOUS
 62
     7
  5
173
 10
395.0
 20
271.25
 30
0.0
 11
395.0
 21
276.25
 31
0.0
  0
LINE
  8
0
  6
CONTINUOUS
 62
     7
  5
174
 10
195.0
 20
271.25
 30
0.0
 11
195.0
 21
276.25
 31
0.0
  0
LINE
  8
0
  6
CONTINUOUS
 62
     7
  5
175
 10
445.5
 20
274.75
 30
0.0
 11
395.0
 21
274.75
 31
0.0
  0
LINE
  8
0
  6
CONTINUOUS
 62
     7
  5
176
 10
144.5
 20
268.25
 30
0.0
 11
195.65
 21
268.25
 31
0.0
  0
LINE
  8
0
  6
CONTINUOUS
 62
     7
  5
177
 10
144.5
 20
268.25
 30
0.0
 11
144.5
 21
274.75
 31
0.0
  0
LINE
  8
0
  6
CONTINUOUS
 62
     7
  5
178
 10
195.0
 20
274.75
 30
0.0
 11
144.5
 21
274.75
 31
0.0
  0
LINE
  8
0
  6
CONTINUOUS
 62
     7
  5
179
 10
445.5
 20
254.95
 30
0.0
 11
445.5
 21
274.75
 31
0.0
  0
ARC
  8
0
  6
CONTINUOUS
 62
     7
  5
17A
 10
152.5
 20
262.25
 30
0.0
 40
2.25
 50
180.0
 51
270.0
210
0.0
220
0.0
230
1.0
  0
ARC
  8
0
  6
CONTINUOUS
 62
     7
  5
17B
 10
164.5
 20
262.25
 30
0.0
 40
2.25
 50
180.0
 51
270.0
210
0.0
220
0.0
230
1.0
  0
ARC
  8
0
  6
CONTINUOUS
 62
     7
  5
17C
 10
176.5
 20
262.25
 30
0.0
 40
2.25
 50
180.0
 51
270.0
210
0.0
220
0.0
230
1.0
  0
ARC
  8
0
  6
CONTINUOUS
 62
     7
  5
17D
 10
188.5
 20
262.25
 30
0.0
 40
2.25
 50
180.0
 51
270.0
210
0.0
220
0.0
230
1.0
  0
LINE
  8
0
  6
CONTINUOUS
 62
     7
  5
17E
 10
144.5
 20
268.25
 30
0.0
 11
144.5
 21
254.95
 31
0.0
  0
ARC
  8
0
  6
CONTINUOUS
 62
     7
  5
17F
 10
176.5
 20
262.25
 30
0.0
 40
2.25
 50
270.0
 51
360.0
210
0.0
220
0.0
230
1.0
  0
ARC
  8
0
  6
CONTINUOUS
 62
     7
  5
180
 10
176.5
 20
262.25
 30
0.0
 40
2.25
 50
360.0
 51
180.0
210
0.0
220
0.0
230
1.0
  0
ARC
  8
0
  6
CONTINUOUS
 62
     7
  5
181
 10
188.5
 20
262.25
 30
0.0
 40
2.25
 50
270.0
 51
360.0
210
0.0
220
0.0
230
1.0
  0
ARC
  8
0
  6
CONTINUOUS
 62
     7
  5
182
 10
188.5
 20
262.25
 30
0.0
 40
2.25
 50
360.0
 51
180.0
210
0.0
220
0.0
230
1.0
  0
ARC
  8
0
  6
CONTINUOUS
 62
     7
  5
183
 10
152.5
 20
262.25
 30
0.0
 40
2.25
 50
270.0
 51
360.0
210
0.0
220
0.0
230
1.0
  0
ARC
  8
0
  6
CONTINUOUS
 62
     7
  5
184
 10
152.5
 20
262.25
 30
0.0
 40
2.25
 50
360.0
 51
180.0
210
0.0
220
0.0
230
1.0
  0
ARC
  8
0
  6
CONTINUOUS
 62
     7
  5
185
 10
164.5
 20
262.25
 30
0.0
 40
2.25
 50
270.0
 51
360.0
210
0.0
220
0.0
230
1.0
  0
ARC
  8
0
  6
CONTINUOUS
 62
     7
  5
186
 10
164.5
 20
262.25
 30
0.0
 40
2.25
 50
360.0
 51
180.0
210
0.0
220
0.0
230
1.0
  0
LINE
  8
0
  6
CONTINUOUS
 62
     7
  5
187
 10
296.732051
 20
218.25
 30
0.0
 11
295.866025
 21
219.75
 31
0.0
  0
LINE
  8
0
  6
CONTINUOUS
 62
     7
  5
188
 10
295.866025
 20
219.75
 30
0.0
 11
294.133975
 21
219.75
 31
0.0
  0
CIRCLE
  8
0
  6
CONTINUOUS
 62
     7
  5
189
 10
295.0
 20
218.25
 30
0.0
 40
2.25
210
0.0
220
0.0
230
1.0
  0
LINE
  8
0
  6
CONTINUOUS
 62
     7
  5
18A
 10
293.267949
 20
218.25
 30
0.0
 11
294.133975
 21
216.75
 31
0.0
  0
LINE
  8
0
  6
CONTINUOUS
 62
     7
  5
18B
 10
295.866025
 20
216.75
 30
0.0
 11
296.732051
 21
218.25
 31
0.0
  0
LINE
  8
0
  6
CONTINUOUS
 62
     7
  5
18C
 10
294.133975
 20
219.75
 30
0.0
 11
293.267949
 21
218.25
 31
0.0
  0
LINE
  8
0
  6
CONTINUOUS
 62
     7
  5
18D
 10
294.133975
 20
216.75
 30
0.0
 11
295.866025
 21
216.75
 31
0.0
  0
CIRCLE
  8
0
  6
CONTINUOUS
 62
     7
  5
18E
 10
295.0
 20
218.25
 30
0.0
 40
4.75
210
0.0
220
0.0
230
1.0
  0
CIRCLE
  8
0
  6
CONTINUOUS
 62
     7
  5
18F
 10
295.0
 20
218.25
 30
0.0
 40
8.5
210
0.0
220
0.0
230
1.0
  0
LINE
  8
0
  6
CONTINUOUS
 62
     7
  5
190
 10
514.75
 20
194.25
 30
0.0
 11
514.75
 21
183.25
 31
0.0
  0
LINE
  8
0
  6
CONTINUOUS
 62
     7
  5
191
 10
514.75
 20
194.25
 30
0.0
 11
552.75
 21
194.25
 31
0.0
  0
LINE
  8
0
  6
CONTINUOUS
 62
     7
  5
192
 10
552.75
 20
194.25
 30
0.0
 11
552.75
 21
183.25
 31
0.0
  0
LINE
  8
0
  6
CONTINUOUS
 62
     7
  5
193
 10
514.75
 20
183.25
 30
0.0
 11
552.75
 21
183.25
 31
0.0
  0
LINE
  8
0
  6
CONTINUOUS
 62
     7
  5
194
 10
524.75
 20
195.75
 30
0.0
 11
542.75
 21
195.75
 31
0.0
  0
LINE
  8
0
  6
CONTINUOUS
 62
     7
  5
195
 10
527.25
 20
201.05
 30
0.0
 11
527.25
 21
195.75
 31
0.0
  0
LINE
  8
0
  6
CONTINUOUS
 62
     7
  5
196
 10
527.25
 20
201.05
 30
0.0
 11
533.75
 21
201.05
 31
0.0
  0
LINE
  8
0
  6
CONTINUOUS
 62
     7
  5
197
 10
533.75
 20
201.05
 30
0.0
 11
533.75
 21
195.75
 31
0.0
  0
LINE
  8
0
  6
CONTINUOUS
 62
     7
  5
198
 10
533.75
 20
201.05
 30
0.0
 11
540.25
 21
201.05
 31
0.0
  0
LINE
  8
0
  6
CONTINUOUS
 62
     7
  5
199
 10
540.25
 20
201.05
 30
0.0
 11
540.25
 21
195.75
 31
0.0
  0
LINE
  8
0
  6
CONTINUOUS
 62
     7
  5
19A
 10
529.75
 20
171.375
 30
0.0
 11
533.75
 21
171.375
 31
0.0
  0
LINE
  8
0
  6
CONTINUOUS
 62
     7
  5
19B
 10
537.125
 20
170.75
 30
0.0
 11
530.375
 21
170.75
 31
0.0
  0
LINE
  8
0
  6
CONTINUOUS
 62
     7
  5
19C
 10
533.75
 20
171.375
 30
0.0
 11
537.75
 21
171.375
 31
0.0
  0
LINE
  8
0
  6
CONTINUOUS
 62
     7
  5
19D
 10
474.75
 20
194.25
 30
0.0
 11
474.75
 21
183.25
 31
0.0
  0
LINE
  8
0
  6
CONTINUOUS
 62
     7
  5
19E
 10
474.75
 20
194.25
 30
0.0
 11
512.75
 21
194.25
 31
0.0
  0
LINE
  8
0
  6
CONTINUOUS
 62
     7
  5
19F
 10
512.75
 20
194.25
 30
0.0
 11
512.75
 21
183.25
 31
0.0
  0
LINE
  8
0
  6
CONTINUOUS
 62
     7
  5
1A0
 10
474.75
 20
183.25
 30
0.0
 11
512.75
 21
183.25
 31
0.0
  0
LINE
  8
0
  6
CONTINUOUS
 62
     7
  5
1A1
 10
484.75
 20
195.75
 30
0.0
 11
502.75
 21
195.75
 31
0.0
  0
LINE
  8
0
  6
CONTINUOUS
 62
     7
  5
1A2
 10
487.25
 20
201.05
 30
0.0
 11
487.25
 21
195.75
 31
0.0
  0
LINE
  8
0
  6
CONTINUOUS
 62
     7
  5
1A3
 10
493.75
 20
201.05
 30
0.0
 11
493.75
 21
195.75
 31
0.0
  0
LINE
  8
0
  6
CONTINUOUS
 62
     7
  5
1A4
 10
487.25
 20
201.05
 30
0.0
 11
493.75
 21
201.05
 31
0.0
  0
LINE
  8
0
  6
CONTINUOUS
 62
     7
  5
1A5
 10
500.25
 20
201.05
 30
0.0
 11
500.25
 21
195.75
 31
0.0
  0
LINE
  8
0
  6
CONTINUOUS
 62
     7
  5
1A6
 10
493.75
 20
201.05
 30
0.0
 11
500.25
 21
201.05
 31
0.0
  0
LINE
  8
0
  6
CONTINUOUS
 62
     7
  5
1A7
 10
489.75
 20
171.375
 30
0.0
 11
493.75
 21
171.375
 31
0.0
  0
LINE
  8
0
  6
CONTINUOUS
 62
     7
  5
1A8
 10
497.125
 20
170.75
 30
0.0
 11
490.375
 21
170.75
 31
0.0
  0
LINE
  8
0
  6
CONTINUOUS
 62
     7
  5
1A9
 10
493.75
 20
171.375
 30
0.0
 11
497.75
 21
171.375
 31
0.0
  0
LINE
  8
0
  6
CONTINUOUS
 62
     7
  5
1AA
 10
115.25
 20
194.25
 30
0.0
 11
77.25
 21
194.25
 31
0.0
  0
LINE
  8
0
  6
CONTINUOUS
 62
     7
  5
1AB
 10
115.25
 20
194.25
 30
0.0
 11
115.25
 21
183.25
 31
0.0
  0
LINE
  8
0
  6
CONTINUOUS
 62
     7
  5
1AC
 10
115.25
 20
183.25
 30
0.0
 11
77.25
 21
183.25
 31
0.0
  0
LINE
  8
0
  6
CONTINUOUS
 62
     7
  5
1AD
 10
77.25
 20
194.25
 30
0.0
 11
77.25
 21
183.25
 31
0.0
  0
LINE
  8
0
  6
CONTINUOUS
 62
     7
  5
1AE
 10
105.25
 20
195.75
 30
0.0
 11
87.25
 21
195.75
 31
0.0
  0
LINE
  8
0
  6
CONTINUOUS
 62
     7
  5
1AF
 10
96.25
 20
201.05
 30
0.0
 11
96.25
 21
195.75
 31
0.0
  0
LINE
  8
0
  6
CONTINUOUS
 62
     7
  5
1B0
 10
102.75
 20
201.05
 30
0.0
 11
102.75
 21
195.75
 31
0.0
  0
LINE
  8
0
  6
CONTINUOUS
 62
     7
  5
1B1
 10
102.75
 20
201.05
 30
0.0
 11
96.25
 21
201.05
 31
0.0
  0
LINE
  8
0
  6
CONTINUOUS
 62
     7
  5
1B2
 10
89.75
 20
201.05
 30
0.0
 11
89.75
 21
195.75
 31
0.0
  0
LINE
  8
0
  6
CONTINUOUS
 62
     7
  5
1B3
 10
96.25
 20
201.05
 30
0.0
 11
89.75
 21
201.05
 31
0.0
  0
LINE
  8
0
  6
CONTINUOUS
 62
     7
  5
1B4
 10
100.25
 20
171.375
 30
0.0
 11
96.25
 21
171.375
 31
0.0
  0
LINE
  8
0
  6
CONTINUOUS
 62
     7
  5
1B5
 10
96.25
 20
171.375
 30
0.0
 11
92.25
 21
171.375
 31
0.0
  0
LINE
  8
0
  6
CONTINUOUS
 62
     7
  5
1B6
 10
92.875
 20
170.75
 30
0.0
 11
99.625
 21
170.75
 31
0.0
  0
LINE
  8
0
  6
CONTINUOUS
 62
     7
  5
1B7
 10
75.25
 20
194.25
 30
0.0
 11
75.25
 21
183.25
 31
0.0
  0
LINE
  8
0
  6
CONTINUOUS
 62
     7
  5
1B8
 10
37.25
 20
194.25
 30
0.0
 11
37.25
 21
183.25
 31
0.0
  0
LINE
  8
0
  6
CONTINUOUS
 62
     7
  5
1B9
 10
75.25
 20
183.25
 30
0.0
 11
37.25
 21
183.25
 31
0.0
  0
LINE
  8
0
  6
CONTINUOUS
 62
     7
  5
1BA
 10
75.25
 20
194.25
 30
0.0
 11
37.25
 21
194.25
 31
0.0
  0
LINE
  8
0
  6
CONTINUOUS
 62
     7
  5
1BB
 10
65.25
 20
195.75
 30
0.0
 11
47.25
 21
195.75
 31
0.0
  0
LINE
  8
0
  6
CONTINUOUS
 62
     7
  5
1BC
 10
56.25
 20
201.05
 30
0.0
 11
56.25
 21
195.75
 31
0.0
  0
LINE
  8
0
  6
CONTINUOUS
 62
     7
  5
1BD
 10
62.75
 20
201.05
 30
0.0
 11
56.25
 21
201.05
 31
0.0
  0
LINE
  8
0
  6
CONTINUOUS
 62
     7
  5
1BE
 10
62.75
 20
201.05
 30
0.0
 11
62.75
 21
195.75
 31
0.0
  0
LINE
  8
0
  6
CONTINUOUS
 62
     7
  5
1BF
 10
49.75
 20
201.05
 30
0.0
 11
49.75
 21
195.75
 31
0.0
  0
LINE
  8
0
  6
CONTINUOUS
 62
     7
  5
1C0
 10
56.25
 20
201.05
 30
0.0
 11
49.75
 21
201.05
 31
0.0
  0
LINE
  8
0
  6
CONTINUOUS
 62
     7
  5
1C1
 10
52.875
 20
170.75
 30
0.0
 11
59.625
 21
170.75
 31
0.0
  0
LINE
  8
0
  6
CONTINUOUS
 62
     7
  5
1C2
 10
60.25
 20
171.375
 30
0.0
 11
56.25
 21
171.375
 31
0.0
  0
LINE
  8
0
  6
CONTINUOUS
 62
     7
  5
1C3
 10
56.25
 20
171.375
 30
0.0
 11
52.25
 21
171.375
 31
0.0
  0
LINE
  8
0
  6
CONTINUOUS
 62
     7
  5
1C4
 10
-39.0
 20
186.25
 30
0.0
 11
-39.0
 21
184.25
 31
0.0
  0
LINE
  8
0
  6
CONTINUOUS
 62
     7
  5
1C5
 10
629.0
 20
186.25
 30
0.0
 11
629.0
 21
184.25
 31
0.0
  0
LINE
  8
0
  6
CONTINUOUS
 62
     7
  5
1C6
 10
-39.0
 20
228.25
 30
0.0
 11
-39.0
 21
223.349973
 31
0.0
  0
LINE
  8
0
  6
CONTINUOUS
 62
     7
  5
1C7
 10
629.0
 20
228.25
 30
0.0
 11
629.0
 21
223.349973
 31
0.0
  0
LINE
  8
0
  6
CONTINUOUS
 62
     7
  5
1C8
 10
629.000003
 20
222.914069
 30
0.0
 11
629.000002
 21
222.349973
 31
0.0
  0
LINE
  8
0
  6
CONTINUOUS
 62
     7
  5
1C9
 10
-39.000003
 20
222.349973
 30
0.0
 11
287.554181
 21
222.349973
 31
0.0
  0
LINE
  8
0
  6
CONTINUOUS
 62
     7
  5
1CA
 10
302.445819
 20
222.349973
 30
0.0
 11
629.000003
 21
222.349973
 31
0.0
  0
LINE
  8
0
  6
CONTINUOUS
 62
     7
  5
1CB
 10
-39.000003
 20
222.914069
 30
0.0
 11
-39.000002
 21
222.349973
 31
0.0
  0
LINE
  8
0
  6
CONTINUOUS
 62
     7
  5
1CC
 10
-39.0
 20
223.349973
 30
0.0
 11
-39.0
 21
222.914069
 31
0.0
  0
LINE
  8
0
  6
CONTINUOUS
 62
     7
  5
1CD
 10
629.0
 20
223.349973
 30
0.0
 11
629.0
 21
222.914069
 31
0.0
  0
LINE
  8
0
  6
CONTINUOUS
 62
     7
  5
1CE
 10
629.0
 20
213.585876
 30
0.0
 11
629.0
 21
213.149973
 31
0.0
  0
LINE
  8
0
  6
CONTINUOUS
 62
     7
  5
1CF
 10
-39.0
 20
213.585876
 30
0.0
 11
-39.0
 21
213.149973
 31
0.0
  0
LINE
  8
0
  6
CONTINUOUS
 62
     7
  5
1D0
 10
-39.000003
 20
214.149973
 30
0.0
 11
-39.000003
 21
213.585876
 31
0.0
  0
LINE
  8
0
  6
CONTINUOUS
 62
     7
  5
1D1
 10
-39.000003
 20
214.149973
 30
0.0
 11
287.554211
 21
214.149973
 31
0.0
  0
LINE
  8
0
  6
CONTINUOUS
 62
     7
  5
1D2
 10
302.445789
 20
214.149973
 30
0.0
 11
629.000003
 21
214.149973
 31
0.0
  0
LINE
  8
0
  6
CONTINUOUS
 62
     7
  5
1D3
 10
629.000003
 20
214.149973
 30
0.0
 11
629.000003
 21
213.585876
 31
0.0
  0
LINE
  8
0
  6
CONTINUOUS
 62
     7
  5
1D4
 10
629.000003
 20
205.98186
 30
0.0
 11
629.000003
 21
203.75
 31
0.0
  0
LINE
  8
0
  6
CONTINUOUS
 62
     7
  5
1D5
 10
-39.000003
 20
203.75
 30
0.0
 11
629.000003
 21
203.75
 31
0.0
  0
LINE
  8
0
  6
CONTINUOUS
 62
     7
  5
1D6
 10
-39.000003
 20
205.98186
 30
0.0
 11
-39.000003
 21
203.75
 31
0.0
  0
LINE
  8
0
  6
CONTINUOUS
 62
     7
  5
1D7
 10
-39.0
 20
206.75
 30
0.0
 11
-39.0
 21
205.98186
 31
0.0
  0
LINE
  8
0
  6
CONTINUOUS
 62
     7
  5
1D8
 10
629.0
 20
206.75
 30
0.0
 11
629.0
 21
205.98186
 31
0.0
  0
LINE
  8
0
  6
CONTINUOUS
 62
     7
  5
1D9
 10
-39.0
 20
186.685904
 30
0.0
 11
-39.0
 21
186.25
 31
0.0
  0
LINE
  8
0
  6
CONTINUOUS
 62
     7
  5
1DA
 10
-39.000003
 20
187.25
 30
0.0
 11
-39.000003
 21
186.685904
 31
0.0
  0
LINE
  8
0
  6
CONTINUOUS
 62
     7
  5
1DB
 10
-39.000003
 20
187.25
 30
0.0
 11
37.25
 21
187.25
 31
0.0
  0
LINE
  8
0
  6
CONTINUOUS
 62
     7
  5
1DC
 10
75.25
 20
187.25
 30
0.0
 11
77.25
 21
187.25
 31
0.0
  0
LINE
  8
0
  6
CONTINUOUS
 62
     7
  5
1DD
 10
115.25
 20
187.25
 30
0.0
 11
474.75
 21
187.25
 31
0.0
  0
LINE
  8
0
  6
CONTINUOUS
 62
     7
  5
1DE
 10
512.75
 20
187.25
 30
0.0
 11
514.75
 21
187.25
 31
0.0
  0
LINE
  8
0
  6
CONTINUOUS
 62
     7
  5
1DF
 10
552.75
 20
187.25
 30
0.0
 11
629.000003
 21
187.25
 31
0.0
  0
LINE
  8
0
  6
CONTINUOUS
 62
     7
  5
1E0
 10
629.000003
 20
187.25
 30
0.0
 11
629.000003
 21
186.685904
 31
0.0
  0
LINE
  8
0
  6
CONTINUOUS
 62
     7
  5
1E1
 10
629.0
 20
186.685904
 30
0.0
 11
629.0
 21
186.25
 31
0.0
  0
LINE
  8
0
  6
CONTINUOUS
 62
     7
  5
1E2
 10
-39.0
 20
236.25
 30
0.0
 11
-39.0
 21
228.25
 31
0.0
  0
LINE
  8
0
  6
CONTINUOUS
 62
     7
  5
1E3
 10
-9.0
 20
236.25
 30
0.0
 11
-8.0
 21
236.25
 31
0.0
  0
LINE
  8
0
  6
CONTINUOUS
 62
     7
  5
1E4
 10
598.0
 20
236.25
 30
0.0
 11
599.0
 21
236.25
 31
0.0
  0
LINE
  8
0
  6
CONTINUOUS
 62
     7
  5
1E5
 10
629.0
 20
236.25
 30
0.0
 11
629.0
 21
228.25
 31
0.0
  0
LINE
  8
0
  6
CONTINUOUS
 62
     7
  5
1E6
 10
-39.0
 20
183.25
 30
0.0
 11
37.25
 21
183.25
 31
0.0
  0
LINE
  8
0
  6
CONTINUOUS
 62
     7
  5
1E7
 10
75.25
 20
183.25
 30
0.0
 11
77.25
 21
183.25
 31
0.0
  0
LINE
  8
0
  6
CONTINUOUS
 62
     7
  5
1E8
 10
115.25
 20
183.25
 30
0.0
 11
474.75
 21
183.25
 31
0.0
  0
LINE
  8
0
  6
CONTINUOUS
 62
     7
  5
1E9
 10
512.75
 20
183.25
 30
0.0
 11
514.75
 21
183.25
 31
0.0
  0
LINE
  8
0
  6
CONTINUOUS
 62
     7
  5
1EA
 10
552.75
 20
183.25
 30
0.0
 11
629.0
 21
183.25
 31
0.0
  0
LINE
  8
0
  6
CONTINUOUS
 62
     7
  5
1EB
 10
-39.0
 20
184.25
 30
0.0
 11
-39.0
 21
183.25
 31
0.0
  0
LINE
  8
0
  6
CONTINUOUS
 62
     7
  5
1EC
 10
629.0
 20
184.25
 30
0.0
 11
629.0
 21
183.25
 31
0.0
  0
LINE
  8
0
  6
CONTINUOUS
 62
     7
  5
1ED
 10
-39.0
 20
213.149973
 30
0.0
 11
-39.0
 21
206.75
 31
0.0
  0
LINE
  8
0
  6
CONTINUOUS
 62
     7
  5
1EE
 10
629.0
 20
213.149973
 30
0.0
 11
629.0
 21
206.75
 31
0.0
  0
LINE
  8
0
  6
CONTINUOUS
 62
     7
  5
1EF
 10
629.0
 20
183.75
 30
0.0
 11
632.000003
 21
183.75
 31
0.0
  0
LINE
  8
0
  6
CONTINUOUS
 62
     7
  5
1F0
 10
632.000003
 20
183.75
 30
0.0
 11
632.000003
 21
184.75
 31
0.0
  0
LINE
  8
0
  6
CONTINUOUS
 62
     7
  5
1F1
 10
-39.0
 20
183.75
 30
0.0
 11
-42.000003
 21
183.75
 31
0.0
  0
LINE
  8
0
  6
CONTINUOUS
 62
     7
  5
1F2
 10
-42.000003
 20
183.75
 30
0.0
 11
-42.000003
 21
184.75
 31
0.0
  0
LINE
  8
0
  6
CONTINUOUS
 62
     7
  5
1F3
 10
629.0
 20
236.15
 30
0.0
 11
632.000003
 21
236.15
 31
0.0
  0
LINE
  8
0
  6
CONTINUOUS
 62
     7
  5
1F4
 10
632.000003
 20
228.15
 30
0.0
 11
632.000003
 21
236.15
 31
0.0
  0
LINE
  8
0
  6
CONTINUOUS
 62
     7
  5
1F5
 10
629.000001
 20
186.685904
 30
0.0
 11
629.000001
 21
205.98186
 31
0.0
  0
LINE
  8
0
  6
CONTINUOUS
 62
     7
  5
1F6
 10
629.000001
 20
213.585876
 30
0.0
 11
629.000001
 21
222.914069
 31
0.0
  0
LINE
  8
0
  6
CONTINUOUS
 62
     7
  5
1F7
 10
632.000003
 20
184.75
 30
0.0
 11
632.000003
 21
228.15
 31
0.0
  0
LINE
  8
0
  6
CONTINUOUS
 62
     7
  5
1F8
 10
-39.0
 20
236.15
 30
0.0
 11
-42.000003
 21
236.15
 31
0.0
  0
LINE
  8
0
  6
CONTINUOUS
 62
     7
  5
1F9
 10
-42.000003
 20
228.15
 30
0.0
 11
-42.000003
 21
236.15
 31
0.0
  0
LINE
  8
0
  6
CONTINUOUS
 62
     7
  5
1FA
 10
629.000003
 20
214.149973
 30
0.0
 11
629.000003
 21
215.4068
 31
0.0
  0
LINE
  8
0
  6
CONTINUOUS
 62
     7
  5
1FB
 10
629.000003
 20
221.093146
 30
0.0
 11
629.000003
 21
215.4068
 31
0.0
  0
LINE
  8
0
  6
CONTINUOUS
 62
     7
  5
1FC
 10
629.000003
 20
221.093146
 30
0.0
 11
629.000003
 21
222.349973
 31
0.0
  0
LINE
  8
0
  6
CONTINUOUS
 62
     7
  5
1FD
 10
-39.000001
 20
213.585876
 30
0.0
 11
-39.000001
 21
222.914069
 31
0.0
  0
LINE
  8
0
  6
CONTINUOUS
 62
     7
  5
1FE
 10
-39.000001
 20
186.685904
 30
0.0
 11
-39.000001
 21
205.98186
 31
0.0
  0
LINE
  8
0
  6
CONTINUOUS
 62
     7
  5
1FF
 10
-42.000003
 20
184.75
 30
0.0
 11
-42.000003
 21
228.15
 31
0.0
  0
LINE
  8
0
  6
CONTINUOUS
 62
     7
  5
200
 10
629.000003
 20
187.25
 30
0.0
 11
629.000003
 21
190.25
 31
0.0
  0
LINE
  8
0
  6
CONTINUOUS
 62
     7
  5
201
 10
629.000003
 20
200.75
 30
0.0
 11
629.000003
 21
190.25
 31
0.0
  0
LINE
  8
0
  6
CONTINUOUS
 62
     7
  5
202
 10
629.000003
 20
200.75
 30
0.0
 11
629.000003
 21
203.75
 31
0.0
  0
LINE
  8
0
  6
CONTINUOUS
 62
     7
  5
203
 10
-39.000003
 20
200.75
 30
0.0
 11
-39.000003
 21
203.75
 31
0.0
  0
LINE
  8
0
  6
CONTINUOUS
 62
     7
  5
204
 10
-39.000003
 20
200.75
 30
0.0
 11
-39.000003
 21
190.25
 31
0.0
  0
LINE
  8
0
  6
CONTINUOUS
 62
     7
  5
205
 10
-39.000003
 20
187.25
 30
0.0
 11
-39.000003
 21
190.25
 31
0.0
  0
LINE
  8
0
  6
CONTINUOUS
 62
     7
  5
206
 10
-39.000003
 20
221.093146
 30
0.0
 11
-39.000003
 21
222.349973
 31
0.0
  0
LINE
  8
0
  6
CONTINUOUS
 62
     7
  5
207
 10
-39.000003
 20
221.093146
 30
0.0
 11
-39.000003
 21
215.4068
 31
0.0
  0
LINE
  8
0
  6
CONTINUOUS
 62
     7
  5
208
 10
-39.000003
 20
214.149973
 30
0.0
 11
-39.000003
 21
215.4068
 31
0.0
  0
LINE
  8
0
  6
CONTINUOUS
 62
     7
  5
209
 10
-8.0
 20
239.020837
 30
0.0
 11
-8.0
 21
239.37439
 31
0.0
  0
LINE
  8
0
  6
CONTINUOUS
 62
     7
  5
20A
 10
598.0
 20
239.020837
 30
0.0
 11
598.0
 21
239.37439
 31
0.0
  0
LINE
  8
0
  6
CONTINUOUS
 62
     7
  5
20B
 10
-8.0
 20
237.40875
 30
0.0
 11
291.0
 21
237.40875
 31
0.0
  0
LINE
  8
0
  6
CONTINUOUS
 62
     7
  5
20C
 10
299.0
 20
237.40875
 30
0.0
 11
598.0
 21
237.40875
 31
0.0
  0
LINE
  8
0
  6
CONTINUOUS
 62
     7
  5
20D
 10
-8.0
 20
237.40875
 30
0.0
 11
-8.0
 21
239.020837
 31
0.0
  0
LINE
  8
0
  6
CONTINUOUS
 62
     7
  5
20E
 10
598.0
 20
237.40875
 30
0.0
 11
598.0
 21
239.020837
 31
0.0
  0
LINE
  8
0
  6
CONTINUOUS
 62
     7
  5
20F
 10
-8.0
 20
236.25
 30
0.0
 11
291.0
 21
236.25
 31
0.0
  0
LINE
  8
0
  6
CONTINUOUS
 62
     7
  5
210
 10
299.0
 20
236.25
 30
0.0
 11
598.0
 21
236.25
 31
0.0
  0
LINE
  8
0
  6
CONTINUOUS
 62
     7
  5
211
 10
-8.0
 20
236.25
 30
0.0
 11
-8.0
 21
237.40875
 31
0.0
  0
LINE
  8
0
  6
CONTINUOUS
 62
     7
  5
212
 10
598.0
 20
236.25
 30
0.0
 11
598.0
 21
237.40875
 31
0.0
  0
LINE
  8
0
  6
CONTINUOUS
 62
     7
  5
213
 10
599.0
 20
236.25
 30
0.0
 11
629.0
 21
236.25
 31
0.0
  0
LINE
  8
0
  6
CONTINUOUS
 62
     7
  5
214
 10
629.0
 20
270.75
 30
0.0
 11
599.0
 21
270.75
 31
0.0
  0
LINE
  8
0
  6
CONTINUOUS
 62
     7
  5
215
 10
599.0
 20
236.25
 30
0.0
 11
599.0
 21
270.75
 31
0.0
  0
LINE
  8
0
  6
CONTINUOUS
 62
     7
  5
216
 10
629.0
 20
236.25
 30
0.0
 11
629.0
 21
270.75
 31
0.0
  0
LINE
  8
0
  6
CONTINUOUS
 62
     7
  5
217
 10
599.0
 20
274.75
 30
0.0
 11
629.0
 21
274.75
 31
0.0
  0
LINE
  8
0
  6
CONTINUOUS
 62
     7
  5
218
 10
599.0
 20
270.75
 30
0.0
 11
599.0
 21
274.75
 31
0.0
  0
LINE
  8
0
  6
CONTINUOUS
 62
     7
  5
219
 10
629.0
 20
274.75
 30
0.0
 11
629.0
 21
270.75
 31
0.0
  0
LINE
  8
0
  6
CONTINUOUS
 62
     7
  5
21A
 10
-39.0
 20
270.75
 30
0.0
 11
-9.0
 21
270.75
 31
0.0
  0
LINE
  8
0
  6
CONTINUOUS
 62
     7
  5
21B
 10
-9.0
 20
274.75
 30
0.0
 11
-39.0
 21
274.75
 31
0.0
  0
LINE
  8
0
  6
CONTINUOUS
 62
     7
  5
21C
 10
-9.0
 20
270.75
 30
0.0
 11
-9.0
 21
274.75
 31
0.0
  0
LINE
  8
0
  6
CONTINUOUS
 62
     7
  5
21D
 10
-39.0
 20
274.75
 30
0.0
 11
-39.0
 21
270.75
 31
0.0
  0
LINE
  8
0
  6
CONTINUOUS
 62
     7
  5
21E
 10
-9.0
 20
236.25
 30
0.0
 11
-9.0
 21
270.75
 31
0.0
  0
LINE
  8
0
  6
CONTINUOUS
 62
     7
  5
21F
 10
-9.0
 20
236.25
 30
0.0
 11
-39.0
 21
236.25
 31
0.0
  0
LINE
  8
0
  6
CONTINUOUS
 62
     7
  5
220
 10
-39.0
 20
236.25
 30
0.0
 11
-39.0
 21
270.75
 31
0.0
  0
LINE
  8
0
  6
CONTINUOUS
 62
     7
  5
221
 10
-8.0
 20
239.37439
 30
0.0
 11
-8.0
 21
241.102208
 31
0.0
  0
LINE
  8
0
  6
CONTINUOUS
 62
     7
  5
222
 10
598.0
 20
239.37439
 30
0.0
 11
598.0
 21
241.102208
 31
0.0
  0
LINE
  8
0
  6
CONTINUOUS
 62
     7
  5
223
 10
-8.0
 20
243.512454
 30
0.0
 11
-8.0
 21
243.806516
 31
0.0
  0
LINE
  8
0
  6
CONTINUOUS
 62
     7
  5
224
 10
598.0
 20
243.512454
 30
0.0
 11
598.0
 21
243.806516
 31
0.0
  0
LINE
  8
0
  6
CONTINUOUS
 62
     7
  5
225
 10
-8.0
 20
242.244803
 30
0.0
 11
-8.0
 21
242.598357
 31
0.0
  0
LINE
  8
0
  6
CONTINUOUS
 62
     7
  5
226
 10
598.0
 20
242.244803
 30
0.0
 11
598.0
 21
242.598357
 31
0.0
  0
LINE
  8
0
  6
CONTINUOUS
 62
     7
  5
227
 10
-8.0
 20
242.598357
 30
0.0
 11
-8.0
 21
243.512454
 31
0.0
  0
LINE
  8
0
  6
CONTINUOUS
 62
     7
  5
228
 10
598.0
 20
242.598357
 30
0.0
 11
598.0
 21
243.512454
 31
0.0
  0
LINE
  8
0
  6
CONTINUOUS
 62
     7
  5
229
 10
-8.0
 20
253.003722
 30
0.0
 11
-8.0
 21
253.297546
 31
0.0
  0
LINE
  8
0
  6
CONTINUOUS
 62
     7
  5
22A
 10
598.0
 20
253.003722
 30
0.0
 11
598.0
 21
253.297546
 31
0.0
  0
LINE
  8
0
  6
CONTINUOUS
 62
     7
  5
22B
 10
-8.0
 20
254.60875
 30
0.0
 11
195.65
 21
254.60875
 31
0.0
  0
LINE
  8
0
  6
CONTINUOUS
 62
     7
  5
22C
 10
277.35
 20
254.60875
 30
0.0
 11
286.0
 21
254.60875
 31
0.0
  0
LINE
  8
0
  6
CONTINUOUS
 62
     7
  5
22D
 10
304.0
 20
254.60875
 30
0.0
 11
312.65
 21
254.60875
 31
0.0
  0
LINE
  8
0
  6
CONTINUOUS
 62
     7
  5
22E
 10
394.35
 20
254.60875
 30
0.0
 11
598.0
 21
254.60875
 31
0.0
  0
LINE
  8
0
  6
CONTINUOUS
 62
     7
  5
22F
 10
-8.0
 20
253.297546
 30
0.0
 11
-8.0
 21
254.60875
 31
0.0
  0
LINE
  8
0
  6
CONTINUOUS
 62
     7
  5
230
 10
598.0
 20
253.297546
 30
0.0
 11
598.0
 21
254.60875
 31
0.0
  0
LINE
  8
0
  6
CONTINUOUS
 62
     7
  5
231
 10
-8.0
 20
254.95
 30
0.0
 11
195.65
 21
254.95
 31
0.0
  0
LINE
  8
0
  6
CONTINUOUS
 62
     7
  5
232
 10
277.35
 20
254.95
 30
0.0
 11
286.0
 21
254.95
 31
0.0
  0
LINE
  8
0
  6
CONTINUOUS
 62
     7
  5
233
 10
304.0
 20
254.95
 30
0.0
 11
312.65
 21
254.95
 31
0.0
  0
LINE
  8
0
  6
CONTINUOUS
 62
     7
  5
234
 10
394.35
 20
254.95
 30
0.0
 11
598.0
 21
254.95
 31
0.0
  0
LINE
  8
0
  6
CONTINUOUS
 62
     7
  5
235
 10
-8.0
 20
254.60875
 30
0.0
 11
-8.0
 21
254.95
 31
0.0
  0
LINE
  8
0
  6
CONTINUOUS
 62
     7
  5
236
 10
598.0
 20
254.60875
 30
0.0
 11
598.0
 21
254.95
 31
0.0
  0
LINE
  8
0
  6
CONTINUOUS
 62
     7
  5
237
 10
-8.0
 20
241.950736
 30
0.0
 11
-8.0
 21
242.244803
 31
0.0
  0
LINE
  8
0
  6
CONTINUOUS
 62
     7
  5
238
 10
598.0
 20
241.950736
 30
0.0
 11
598.0
 21
242.244803
 31
0.0
  0
LINE
  8
0
  6
CONTINUOUS
 62
     7
  5
239
 10
-8.0
 20
253.003722
 30
0.0
 11
-8.0
 21
251.000823
 31
0.0
  0
LINE
  8
0
  6
CONTINUOUS
 62
     7
  5
23A
 10
598.0
 20
253.003722
 30
0.0
 11
598.0
 21
251.000823
 31
0.0
  0
LINE
  8
0
  6
CONTINUOUS
 62
     7
  5
23B
 10
-8.0
 20
245.61834
 30
0.0
 11
195.65
 21
245.61834
 31
0.0
  0
LINE
  8
0
  6
CONTINUOUS
 62
     7
  5
23C
 10
277.35
 20
245.61834
 30
0.0
 11
289.05
 21
245.61834
 31
0.0
  0
LINE
  8
0
  6
CONTINUOUS
 62
     7
  5
23D
 10
300.95
 20
245.61834
 30
0.0
 11
312.65
 21
245.61834
 31
0.0
  0
LINE
  8
0
  6
CONTINUOUS
 62
     7
  5
23E
 10
394.35
 20
245.61834
 30
0.0
 11
598.0
 21
245.61834
 31
0.0
  0
LINE
  8
0
  6
CONTINUOUS
 62
     7
  5
23F
 10
-8.0
 20
245.61834
 30
0.0
 11
-8.0
 21
243.806516
 31
0.0
  0
LINE
  8
0
  6
CONTINUOUS
 62
     7
  5
240
 10
598.0
 20
245.61834
 30
0.0
 11
598.0
 21
243.806516
 31
0.0
  0
LINE
  8
0
  6
CONTINUOUS
 62
     7
  5
241
 10
-8.0
 20
241.950736
 30
0.0
 11
-8.0
 21
241.102208
 31
0.0
  0
LINE
  8
0
  6
CONTINUOUS
 62
     7
  5
242
 10
598.0
 20
241.950736
 30
0.0
 11
598.0
 21
241.102208
 31
0.0
  0
LINE
  8
0
  6
CONTINUOUS
 62
     7
  5
243
 10
-8.0
 20
245.61834
 30
0.0
 11
-8.0
 21
251.000823
 31
0.0
  0
LINE
  8
0
  6
CONTINUOUS
 62
     7
  5
244
 10
598.0
 20
245.61834
 30
0.0
 11
598.0
 21
251.000823
 31
0.0
  0
LINE
  8
0
  6
CONTINUOUS
 62
     7
  5
245
 10
638.6
 20
209.15
 30
0.0
 11
638.6
 21
215.15
 31
0.0
  0
LINE
  8
0
  6
CONTINUOUS
 62
     7
  5
246
 10
638.6
 20
215.15
 30
0.0
 11
638.6
 21
221.15
 31
0.0
  0
LINE
  8
0
  6
CONTINUOUS
 62
     7
  5
247
 10
-48.6
 20
209.15
 30
0.0
 11
-48.6
 21
221.15
 31
0.0
  0
LINE
  8
0
  6
CONTINUOUS
 62
     7
  5
248
 10
-9.0
 20
240.75
 30
0.0
 11
-8.0
 21
240.75
 31
0.0
  0
LINE
  8
0
  6
CONTINUOUS
 62
     7
  5
249
 10
598.0
 20
240.75
 30
0.0
 11
599.0
 21
240.75
 31
0.0
  0
LINE
  8
0
  6
CONTINUOUS
 62
     7
  5
24A
 10
580.0
 20
254.95
 30
0.0
 11
580.0
 21
271.25
 31
0.0
  0
LINE
  8
0
  6
CONTINUOUS
 62
     7
  5
24B
 10
10.0
 20
254.95
 30
0.0
 11
10.0
 21
261.25
 31
0.0
  0
LINE
  8
0
  6
CONTINUOUS
 62
     7
  5
24C
 10
10.0
 20
261.25
 30
0.0
 11
10.0
 21
271.25
 31
0.0
  0
ARC
  8
0
  6
CONTINUOUS
 62
     7
  5
24D
 10
306.180906
 20
257.645743
 30
0.0
 40
12.637104
 50
100.098709
 51
181.794565
210
0.0
220
0.0
230
1.0
  0
ARC
  8
0
  6
CONTINUOUS
 62
     7
  5
24E
 10
306.202114
 20
257.629169
 30
0.0
 40
9.759482
 50
100.779183
 51
182.226576
210
0.0
220
0.0
230
1.0
  0
LINE
  8
0
  6
CONTINUOUS
 62
     7
  5
24F
 10
291.0
 20
227.791
 30
0.0
 11
291.541
 21
227.25
 31
0.0
  0
LINE
  8
0
  6
CONTINUOUS
 62
     7
  5
250
 10
298.459
 20
227.25
 30
0.0
 11
299.0
 21
227.791
 31
0.0
  0
LINE
  8
0
  6
CONTINUOUS
 62
     7
  5
251
 10
291.0
 20
242.25
 30
0.0
 11
291.0
 21
227.791
 31
0.0
  0
LINE
  8
0
  6
CONTINUOUS
 62
     7
  5
252
 10
299.0
 20
227.791
 30
0.0
 11
299.0
 21
242.25
 31
0.0
  0
LINE
  8
0
  6
CONTINUOUS
 62
     7
  5
253
 10
299.0
 20
256.709
 30
0.0
 11
298.459
 21
257.25
 31
0.0
  0
LINE
  8
0
  6
CONTINUOUS
 62
     7
  5
254
 10
291.541
 20
257.25
 30
0.0
 11
291.0
 21
256.709
 31
0.0
  0
LINE
  8
0
  6
CONTINUOUS
 62
     7
  5
255
 10
291.0
 20
256.709
 30
0.0
 11
291.0
 21
256.25
 31
0.0
  0
LINE
  8
0
  6
CONTINUOUS
 62
     7
  5
256
 10
299.0
 20
256.25
 30
0.0
 11
299.0
 21
256.709
 31
0.0
  0
LINE
  8
0
  6
CONTINUOUS
 62
     7
  5
257
 10
199.1
 20
261.75
 30
0.0
 11
199.0
 21
261.65
 31
0.0
  0
LINE
  8
0
  6
CONTINUOUS
 62
     7
  5
258
 10
199.0
 20
254.85
 30
0.0
 11
199.1
 21
254.75
 31
0.0
  0
LINE
  8
0
  6
CONTINUOUS
 62
     7
  5
259
 10
273.9
 20
261.75
 30
0.0
 11
273.25
 21
261.75
 31
0.0
  0
LINE
  8
0
  6
CONTINUOUS
 62
     7
  5
25A
 10
273.25
 20
254.75
 30
0.0
 11
273.9
 21
254.75
 31
0.0
  0
LINE
  8
0
  6
CONTINUOUS
 62
     7
  5
25B
 10
390.9
 20
261.75
 30
0.0
 11
390.25
 21
261.75
 31
0.0
  0
LINE
  8
0
  6
CONTINUOUS
 62
     7
  5
25C
 10
390.25
 20
254.75
 30
0.0
 11
390.9
 21
254.75
 31
0.0
  0
LINE
  8
0
  6
CONTINUOUS
 62
     7
  5
25D
 10
199.1
 20
254.75
 30
0.0
 11
199.75
 21
254.75
 31
0.0
  0
LINE
  8
0
  6
CONTINUOUS
 62
     7
  5
25E
 10
199.75
 20
261.75
 30
0.0
 11
199.1
 21
261.75
 31
0.0
  0
LINE
  8
0
  6
CONTINUOUS
 62
     7
  5
25F
 10
390.9
 20
254.75
 30
0.0
 11
391.0
 21
254.85
 31
0.0
  0
LINE
  8
0
  6
CONTINUOUS
 62
     7
  5
260
 10
391.0
 20
261.65
 30
0.0
 11
390.9
 21
261.75
 31
0.0
  0
LINE
  8
0
  6
CONTINUOUS
 62
     7
  5
261
 10
316.1
 20
261.75
 30
0.0
 11
316.0
 21
261.65
 31
0.0
  0
LINE
  8
0
  6
CONTINUOUS
 62
     7
  5
262
 10
316.0
 20
254.85
 30
0.0
 11
316.1
 21
254.75
 31
0.0
  0
LINE
  8
0
  6
CONTINUOUS
 62
     7
  5
263
 10
273.9
 20
254.75
 30
0.0
 11
274.0
 21
254.85
 31
0.0
  0
LINE
  8
0
  6
CONTINUOUS
 62
     7
  5
264
 10
274.0
 20
261.65
 30
0.0
 11
273.9
 21
261.75
 31
0.0
  0
LINE
  8
0
  6
CONTINUOUS
 62
     7
  5
265
 10
316.1
 20
254.75
 30
0.0
 11
316.75
 21
254.75
 31
0.0
  0
LINE
  8
0
  6
CONTINUOUS
 62
     7
  5
266
 10
316.75
 20
261.75
 30
0.0
 11
316.1
 21
261.75
 31
0.0
  0
LINE
  8
0
  6
CONTINUOUS
 62
     7
  5
267
 10
276.77772
 20
255.365
 30
0.0
 11
277.0
 21
255.75
 31
0.0
  0
LINE
  8
0
  6
CONTINUOUS
 62
     7
  5
268
 10
394.0
 20
260.75
 30
0.0
 11
393.77772
 21
261.135
 31
0.0
  0
LINE
  8
0
  6
CONTINUOUS
 62
     7
  5
269
 10
313.0
 20
255.75
 30
0.0
 11
313.22228
 21
255.365
 31
0.0
  0
LINE
  8
0
  6
CONTINUOUS
 62
     7
  5
26A
 10
393.77772
 20
255.365
 30
0.0
 11
394.0
 21
255.75
 31
0.0
  0
LINE
  8
0
  6
CONTINUOUS
 62
     7
  5
26B
 10
313.22228
 20
261.135
 30
0.0
 11
313.0
 21
260.75
 31
0.0
  0
LINE
  8
0
  6
CONTINUOUS
 62
     7
  5
26C
 10
196.0
 20
255.75
 30
0.0
 11
196.22228
 21
255.365
 31
0.0
  0
LINE
  8
0
  6
CONTINUOUS
 62
     7
  5
26D
 10
277.0
 20
260.75
 30
0.0
 11
276.77772
 21
261.135
 31
0.0
  0
LINE
  8
0
  6
CONTINUOUS
 62
     7
  5
26E
 10
196.22228
 20
261.135
 30
0.0
 11
196.0
 21
260.75
 31
0.0
  0
LINE
  8
0
  6
CONTINUOUS
 62
     7
  5
26F
 10
524.75
 20
195.75
 30
0.0
 11
524.75
 21
194.25
 31
0.0
  0
LINE
  8
0
  6
CONTINUOUS
 62
     7
  5
270
 10
542.75
 20
194.25
 30
0.0
 11
542.75
 21
195.75
 31
0.0
  0
LINE
  8
0
  6
CONTINUOUS
 62
     7
  5
271
 10
529.75
 20
171.375
 30
0.0
 11
530.375
 21
170.75
 31
0.0
  0
LINE
  8
0
  6
CONTINUOUS
 62
     7
  5
272
 10
537.125
 20
170.75
 30
0.0
 11
537.75
 21
171.375
 31
0.0
  0
LINE
  8
0
  6
CONTINUOUS
 62
     7
  5
273
 10
529.75
 20
183.25
 30
0.0
 11
529.75
 21
171.375
 31
0.0
  0
LINE
  8
0
  6
CONTINUOUS
 62
     7
  5
274
 10
537.75
 20
171.375
 30
0.0
 11
537.75
 21
183.25
 31
0.0
  0
LINE
  8
0
  6
CONTINUOUS
 62
     7
  5
275
 10
484.75
 20
195.75
 30
0.0
 11
484.75
 21
194.25
 31
0.0
  0
LINE
  8
0
  6
CONTINUOUS
 62
     7
  5
276
 10
502.75
 20
194.25
 30
0.0
 11
502.75
 21
195.75
 31
0.0
  0
LINE
  8
0
  6
CONTINUOUS
 62
     7
  5
277
 10
489.75
 20
171.375
 30
0.0
 11
490.375
 21
170.75
 31
0.0
  0
LINE
  8
0
  6
CONTINUOUS
 62
     7
  5
278
 10
497.125
 20
170.75
 30
0.0
 11
497.75
 21
171.375
 31
0.0
  0
LINE
  8
0
  6
CONTINUOUS
 62
     7
  5
279
 10
489.75
 20
183.25
 30
0.0
 11
489.75
 21
171.375
 31
0.0
  0
LINE
  8
0
  6
CONTINUOUS
 62
     7
  5
27A
 10
497.75
 20
171.375
 30
0.0
 11
497.75
 21
183.25
 31
0.0
  0
LINE
  8
0
  6
CONTINUOUS
 62
     7
  5
27B
 10
87.25
 20
195.75
 30
0.0
 11
87.25
 21
194.25
 31
0.0
  0
LINE
  8
0
  6
CONTINUOUS
 62
     7
  5
27C
 10
105.25
 20
194.25
 30
0.0
 11
105.25
 21
195.75
 31
0.0
  0
LINE
  8
0
  6
CONTINUOUS
 62
     7
  5
27D
 10
92.25
 20
183.25
 30
0.0
 11
92.25
 21
171.375
 31
0.0
  0
LINE
  8
0
  6
CONTINUOUS
 62
     7
  5
27E
 10
100.25
 20
171.375
 30
0.0
 11
100.25
 21
183.25
 31
0.0
  0
LINE
  8
0
  6
CONTINUOUS
 62
     7
  5
27F
 10
92.25
 20
171.375
 30
0.0
 11
92.875
 21
170.75
 31
0.0
  0
LINE
  8
0
  6
CONTINUOUS
 62
     7
  5
280
 10
99.625
 20
170.75
 30
0.0
 11
100.25
 21
171.375
 31
0.0
  0
LINE
  8
0
  6
CONTINUOUS
 62
     7
  5
281
 10
47.25
 20
195.75
 30
0.0
 11
47.25
 21
194.25
 31
0.0
  0
LINE
  8
0
  6
CONTINUOUS
 62
     7
  5
282
 10
65.25
 20
194.25
 30
0.0
 11
65.25
 21
195.75
 31
0.0
  0
LINE
  8
0
  6
CONTINUOUS
 62
     7
  5
283
 10
52.25
 20
171.375
 30
0.0
 11
52.875
 21
170.75
 31
0.0
  0
LINE
  8
0
  6
CONTINUOUS
 62
     7
  5
284
 10
59.625
 20
170.75
 30
0.0
 11
60.25
 21
171.375
 31
0.0
  0
LINE
  8
0
  6
CONTINUOUS
 62
     7
  5
285
 10
52.25
 20
183.25
 30
0.0
 11
52.25
 21
171.375
 31
0.0
  0
LINE
  8
0
  6
CONTINUOUS
 62
     7
  5
286
 10
60.25
 20
171.375
 30
0.0
 11
60.25
 21
183.25
 31
0.0
  0
ARC
  8
0
  6
CONTINUOUS
 62
     7
  5
287
 10
629.675
 20
215.15
 30
0.0
 40
10.754331
 50
282.485481
 51
326.088286
210
0.0
220
0.0
230
1.0
  0
ARC
  8
0
  6
CONTINUOUS
 62
     7
  5
288
 10
629.675
 20
215.15
 30
0.0
 40
10.754331
 50
33.911714
 51
77.514519
210
0.0
220
0.0
230
1.0
  0
ARC
  8
0
  6
CONTINUOUS
 62
     7
  5
289
 10
-39.675
 20
215.15
 30
0.0
 40
10.754331
 50
213.911714
 51
257.514519
210
0.0
220
0.0
230
1.0
  0
ARC
  8
0
  6
CONTINUOUS
 62
     7
  5
28A
 10
-39.675
 20
215.15
 30
0.0
 40
10.754331
 50
102.485481
 51
146.088286
210
0.0
220
0.0
230
1.0
  0
LINE
  8
0
  6
CONTINUOUS
 62
     7
  5
28B
 10
598.0
 20
251.25
 30
0.0
 11
599.0
 21
251.25
 31
0.0
  0
LINE
  8
0
  6
CONTINUOUS
 62
     7
  5
28C
 10
599.0
 20
271.25
 30
0.0
 11
580.0
 21
271.25
 31
0.0
  0
LINE
  8
0
  6
CONTINUOUS
 62
     7
  5
28D
 10
10.0
 20
271.25
 30
0.0
 11
-9.0
 21
271.25
 31
0.0
  0
LINE
  8
0
  6
CONTINUOUS
 62
     7
  5
28E
 10
-9.0
 20
251.25
 30
0.0
 11
-8.0
 21
251.25
 31
0.0
  0
ENDBLK
  8
0
  5
28F
  0
BLOCK
  8
0
  5
292
  2
AID1187
 70
     0
 10
0.0
 20
0.0
 30
0.0
  3
#auxiliary draft view
  0
CIRCLE
  8
0
  6
CONTINUOUS
 62
     7
  5
293
 10
230.0
 20
-124.0
 30
0.0
 40
4.01
210
0.0
220
0.0
230
1.0
  0
CIRCLE
  8
0
  6
CONTINUOUS
 62
     7
  5
294
 10
360.0
 20
-124.0
 30
0.0
 40
4.01
210
0.0
220
0.0
230
1.0
  0
CIRCLE
  8
0
  6
CONTINUOUS
 62
     7
  5
295
 10
230.0
 20
-160.0
 30
0.0
 40
5.0
210
0.0
220
0.0
230
1.0
  0
CIRCLE
  8
0
  6
CONTINUOUS
 62
     7
  5
296
 10
360.0
 20
-160.0
 30
0.0
 40
5.0
210
0.0
220
0.0
230
1.0
  0
CIRCLE
  8
0
  6
CONTINUOUS
 62
     7
  5
297
 10
230.0
 20
-88.0
 30
0.0
 40
5.0
210
0.0
220
0.0
230
1.0
  0
CIRCLE
  8
0
  6
CONTINUOUS
 62
     7
  5
298
 10
360.0
 20
-88.0
 30
0.0
 40
5.0
210
0.0
220
0.0
230
1.0
  0
LINE
  8
0
  6
CONTINUOUS
 62
     7
  5
299
 10
210.0
 20
-189.0
 30
0.0
 11
210.0
 21
-213.0
 31
0.0
  0
ARC
  8
0
  6
CONTINUOUS
 62
     7
  5
29A
 10
202.0
 20
-189.0
 30
0.0
 40
8.0
 50
360.0
 51
90.0
210
0.0
220
0.0
230
1.0
  0
LINE
  8
0
  6
CONTINUOUS
 62
     7
  5
29B
 10
195.0
 20
-181.0
 30
0.0
 11
202.0
 21
-181.0
 31
0.0
  0
LINE
  8
0
  6
CONTINUOUS
 62
     7
  5
29C
 10
395.0
 20
-35.0
 30
0.0
 11
395.0
 21
-181.0
 31
0.0
  0
LINE
  8
0
  6
CONTINUOUS
 62
     7
  5
29D
 10
395.0
 20
-181.0
 30
0.0
 11
388.0
 21
-181.0
 31
0.0
  0
ARC
  8
0
  6
CONTINUOUS
 62
     7
  5
29E
 10
388.0
 20
-189.0
 30
0.0
 40
8.0
 50
90.0
 51
180.0
210
0.0
220
0.0
230
1.0
  0
LINE
  8
0
  6
CONTINUOUS
 62
     7
  5
29F
 10
380.0
 20
-189.0
 30
0.0
 11
380.0
 21
-213.0
 31
0.0
  0
LINE
  8
0
  6
CONTINUOUS
 62
     7
  5
2A0
 10
380.0
 20
-213.0
 30
0.0
 11
210.0
 21
-213.0
 31
0.0
  0
LINE
  8
0
  6
CONTINUOUS
 62
     7
  5
2A1
 10
195.0
 20
-181.0
 30
0.0
 11
195.0
 21
-35.0
 31
0.0
  0
LINE
  8
0
  6
CONTINUOUS
 62
     7
  5
2A2
 10
195.0
 20
-35.0
 30
0.0
 11
395.0
 21
-35.0
 31
0.0
  0
CIRCLE
  8
0
  6
CONTINUOUS
 62
     7
  5
2A3
 10
360.0
 20
-88.0
 30
0.0
 40
4.188
210
0.0
220
0.0
230
1.0
  0
CIRCLE
  8
0
  6
CONTINUOUS
 62
     7
  5
2A4
 10
230.0
 20
-88.0
 30
0.0
 40
4.188
210
0.0
220
0.0
230
1.0
  0
CIRCLE
  8
0
  6
CONTINUOUS
 62
     7
  5
2A5
 10
230.0
 20
-160.0
 30
0.0
 40
4.188
210
0.0
220
0.0
230
1.0
  0
CIRCLE
  8
0
  6
CONTINUOUS
 62
     7
  5
2A6
 10
360.0
 20
-160.0
 30
0.0
 40
4.188
210
0.0
220
0.0
230
1.0
  0
CIRCLE
  8
0
  6
CONTINUOUS
 62
     7
  5
2A7
 10
202.5
 20
-208.0
 30
0.0
 40
3.0
210
0.0
220
0.0
230
1.0
  0
CIRCLE
  8
0
  6
CONTINUOUS
 62
     7
  5
2A8
 10
202.5
 20
-195.0
 30
0.0
 40
3.0
210
0.0
220
0.0
230
1.0
  0
LINE
  8
0
  6
CONTINUOUS
 62
     7
  5
2A9
 10
210.0
 20
-213.0
 30
0.0
 11
195.0
 21
-213.0
 31
0.0
  0
LINE
  8
0
  6
CONTINUOUS
 62
     7
  5
2AA
 10
195.0
 20
-213.0
 30
0.0
 11
195.0
 21
-181.0
 31
0.0
  0
CIRCLE
  8
0
  6
CONTINUOUS
 62
     7
  5
2AB
 10
387.5
 20
-208.0
 30
0.0
 40
3.0
210
0.0
220
0.0
230
1.0
  0
CIRCLE
  8
0
  6
CONTINUOUS
 62
     7
  5
2AC
 10
387.5
 20
-195.0
 30
0.0
 40
3.0
210
0.0
220
0.0
230
1.0
  0
LINE
  8
0
  6
CONTINUOUS
 62
     7
  5
2AD
 10
380.0
 20
-213.0
 30
0.0
 11
395.0
 21
-213.0
 31
0.0
  0
LINE
  8
0
  6
CONTINUOUS
 62
     7
  5
2AE
 10
395.0
 20
-213.0
 30
0.0
 11
395.0
 21
-181.0
 31
0.0
  0
CIRCLE
  8
0
  6
CONTINUOUS
 62
     7
  5
2AF
 10
387.5
 20
-208.0
 30
0.0
 40
2.459
210
0.0
220
0.0
230
1.0
  0
CIRCLE
  8
0
  6
CONTINUOUS
 62
     7
  5
2B0
 10
202.5
 20
-208.0
 30
0.0
 40
2.459
210
0.0
220
0.0
230
1.0
  0
CIRCLE
  8
0
  6
CONTINUOUS
 62
     7
  5
2B1
 10
387.5
 20
-195.0
 30
0.0
 40
2.459
210
0.0
220
0.0
230
1.0
  0
CIRCLE
  8
0
  6
CONTINUOUS
 62
     7
  5
2B2
 10
202.5
 20
-195.0
 30
0.0
 40
2.459
210
0.0
220
0.0
230
1.0
  0
LINE
  8
0
  6
CONTINUOUS
 62
     7
  5
2B3
 10
445.5
 20
-89.1
 30
0.0
 11
395.0
 21
-89.1
 31
0.0
  0
LINE
  8
0
  6
CONTINUOUS
 62
     7
  5
2B4
 10
445.5
 20
-158.9
 30
0.0
 11
395.0
 21
-158.9
 31
0.0
  0
LINE
  8
0
  6
CONTINUOUS
 62
     7
  5
2B5
 10
445.5
 20
-158.9
 30
0.0
 11
445.5
 21
-89.1
 31
0.0
  0
LINE
  8
0
  6
CONTINUOUS
 62
     7
  5
2B6
 10
364.040958
 20
-158.9
 30
0.0
 11
355.959042
 21
-158.9
 31
0.0
  0
LINE
  8
0
  6
CONTINUOUS
 62
     7
  5
2B7
 10
364.040958
 20
-89.1
 30
0.0
 11
355.959042
 21
-89.1
 31
0.0
  0
LINE
  8
0
  6
CONTINUOUS
 62
     7
  5
2B8
 10
234.040958
 20
-89.1
 30
0.0
 11
225.959042
 21
-89.1
 31
0.0
  0
LINE
  8
0
  6
CONTINUOUS
 62
     7
  5
2B9
 10
234.040958
 20
-158.9
 30
0.0
 11
225.959042
 21
-158.9
 31
0.0
  0
CIRCLE
  8
0
  6
CONTINUOUS
 62
     7
  5
2BA
 10
152.5
 20
-152.9
 30
0.0
 40
2.25
210
0.0
220
0.0
230
1.0
  0
CIRCLE
  8
0
  6
CONTINUOUS
 62
     7
  5
2BB
 10
164.5
 20
-152.9
 30
0.0
 40
2.25
210
0.0
220
0.0
230
1.0
  0
CIRCLE
  8
0
  6
CONTINUOUS
 62
     7
  5
2BC
 10
176.5
 20
-152.9
 30
0.0
 40
2.25
210
0.0
220
0.0
230
1.0
  0
CIRCLE
  8
0
  6
CONTINUOUS
 62
     7
  5
2BD
 10
188.5
 20
-152.9
 30
0.0
 40
2.25
210
0.0
220
0.0
230
1.0
  0
LINE
  8
0
  6
CONTINUOUS
 62
     7
  5
2BE
 10
144.5
 20
-158.9
 30
0.0
 11
144.5
 21
-89.1
 31
0.0
  0
LINE
  8
0
  6
CONTINUOUS
 62
     7
  5
2BF
 10
195.0
 20
-89.1
 30
0.0
 11
144.5
 21
-89.1
 31
0.0
  0
LINE
  8
0
  6
CONTINUOUS
 62
     7
  5
2C0
 10
195.0
 20
-158.9
 30
0.0
 11
144.5
 21
-158.9
 31
0.0
  0
POLYLINE
  8
0
  6
CONTINUOUS
 62
     7
  5
2C1
 66
     1
 10
0.0
 20
0.0
 30
0.0
 40
0.5
 41
0.5
  0
VERTEX
  8
0
 62
     7
  5
2C2
 10
304.749023
 20
-217.656887
 30
0.0
  0
VERTEX
  8
0
 62
     7
  5
2C3
 10
304.76085
 20
-217.666902
 30
0.0
  0
VERTEX
  8
0
 62
     7
  5
2C4
 10
304.76904
 20
-217.685054
 30
0.0
  0
VERTEX
  8
0
 62
     7
  5
2C5
 10
304.773542
 20
-217.711231
 30
0.0
  0
VERTEX
  8
0
 62
     7
  5
2C6
 10
304.77433
 20
-217.745271
 30
0.0
  0
VERTEX
  8
0
 62
     7
  5
2C7
 10
304.771397
 20
-217.786965
 30
0.0
  0
VERTEX
  8
0
 62
     7
  5
2C8
 10
304.764763
 20
-217.836056
 30
0.0
  0
VERTEX
  8
0
 62
     7
  5
2C9
 10
304.754467
 20
-217.892241
 30
0.0
  0
VERTEX
  8
0
 62
     7
  5
2CA
 10
304.740574
 20
-217.955173
 30
0.0
  0
VERTEX
  8
0
 62
     7
  5
2CB
 10
304.723169
 20
-218.024465
 30
0.0
  0
VERTEX
  8
0
 62
     7
  5
2CC
 10
304.702359
 20
-218.099689
 30
0.0
  0
VERTEX
  8
0
 62
     7
  5
2CD
 10
304.678273
 20
-218.180381
 30
0.0
  0
VERTEX
  8
0
 62
     7
  5
2CE
 10
304.65106
 20
-218.266045
 30
0.0
  0
VERTEX
  8
0
 62
     7
  5
2CF
 10
304.620886
 20
-218.356152
 30
0.0
  0
VERTEX
  8
0
 62
     7
  5
2D0
 10
304.587938
 20
-218.450146
 30
0.0
  0
VERTEX
  8
0
 62
     7
  5
2D1
 10
304.55242
 20
-218.547448
 30
0.0
  0
VERTEX
  8
0
 62
     7
  5
2D2
 10
304.514549
 20
-218.647458
 30
0.0
  0
VERTEX
  8
0
 62
     7
  5
2D3
 10
304.474561
 20
-218.749559
 30
0.0
  0
VERTEX
  8
0
 62
     7
  5
2D4
 10
304.4327
 20
-218.853122
 30
0.0
  0
VERTEX
  8
0
 62
     7
  5
2D5
 10
304.389226
 20
-218.957509
 30
0.0
  0
VERTEX
  8
0
 62
     7
  5
2D6
 10
304.344406
 20
-219.062075
 30
0.0
  0
VERTEX
  8
0
 62
     7
  5
2D7
 10
304.298517
 20
-219.166177
 30
0.0
  0
VERTEX
  8
0
 62
     7
  5
2D8
 10
304.251841
 20
-219.269172
 30
0.0
  0
VERTEX
  8
0
 62
     7
  5
2D9
 10
304.204666
 20
-219.370425
 30
0.0
  0
VERTEX
  8
0
 62
     7
  5
2DA
 10
304.157284
 20
-219.469312
 30
0.0
  0
VERTEX
  8
0
 62
     7
  5
2DB
 10
304.109986
 20
-219.565224
 30
0.0
  0
VERTEX
  8
0
 62
     7
  5
2DC
 10
304.063064
 20
-219.657569
 30
0.0
  0
VERTEX
  8
0
 62
     7
  5
2DD
 10
304.016807
 20
-219.745777
 30
0.0
  0
VERTEX
  8
0
 62
     7
  5
2DE
 10
303.9715
 20
-219.829305
 30
0.0
  0
VERTEX
  8
0
 62
     7
  5
2DF
 10
303.927423
 20
-219.907638
 30
0.0
  0
VERTEX
  8
0
 62
     7
  5
2E0
 10
303.884848
 20
-219.980294
 30
0.0
  0
VERTEX
  8
0
 62
     7
  5
2E1
 10
303.844036
 20
-220.046823
 30
0.0
  0
VERTEX
  8
0
 62
     7
  5
2E2
 10
303.80524
 20
-220.106816
 30
0.0
  0
VERTEX
  8
0
 62
     7
  5
2E3
 10
303.768699
 20
-220.159903
 30
0.0
  0
VERTEX
  8
0
 62
     7
  5
2E4
 10
303.734638
 20
-220.205756
 30
0.0
  0
VERTEX
  8
0
 62
     7
  5
2E5
 10
303.703267
 20
-220.244094
 30
0.0
  0
VERTEX
  8
0
 62
     7
  5
2E6
 10
303.674779
 20
-220.274679
 30
0.0
  0
VERTEX
  8
0
 62
     7
  5
2E7
 10
303.649351
 20
-220.297323
 30
0.0
  0
VERTEX
  8
0
 62
     7
  5
2E8
 10
303.627138
 20
-220.311887
 30
0.0
  0
VERTEX
  8
0
 62
     7
  5
2E9
 10
303.608278
 20
-220.31828
 30
0.0
  0
VERTEX
  8
0
 62
     7
  5
2EA
 10
303.592887
 20
-220.316464
 30
0.0
  0
SEQEND
  8
0
  5
2EB
  0
ARC
  8
0
  6
CONTINUOUS
 62
     7
  5
2EC
 10
295.0
 20
-215.0
 30
0.0
 40
1.45
 50
90.0
 51
246.505095
210
0.0
220
0.0
230
1.0
  0
POLYLINE
  8
0
  6
CONTINUOUS
 62
     7
  5
2ED
 66
     1
 10
0.0
 20
0.0
 30
0.0
 40
0.5
 41
0.5
  0
VERTEX
  8
0
 62
     7
  5
2EE
 10
303.592887
 20
-220.316464
 30
0.0
  0
VERTEX
  8
0
 62
     7
  5
2EF
 10
303.581061
 20
-220.306449
 30
0.0
  0
VERTEX
  8
0
 62
     7
  5
2F0
 10
303.572871
 20
-220.288297
 30
0.0
  0
VERTEX
  8
0
 62
     7
  5
2F1
 10
303.568368
 20
-220.26212
 30
0.0
  0
VERTEX
  8
0
 62
     7
  5
2F2
 10
303.567581
 20
-220.228079
 30
0.0
  0
VERTEX
  8
0
 62
     7
  5
2F3
 10
303.570513
 20
-220.186385
 30
0.0
  0
VERTEX
  8
0
 62
     7
  5
2F4
 10
303.577148
 20
-220.137294
 30
0.0
  0
VERTEX
  8
0
 62
     7
  5
2F5
 10
303.587444
 20
-220.08111
 30
0.0
  0
VERTEX
  8
0
 62
     7
  5
2F6
 10
303.601337
 20
-220.018178
 30
0.0
  0
VERTEX
  8
0
 62
     7
  5
2F7
 10
303.618742
 20
-219.948886
 30
0.0
  0
VERTEX
  8
0
 62
     7
  5
2F8
 10
303.639551
 20
-219.873662
 30
0.0
  0
VERTEX
  8
0
 62
     7
  5
2F9
 10
303.663637
 20
-219.792969
 30
0.0
  0
VERTEX
  8
0
 62
     7
  5
2FA
 10
303.690851
 20
-219.707305
 30
0.0
  0
VERTEX
  8
0
 62
     7
  5
2FB
 10
303.721025
 20
-219.617199
 30
0.0
  0
VERTEX
  8
0
 62
     7
  5
2FC
 10
303.753972
 20
-219.523204
 30
0.0
  0
VERTEX
  8
0
 62
     7
  5
2FD
 10
303.789491
 20
-219.425903
 30
0.0
  0
VERTEX
  8
0
 62
     7
  5
2FE
 10
303.827361
 20
-219.325893
 30
0.0
  0
VERTEX
  8
0
 62
     7
  5
2FF
 10
303.86735
 20
-219.223791
 30
0.0
  0
VERTEX
  8
0
 62
     7
  5
300
 10
303.90921
 20
-219.120228
 30
0.0
  0
VERTEX
  8
0
 62
     7
  5
301
 10
303.952685
 20
-219.015841
 30
0.0
  0
VERTEX
  8
0
 62
     7
  5
302
 10
303.997505
 20
-218.911275
 30
0.0
  0
VERTEX
  8
0
 62
     7
  5
303
 10
304.043394
 20
-218.807173
 30
0.0
  0
VERTEX
  8
0
 62
     7
  5
304
 10
304.09007
 20
-218.704179
 30
0.0
  0
VERTEX
  8
0
 62
     7
  5
305
 10
304.137244
 20
-218.602925
 30
0.0
  0
VERTEX
  8
0
 62
     7
  5
306
 10
304.184627
 20
-218.504038
 30
0.0
  0
VERTEX
  8
0
 62
     7
  5
307
 10
304.231925
 20
-218.408126
 30
0.0
  0
VERTEX
  8
0
 62
     7
  5
308
 10
304.278847
 20
-218.315782
 30
0.0
  0
VERTEX
  8
0
 62
     7
  5
309
 10
304.325104
 20
-218.227573
 30
0.0
  0
VERTEX
  8
0
 62
     7
  5
30A
 10
304.370411
 20
-218.144045
 30
0.0
  0
VERTEX
  8
0
 62
     7
  5
30B
 10
304.414487
 20
-218.065712
 30
0.0
  0
VERTEX
  8
0
 62
     7
  5
30C
 10
304.457063
 20
-217.993057
 30
0.0
  0
VERTEX
  8
0
 62
     7
  5
30D
 10
304.497874
 20
-217.926528
 30
0.0
  0
VERTEX
  8
0
 62
     7
  5
30E
 10
304.53667
 20
-217.866535
 30
0.0
  0
VERTEX
  8
0
 62
     7
  5
30F
 10
304.573211
 20
-217.813448
 30
0.0
  0
VERTEX
  8
0
 62
     7
  5
310
 10
304.607273
 20
-217.767594
 30
0.0
  0
VERTEX
  8
0
 62
     7
  5
311
 10
304.638644
 20
-217.729256
 30
0.0
  0
VERTEX
  8
0
 62
     7
  5
312
 10
304.667131
 20
-217.698671
 30
0.0
  0
VERTEX
  8
0
 62
     7
  5
313
 10
304.69256
 20
-217.676027
 30
0.0
  0
VERTEX
  8
0
 62
     7
  5
314
 10
304.714773
 20
-217.661463
 30
0.0
  0
VERTEX
  8
0
 62
     7
  5
315
 10
304.733632
 20
-217.65507
 30
0.0
  0
VERTEX
  8
0
 62
     7
  5
316
 10
304.749023
 20
-217.656887
 30
0.0
  0
SEQEND
  8
0
  5
317
  0
ARC
  8
0
  6
CONTINUOUS
 62
     7
  5
318
 10
295.0
 20
-215.0
 30
0.0
 40
1.45
 50
66.505095
 51
90.0
210
0.0
220
0.0
230
1.0
  0
ARC
  8
0
  6
CONTINUOUS
 62
     7
  5
319
 10
295.0
 20
-215.0
 30
0.0
 40
3.459
 50
144.675835
 51
311.721238
210
0.0
220
0.0
230
1.0
  0
ARC
  8
0
  6
CONTINUOUS
 62
     7
  5
31A
 10
295.0
 20
-215.0
 30
0.0
 40
3.459
 50
1.288952
 51
35.324165
210
0.0
220
0.0
230
0.9999999999999999
  0
ARC
  8
0
  6
CONTINUOUS
 62
     7
  5
31B
 10
295.0
 20
-215.0
 30
0.0
 40
4.0
 50
357.758904
 51
30.0
210
0.0
220
0.0
230
1.0
  0
ARC
  8
0
  6
CONTINUOUS
 62
     7
  5
31C
 10
295.0
 20
-215.0
 30
0.0
 40
4.0
 50
150.0
 51
315.251286
210
0.0
220
0.0
230
1.0
  0
ARC
  8
0
  6
CONTINUOUS
 62
     7
  5
31D
 10
295.0
 20
-215.0
 30
0.0
 40
5.95
 50
160.358462
 51
180.0
210
0.0
220
0.0
230
1.0
  0
LINE
  8
0
  6
CONTINUOUS
 62
     7
  5
31E
 10
289.05
 20
-215.0
 30
0.0
 11
289.05
 21
-212.999685
 31
0.0
  0
ARC
  8
0
  6
CONTINUOUS
 62
     7
  5
31F
 10
295.0
 20
-215.0
 30
0.0
 40
5.95
 50
0.0
 51
19.641538
210
0.0
220
0.0
230
1.0
  0
LINE
  8
0
  6
CONTINUOUS
 62
     7
  5
320
 10
300.95
 20
-212.999674
 30
0.0
 11
300.95
 21
-215.0
 31
0.0
  0
ARC
  8
0
  6
CONTINUOUS
 62
     7
  5
321
 10
295.0
 20
-215.0
 30
0.0
 40
5.95
 50
240.0
 51
300.0
210
0.0
220
0.0
230
1.0
  0
ARC
  8
0
  6
CONTINUOUS
 62
     7
  5
322
 10
295.0
 20
-215.0
 30
0.0
 40
5.95
 50
180.0
 51
240.0
210
0.0
220
0.0
230
1.0
  0
ARC
  8
0
  6
CONTINUOUS
 62
     7
  5
323
 10
295.0
 20
-215.0
 30
0.0
 40
5.95
 50
350.609967
 51
360.0
210
0.0
220
0.0
230
1.0
  0
ARC
  8
0
  6
CONTINUOUS
 62
     7
  5
324
 10
295.0
 20
-215.0
 30
0.0
 40
5.95
 50
300.0
 51
322.400223
210
0.0
220
0.0
230
1.0
  0
LINE
  8
0
  6
CONTINUOUS
 62
     7
  5
325
 10
300.22638
 20
-218.853017
 30
0.0
 11
297.975
 21
-220.152851
 31
0.0
  0
LINE
  8
0
  6
CONTINUOUS
 62
     7
  5
326
 10
300.95
 20
-215.0
 30
0.0
 11
300.95
 21
-216.00561
 31
0.0
  0
LINE
  8
0
  6
CONTINUOUS
 62
     7
  5
327
 10
295.0
 20
-221.870468
 30
0.0
 11
292.025
 21
-220.152851
 31
0.0
  0
LINE
  8
0
  6
CONTINUOUS
 62
     7
  5
328
 10
297.975
 20
-220.152851
 30
0.0
 11
295.0
 21
-221.870468
 31
0.0
  0
LINE
  8
0
  6
CONTINUOUS
 62
     7
  5
329
 10
292.025
 20
-220.152851
 30
0.0
 11
289.05
 21
-218.435234
 31
0.0
  0
LINE
  8
0
  6
CONTINUOUS
 62
     7
  5
32A
 10
289.05
 20
-218.435234
 30
0.0
 11
289.05
 21
-215.0
 31
0.0
  0
LINE
  8
0
  6
CONTINUOUS
 62
     7
  5
32B
 10
286.0
 20
-216.7
 30
0.0
 11
291.0
 21
-221.7
 31
0.0
  0
LINE
  8
0
  6
CONTINUOUS
 62
     7
  5
32C
 10
299.0
 20
-221.7
 30
0.0
 11
301.355949
 21
-219.344051
 31
0.0
  0
LINE
  8
0
  6
CONTINUOUS
 62
     7
  5
32D
 10
303.559993
 20
-217.140007
 30
0.0
 11
304.0
 21
-216.7
 31
0.0
  0
LINE
  8
0
  6
CONTINUOUS
 62
     7
  5
32E
 10
291.0
 20
-221.7
 30
0.0
 11
294.70474
 21
-221.7
 31
0.0
  0
LINE
  8
0
  6
CONTINUOUS
 62
     7
  5
32F
 10
295.29526
 20
-221.7
 30
0.0
 11
299.0
 21
-221.7
 31
0.0
  0
LINE
  8
0
  6
CONTINUOUS
 62
     7
  5
330
 10
304.0
 20
-213.0
 30
0.0
 11
304.0
 21
-216.7
 31
0.0
  0
LINE
  8
0
  6
CONTINUOUS
 62
     7
  5
331
 10
286.0
 20
-213.0
 30
0.0
 11
286.0
 21
-216.7
 31
0.0
  0
LINE
  8
0
  6
CONTINUOUS
 62
     7
  5
332
 10
445.5
 20
-83.0
 30
0.0
 11
395.0
 21
-83.0
 31
0.0
  0
LINE
  8
0
  6
CONTINUOUS
 62
     7
  5
333
 10
445.5
 20
-83.0
 30
0.0
 11
445.5
 21
-84.0
 31
0.0
  0
LINE
  8
0
  6
CONTINUOUS
 62
     7
  5
334
 10
445.5
 20
-84.0
 30
0.0
 11
445.5
 21
-89.1
 31
0.0
  0
LINE
  8
0
  6
CONTINUOUS
 62
     7
  5
335
 10
445.5
 20
-158.9
 30
0.0
 11
445.5
 21
-159.0
 31
0.0
  0
LINE
  8
0
  6
CONTINUOUS
 62
     7
  5
336
 10
445.5
 20
-160.0
 30
0.0
 11
395.0
 21
-160.0
 31
0.0
  0
LINE
  8
0
  6
CONTINUOUS
 62
     7
  5
337
 10
364.188
 20
-160.0
 30
0.0
 11
355.812
 21
-160.0
 31
0.0
  0
LINE
  8
0
  6
CONTINUOUS
 62
     7
  5
338
 10
234.188
 20
-160.0
 30
0.0
 11
225.812
 21
-160.0
 31
0.0
  0
LINE
  8
0
  6
CONTINUOUS
 62
     7
  5
339
 10
445.5
 20
-159.0
 30
0.0
 11
445.5
 21
-160.0
 31
0.0
  0
LINE
  8
0
  6
CONTINUOUS
 62
     7
  5
33A
 10
195.0
 20
-83.0
 30
0.0
 11
144.54
 21
-83.0
 31
0.0
  0
LINE
  8
0
  6
CONTINUOUS
 62
     7
  5
33B
 10
144.54
 20
-83.0
 30
0.0
 11
144.54
 21
-83.5
 31
0.0
  0
LINE
  8
0
  6
CONTINUOUS
 62
     7
  5
33C
 10
144.54
 20
-83.5
 30
0.0
 11
144.54
 21
-89.1
 31
0.0
  0
LINE
  8
0
  6
CONTINUOUS
 62
     7
  5
33D
 10
445.51
 20
-93.0
 30
0.0
 11
445.5
 21
-93.0
 31
0.0
  0
LINE
  8
0
  6
CONTINUOUS
 62
     7
  5
33E
 10
445.51
 20
-153.0
 30
0.0
 11
445.51
 21
-93.0
 31
0.0
  0
LINE
  8
0
  6
CONTINUOUS
 62
     7
  5
33F
 10
445.51
 20
-153.0
 30
0.0
 11
445.5
 21
-153.0
 31
0.0
  0
LINE
  8
0
  6
CONTINUOUS
 62
     7
  5
340
 10
445.51
 20
-85.0
 30
0.0
 11
445.5
 21
-85.0
 31
0.0
  0
LINE
  8
0
  6
CONTINUOUS
 62
     7
  5
341
 10
445.51
 20
-93.0
 30
0.0
 11
445.51
 21
-85.0
 31
0.0
  0
LINE
  8
0
  6
CONTINUOUS
 62
     7
  5
342
 10
445.51
 20
-158.0
 30
0.0
 11
445.5
 21
-158.0
 31
0.0
  0
LINE
  8
0
  6
CONTINUOUS
 62
     7
  5
343
 10
445.51
 20
-158.0
 30
0.0
 11
445.51
 21
-153.0
 31
0.0
  0
LINE
  8
0
  6
CONTINUOUS
 62
     7
  5
344
 10
445.5
 20
-84.5
 30
0.0
 11
445.5
 21
-83.0
 31
0.0
  0
LINE
  8
0
  6
CONTINUOUS
 62
     7
  5
345
 10
287.8
 20
-218.5
 30
0.0
 11
286.5
 21
-218.5
 31
0.0
  0
LINE
  8
0
  6
CONTINUOUS
 62
     7
  5
346
 10
533.75
 20
-209.494447
 30
0.0
 11
527.25
 21
-213.247223
 31
0.0
  0
LINE
  8
0
  6
CONTINUOUS
 62
     7
  5
347
 10
540.25
 20
-213.247223
 30
0.0
 11
533.75
 21
-209.494447
 31
0.0
  0
LINE
  8
0
  6
CONTINUOUS
 62
     7
  5
348
 10
540.25
 20
-220.752777
 30
0.0
 11
540.25
 21
-213.247223
 31
0.0
  0
LINE
  8
0
  6
CONTINUOUS
 62
     7
  5
349
 10
533.75
 20
-224.505553
 30
0.0
 11
540.25
 21
-220.752777
 31
0.0
  0
LINE
  8
0
  6
CONTINUOUS
 62
     7
  5
34A
 10
527.25
 20
-220.752777
 30
0.0
 11
533.75
 21
-224.505553
 31
0.0
  0
LINE
  8
0
  6
CONTINUOUS
 62
     7
  5
34B
 10
527.25
 20
-213.247223
 30
0.0
 11
527.25
 21
-220.752777
 31
0.0
  0
CIRCLE
  8
0
  6
CONTINUOUS
 62
     7
  5
34C
 10
533.75
 20
-217.0
 30
0.0
 40
9.0
210
0.0
220
0.0
230
1.0
  0
LINE
  8
0
  6
CONTINUOUS
 62
     7
  5
34D
 10
514.75
 20
-207.0
 30
0.0
 11
514.75
 21
-227.5
 31
0.0
  0
LINE
  8
0
  6
CONTINUOUS
 62
     7
  5
34E
 10
552.75
 20
-207.0
 30
0.0
 11
552.75
 21
-227.5
 31
0.0
  0
LINE
  8
0
  6
CONTINUOUS
 62
     7
  5
34F
 10
514.75
 20
-227.5
 30
0.0
 11
552.75
 21
-227.5
 31
0.0
  0
LINE
  8
0
  6
CONTINUOUS
 62
     7
  5
350
 10
500.25
 20
-213.247223
 30
0.0
 11
493.75
 21
-209.494447
 31
0.0
  0
LINE
  8
0
  6
CONTINUOUS
 62
     7
  5
351
 10
500.25
 20
-220.752777
 30
0.0
 11
500.25
 21
-213.247223
 31
0.0
  0
LINE
  8
0
  6
CONTINUOUS
 62
     7
  5
352
 10
493.75
 20
-224.505553
 30
0.0
 11
500.25
 21
-220.752777
 31
0.0
  0
LINE
  8
0
  6
CONTINUOUS
 62
     7
  5
353
 10
487.25
 20
-220.752777
 30
0.0
 11
493.75
 21
-224.505553
 31
0.0
  0
LINE
  8
0
  6
CONTINUOUS
 62
     7
  5
354
 10
487.25
 20
-213.247223
 30
0.0
 11
487.25
 21
-220.752777
 31
0.0
  0
LINE
  8
0
  6
CONTINUOUS
 62
     7
  5
355
 10
493.75
 20
-209.494447
 30
0.0
 11
487.25
 21
-213.247223
 31
0.0
  0
CIRCLE
  8
0
  6
CONTINUOUS
 62
     7
  5
356
 10
493.75
 20
-217.0
 30
0.0
 40
9.0
210
0.0
220
0.0
230
1.0
  0
LINE
  8
0
  6
CONTINUOUS
 62
     7
  5
357
 10
474.75
 20
-207.0
 30
0.0
 11
474.75
 21
-227.5
 31
0.0
  0
LINE
  8
0
  6
CONTINUOUS
 62
     7
  5
358
 10
474.75
 20
-227.5
 30
0.0
 11
512.75
 21
-227.5
 31
0.0
  0
LINE
  8
0
  6
CONTINUOUS
 62
     7
  5
359
 10
512.75
 20
-207.0
 30
0.0
 11
512.75
 21
-227.5
 31
0.0
  0
LINE
  8
0
  6
CONTINUOUS
 62
     7
  5
35A
 10
102.75
 20
-220.752777
 30
0.0
 11
96.25
 21
-224.505553
 31
0.0
  0
LINE
  8
0
  6
CONTINUOUS
 62
     7
  5
35B
 10
96.25
 20
-224.505553
 30
0.0
 11
89.75
 21
-220.752777
 31
0.0
  0
LINE
  8
0
  6
CONTINUOUS
 62
     7
  5
35C
 10
102.75
 20
-213.247223
 30
0.0
 11
102.75
 21
-220.752777
 31
0.0
  0
LINE
  8
0
  6
CONTINUOUS
 62
     7
  5
35D
 10
89.75
 20
-220.752777
 30
0.0
 11
89.75
 21
-213.247223
 31
0.0
  0
LINE
  8
0
  6
CONTINUOUS
 62
     7
  5
35E
 10
89.75
 20
-213.247223
 30
0.0
 11
96.25
 21
-209.494447
 31
0.0
  0
LINE
  8
0
  6
CONTINUOUS
 62
     7
  5
35F
 10
96.25
 20
-209.494447
 30
0.0
 11
102.75
 21
-213.247223
 31
0.0
  0
CIRCLE
  8
0
  6
CONTINUOUS
 62
     7
  5
360
 10
96.25
 20
-217.0
 30
0.0
 40
9.0
210
0.0
220
0.0
230
1.0
  0
LINE
  8
0
  6
CONTINUOUS
 62
     7
  5
361
 10
115.25
 20
-207.0
 30
0.0
 11
115.25
 21
-227.5
 31
0.0
  0
LINE
  8
0
  6
CONTINUOUS
 62
     7
  5
362
 10
115.25
 20
-227.5
 30
0.0
 11
77.25
 21
-227.5
 31
0.0
  0
LINE
  8
0
  6
CONTINUOUS
 62
     7
  5
363
 10
77.25
 20
-207.0
 30
0.0
 11
77.25
 21
-227.5
 31
0.0
  0
LINE
  8
0
  6
CONTINUOUS
 62
     7
  5
364
 10
62.75
 20
-220.752777
 30
0.0
 11
56.25
 21
-224.505553
 31
0.0
  0
LINE
  8
0
  6
CONTINUOUS
 62
     7
  5
365
 10
56.25
 20
-224.505553
 30
0.0
 11
49.75
 21
-220.752777
 31
0.0
  0
LINE
  8
0
  6
CONTINUOUS
 62
     7
  5
366
 10
56.25
 20
-209.494447
 30
0.0
 11
62.75
 21
-213.247223
 31
0.0
  0
LINE
  8
0
  6
CONTINUOUS
 62
     7
  5
367
 10
62.75
 20
-213.247223
 30
0.0
 11
62.75
 21
-220.752777
 31
0.0
  0
LINE
  8
0
  6
CONTINUOUS
 62
     7
  5
368
 10
49.75
 20
-220.752777
 30
0.0
 11
49.75
 21
-213.247223
 31
0.0
  0
LINE
  8
0
  6
CONTINUOUS
 62
     7
  5
369
 10
49.75
 20
-213.247223
 30
0.0
 11
56.25
 21
-209.494447
 31
0.0
  0
CIRCLE
  8
0
  6
CONTINUOUS
 62
     7
  5
36A
 10
56.25
 20
-217.0
 30
0.0
 40
9.0
210
0.0
220
0.0
230
1.0
  0
LINE
  8
0
  6
CONTINUOUS
 62
     7
  5
36B
 10
75.25
 20
-207.0
 30
0.0
 11
75.25
 21
-227.5
 31
0.0
  0
LINE
  8
0
  6
CONTINUOUS
 62
     7
  5
36C
 10
75.25
 20
-227.5
 30
0.0
 11
37.25
 21
-227.5
 31
0.0
  0
LINE
  8
0
  6
CONTINUOUS
 62
     7
  5
36D
 10
37.25
 20
-207.0
 30
0.0
 11
37.25
 21
-227.5
 31
0.0
  0
LINE
  8
0
  6
CONTINUOUS
 62
     7
  5
36E
 10
96.25
 20
-38.505553
 30
0.0
 11
102.75
 21
-34.752777
 31
0.0
  0
LINE
  8
0
  6
CONTINUOUS
 62
     7
  5
36F
 10
89.75
 20
-34.752777
 30
0.0
 11
96.25
 21
-38.505553
 31
0.0
  0
LINE
  8
0
  6
CONTINUOUS
 62
     7
  5
370
 10
96.25
 20
-23.494447
 30
0.0
 11
89.75
 21
-27.247223
 31
0.0
  0
LINE
  8
0
  6
CONTINUOUS
 62
     7
  5
371
 10
102.75
 20
-27.247223
 30
0.0
 11
96.25
 21
-23.494447
 31
0.0
  0
LINE
  8
0
  6
CONTINUOUS
 62
     7
  5
372
 10
102.75
 20
-34.752777
 30
0.0
 11
102.75
 21
-27.247223
 31
0.0
  0
LINE
  8
0
  6
CONTINUOUS
 62
     7
  5
373
 10
89.75
 20
-27.247223
 30
0.0
 11
89.75
 21
-34.752777
 31
0.0
  0
CIRCLE
  8
0
  6
CONTINUOUS
 62
     7
  5
374
 10
96.25
 20
-31.0
 30
0.0
 40
9.0
210
0.0
220
0.0
230
1.0
  0
LINE
  8
0
  6
CONTINUOUS
 62
     7
  5
375
 10
115.25
 20
-20.5
 30
0.0
 11
77.25
 21
-20.5
 31
0.0
  0
LINE
  8
0
  6
CONTINUOUS
 62
     7
  5
376
 10
115.25
 20
-41.0
 30
0.0
 11
115.25
 21
-20.5
 31
0.0
  0
LINE
  8
0
  6
CONTINUOUS
 62
     7
  5
377
 10
77.25
 20
-41.0
 30
0.0
 11
77.25
 21
-20.5
 31
0.0
  0
LINE
  8
0
  6
CONTINUOUS
 62
     7
  5
378
 10
56.25
 20
-38.505553
 30
0.0
 11
62.75
 21
-34.752777
 31
0.0
  0
LINE
  8
0
  6
CONTINUOUS
 62
     7
  5
379
 10
49.75
 20
-34.752777
 30
0.0
 11
56.25
 21
-38.505553
 31
0.0
  0
LINE
  8
0
  6
CONTINUOUS
 62
     7
  5
37A
 10
56.25
 20
-23.494447
 30
0.0
 11
49.75
 21
-27.247223
 31
0.0
  0
LINE
  8
0
  6
CONTINUOUS
 62
     7
  5
37B
 10
62.75
 20
-27.247223
 30
0.0
 11
56.25
 21
-23.494447
 31
0.0
  0
LINE
  8
0
  6
CONTINUOUS
 62
     7
  5
37C
 10
62.75
 20
-34.752777
 30
0.0
 11
62.75
 21
-27.247223
 31
0.0
  0
LINE
  8
0
  6
CONTINUOUS
 62
     7
  5
37D
 10
49.75
 20
-27.247223
 30
0.0
 11
49.75
 21
-34.752777
 31
0.0
  0
CIRCLE
  8
0
  6
CONTINUOUS
 62
     7
  5
37E
 10
56.25
 20
-31.0
 30
0.0
 40
9.0
210
0.0
220
0.0
230
1.0
  0
LINE
  8
0
  6
CONTINUOUS
 62
     7
  5
37F
 10
75.25
 20
-20.5
 30
0.0
 11
37.25
 21
-20.5
 31
0.0
  0
LINE
  8
0
  6
CONTINUOUS
 62
     7
  5
380
 10
75.25
 20
-41.0
 30
0.0
 11
75.25
 21
-20.5
 31
0.0
  0
LINE
  8
0
  6
CONTINUOUS
 62
     7
  5
381
 10
37.25
 20
-41.0
 30
0.0
 11
37.25
 21
-20.5
 31
0.0
  0
LINE
  8
0
  6
CONTINUOUS
 62
     7
  5
382
 10
487.25
 20
-27.247223
 30
0.0
 11
493.75
 21
-23.494447
 31
0.0
  0
LINE
  8
0
  6
CONTINUOUS
 62
     7
  5
383
 10
493.75
 20
-23.494447
 30
0.0
 11
500.25
 21
-27.247223
 31
0.0
  0
LINE
  8
0
  6
CONTINUOUS
 62
     7
  5
384
 10
500.25
 20
-27.247223
 30
0.0
 11
500.25
 21
-34.752777
 31
0.0
  0
LINE
  8
0
  6
CONTINUOUS
 62
     7
  5
385
 10
493.75
 20
-38.505553
 30
0.0
 11
487.25
 21
-34.752777
 31
0.0
  0
LINE
  8
0
  6
CONTINUOUS
 62
     7
  5
386
 10
487.25
 20
-34.752777
 30
0.0
 11
487.25
 21
-27.247223
 31
0.0
  0
LINE
  8
0
  6
CONTINUOUS
 62
     7
  5
387
 10
500.25
 20
-34.752777
 30
0.0
 11
493.75
 21
-38.505553
 31
0.0
  0
CIRCLE
  8
0
  6
CONTINUOUS
 62
     7
  5
388
 10
493.75
 20
-31.0
 30
0.0
 40
9.0
210
0.0
220
0.0
230
1.0
  0
LINE
  8
0
  6
CONTINUOUS
 62
     7
  5
389
 10
474.75
 20
-41.0
 30
0.0
 11
474.75
 21
-20.5
 31
0.0
  0
LINE
  8
0
  6
CONTINUOUS
 62
     7
  5
38A
 10
474.75
 20
-20.5
 30
0.0
 11
512.75
 21
-20.5
 31
0.0
  0
LINE
  8
0
  6
CONTINUOUS
 62
     7
  5
38B
 10
512.75
 20
-41.0
 30
0.0
 11
512.75
 21
-20.5
 31
0.0
  0
LINE
  8
0
  6
CONTINUOUS
 62
     7
  5
38C
 10
527.25
 20
-27.247223
 30
0.0
 11
533.75
 21
-23.494447
 31
0.0
  0
LINE
  8
0
  6
CONTINUOUS
 62
     7
  5
38D
 10
533.75
 20
-23.494447
 30
0.0
 11
540.25
 21
-27.247223
 31
0.0
  0
LINE
  8
0
  6
CONTINUOUS
 62
     7
  5
38E
 10
527.25
 20
-34.752777
 30
0.0
 11
527.25
 21
-27.247223
 31
0.0
  0
LINE
  8
0
  6
CONTINUOUS
 62
     7
  5
38F
 10
540.25
 20
-34.752777
 30
0.0
 11
533.75
 21
-38.505553
 31
0.0
  0
LINE
  8
0
  6
CONTINUOUS
 62
     7
  5
390
 10
533.75
 20
-38.505553
 30
0.0
 11
527.25
 21
-34.752777
 31
0.0
  0
LINE
  8
0
  6
CONTINUOUS
 62
     7
  5
391
 10
540.25
 20
-27.247223
 30
0.0
 11
540.25
 21
-34.752777
 31
0.0
  0
CIRCLE
  8
0
  6
CONTINUOUS
 62
     7
  5
392
 10
533.75
 20
-31.0
 30
0.0
 40
9.0
210
0.0
220
0.0
230
1.0
  0
LINE
  8
0
  6
CONTINUOUS
 62
     7
  5
393
 10
514.75
 20
-41.0
 30
0.0
 11
514.75
 21
-20.5
 31
0.0
  0
LINE
  8
0
  6
CONTINUOUS
 62
     7
  5
394
 10
514.75
 20
-20.5
 30
0.0
 11
552.75
 21
-20.5
 31
0.0
  0
LINE
  8
0
  6
CONTINUOUS
 62
     7
  5
395
 10
552.75
 20
-41.0
 30
0.0
 11
552.75
 21
-20.5
 31
0.0
  0
LINE
  8
0
  6
CONTINUOUS
 62
     7
  5
396
 10
144.54
 20
-85.5
 30
0.0
 11
133.925
 21
-85.5
 31
0.0
  0
ARC
  8
0
  6
CONTINUOUS
 62
     7
  5
397
 10
133.925
 20
-86.5
 30
0.0
 40
1.0
 50
90.0
 51
180.0
210
0.0
220
0.0
230
1.0
  0
LINE
  8
0
  6
CONTINUOUS
 62
     7
  5
398
 10
132.925
 20
-86.5
 30
0.0
 11
132.925
 21
-91.5
 31
0.0
  0
ARC
  8
0
  6
CONTINUOUS
 62
     7
  5
399
 10
133.925
 20
-91.5
 30
0.0
 40
1.0
 50
180.0
 51
270.0
210
0.0
220
0.0
230
1.0
  0
LINE
  8
0
  6
CONTINUOUS
 62
     7
  5
39A
 10
133.925
 20
-92.5
 30
0.0
 11
144.5
 21
-92.5
 31
0.0
  0
LINE
  8
0
  6
CONTINUOUS
 62
     7
  5
39B
 10
4.506573
 20
-161.620718
 30
0.0
 11
5.389099
 21
-149.0
 31
0.0
  0
LINE
  8
0
  6
CONTINUOUS
 62
     7
  5
39C
 10
6.787636
 20
-129.0
 30
0.0
 11
7.486904
 21
-119.0
 31
0.0
  0
LINE
  8
0
  6
CONTINUOUS
 62
     7
  5
39D
 10
8.88544
 20
-99.0
 30
0.0
 11
9.786047
 21
-86.120718
 31
0.0
  0
ARC
  8
0
  6
CONTINUOUS
 62
     7
  5
39E
 10
11.634865
 20
-86.25
 30
0.0
 40
1.853333
 50
90.0
 51
176.0
210
0.0
220
0.0
230
1.0
  0
LINE
  8
0
  6
CONTINUOUS
 62
     7
  5
39F
 10
11.634865
 20
-84.396667
 30
0.0
 11
24.325
 21
-84.396667
 31
0.0
  0
ARC
  8
0
  6
CONTINUOUS
 62
     7
  5
3A0
 10
24.325
 20
-86.25
 30
0.0
 40
1.853333
 50
360.0
 51
90.0
210
0.0
220
0.0
230
1.0
  0
LINE
  8
0
  6
CONTINUOUS
 62
     7
  5
3A1
 10
26.178333
 20
-86.25
 30
0.0
 11
26.178333
 21
-89.0
 31
0.0
  0
ARC
  8
0
  6
CONTINUOUS
 62
     7
  5
3A2
 10
30.925
 20
-89.0
 30
0.0
 40
4.746667
 50
180.0
 51
360.0
210
0.0
220
0.0
230
1.0
  0
LINE
  8
0
  6
CONTINUOUS
 62
     7
  5
3A3
 10
35.671667
 20
-89.0
 30
0.0
 11
35.671667
 21
-86.25
 31
0.0
  0
ARC
  8
0
  6
CONTINUOUS
 62
     7
  5
3A4
 10
37.525
 20
-86.25
 30
0.0
 40
1.853333
 50
90.0
 51
180.0
210
0.0
220
0.0
230
1.0
  0
LINE
  8
0
  6
CONTINUOUS
 62
     7
  5
3A5
 10
37.525
 20
-84.396667
 30
0.0
 11
72.325
 21
-84.396667
 31
0.0
  0
ARC
  8
0
  6
CONTINUOUS
 62
     7
  5
3A6
 10
72.325
 20
-86.25
 30
0.0
 40
1.853333
 50
360.0
 51
90.0
210
0.0
220
0.0
230
1.0
  0
LINE
  8
0
  6
CONTINUOUS
 62
     7
  5
3A7
 10
74.178333
 20
-86.25
 30
0.0
 11
74.178333
 21
-89.0
 31
0.0
  0
ARC
  8
0
  6
CONTINUOUS
 62
     7
  5
3A8
 10
78.925
 20
-89.0
 30
0.0
 40
4.746667
 50
180.0
 51
360.0
210
0.0
220
0.0
230
1.0
  0
LINE
  8
0
  6
CONTINUOUS
 62
     7
  5
3A9
 10
83.671667
 20
-89.0
 30
0.0
 11
83.671667
 21
-86.25
 31
0.0
  0
ARC
  8
0
  6
CONTINUOUS
 62
     7
  5
3AA
 10
85.525
 20
-86.25
 30
0.0
 40
1.853333
 50
90.0
 51
180.0
210
0.0
220
0.0
230
1.0
  0
LINE
  8
0
  6
CONTINUOUS
 62
     7
  5
3AB
 10
85.525
 20
-84.396667
 30
0.0
 11
120.325
 21
-84.396667
 31
0.0
  0
ARC
  8
0
  6
CONTINUOUS
 62
     7
  5
3AC
 10
120.325
 20
-86.25
 30
0.0
 40
1.853333
 50
360.0
 51
90.0
210
0.0
220
0.0
230
1.0
  0
LINE
  8
0
  6
CONTINUOUS
 62
     7
  5
3AD
 10
122.178333
 20
-86.25
 30
0.0
 11
122.178333
 21
-89.0
 31
0.0
  0
ARC
  8
0
  6
CONTINUOUS
 62
     7
  5
3AE
 10
126.925
 20
-89.0
 30
0.0
 40
4.746667
 50
180.0
 51
360.0
210
0.0
220
0.0
230
1.0
  0
LINE
  8
0
  6
CONTINUOUS
 62
     7
  5
3AF
 10
131.671667
 20
-89.0
 30
0.0
 11
131.671667
 21
-86.25
 31
0.0
  0
ARC
  8
0
  6
CONTINUOUS
 62
     7
  5
3B0
 10
133.525
 20
-86.25
 30
0.0
 40
1.853333
 50
90.0
 51
180.0
210
0.0
220
0.0
230
1.0
  0
LINE
  8
0
  6
CONTINUOUS
 62
     7
  5
3B1
 10
133.525
 20
-84.396667
 30
0.0
 11
144.54
 21
-84.396667
 31
0.0
  0
LINE
  8
0
  6
CONTINUOUS
 62
     7
  5
3B2
 10
195.0
 20
-163.603333
 30
0.0
 11
181.525
 21
-163.603333
 31
0.0
  0
ARC
  8
0
  6
CONTINUOUS
 62
     7
  5
3B3
 10
181.525
 20
-161.75
 30
0.0
 40
1.853333
 50
180.0
 51
270.0
210
0.0
220
0.0
230
1.0
  0
LINE
  8
0
  6
CONTINUOUS
 62
     7
  5
3B4
 10
179.671667
 20
-161.75
 30
0.0
 11
179.671667
 21
-159.0
 31
0.0
  0
ARC
  8
0
  6
CONTINUOUS
 62
     7
  5
3B5
 10
174.925
 20
-159.0
 30
0.0
 40
4.746667
 50
0.0
 51
1.207163
210
0.0
220
0.0
230
1.0
  0
ARC
  8
0
  6
CONTINUOUS
 62
     7
  5
3B6
 10
174.925
 20
-159.0
 30
0.0
 40
4.746667
 50
58.404529
 51
92.640679
210
0.0
220
0.0
230
1.0
  0
ARC
  8
0
  6
CONTINUOUS
 62
     7
  5
3B7
 10
174.925
 20
-159.0
 30
0.0
 40
4.746667
 50
178.792837
 51
180.0
210
0.0
220
0.0
230
0.9999999999999999
  0
LINE
  8
0
  6
CONTINUOUS
 62
     7
  5
3B8
 10
170.178333
 20
-159.0
 30
0.0
 11
170.178333
 21
-161.75
 31
0.0
  0
ARC
  8
0
  6
CONTINUOUS
 62
     7
  5
3B9
 10
168.325
 20
-161.75
 30
0.0
 40
1.853333
 50
270.0
 51
360.0
210
0.0
220
0.0
230
1.0
  0
LINE
  8
0
  6
CONTINUOUS
 62
     7
  5
3BA
 10
168.325
 20
-163.603333
 30
0.0
 11
133.525
 21
-163.603333
 31
0.0
  0
ARC
  8
0
  6
CONTINUOUS
 62
     7
  5
3BB
 10
133.525
 20
-161.75
 30
0.0
 40
1.853333
 50
180.0
 51
270.0
210
0.0
220
0.0
230
1.0
  0
LINE
  8
0
  6
CONTINUOUS
 62
     7
  5
3BC
 10
131.671667
 20
-161.75
 30
0.0
 11
131.671667
 21
-159.0
 31
0.0
  0
ARC
  8
0
  6
CONTINUOUS
 62
     7
  5
3BD
 10
126.925
 20
-159.0
 30
0.0
 40
4.746667
 50
0.0
 51
180.0
210
0.0
220
0.0
230
1.0
  0
LINE
  8
0
  6
CONTINUOUS
 62
     7
  5
3BE
 10
122.178333
 20
-159.0
 30
0.0
 11
122.178333
 21
-161.75
 31
0.0
  0
ARC
  8
0
  6
CONTINUOUS
 62
     7
  5
3BF
 10
120.325
 20
-161.75
 30
0.0
 40
1.853333
 50
270.0
 51
360.0
210
0.0
220
0.0
230
1.0
  0
LINE
  8
0
  6
CONTINUOUS
 62
     7
  5
3C0
 10
120.325
 20
-163.603333
 30
0.0
 11
85.525
 21
-163.603333
 31
0.0
  0
ARC
  8
0
  6
CONTINUOUS
 62
     7
  5
3C1
 10
85.525
 20
-161.75
 30
0.0
 40
1.853333
 50
180.0
 51
270.0
210
0.0
220
0.0
230
1.0
  0
LINE
  8
0
  6
CONTINUOUS
 62
     7
  5
3C2
 10
83.671667
 20
-161.75
 30
0.0
 11
83.671667
 21
-159.0
 31
0.0
  0
ARC
  8
0
  6
CONTINUOUS
 62
     7
  5
3C3
 10
78.925
 20
-159.0
 30
0.0
 40
4.746667
 50
0.0
 51
180.0
210
0.0
220
0.0
230
1.0
  0
LINE
  8
0
  6
CONTINUOUS
 62
     7
  5
3C4
 10
74.178333
 20
-159.0
 30
0.0
 11
74.178333
 21
-161.75
 31
0.0
  0
ARC
  8
0
  6
CONTINUOUS
 62
     7
  5
3C5
 10
72.325
 20
-161.75
 30
0.0
 40
1.853333
 50
270.0
 51
360.0
210
0.0
220
0.0
230
1.0
  0
LINE
  8
0
  6
CONTINUOUS
 62
     7
  5
3C6
 10
72.325
 20
-163.603333
 30
0.0
 11
37.525
 21
-163.603333
 31
0.0
  0
ARC
  8
0
  6
CONTINUOUS
 62
     7
  5
3C7
 10
37.525
 20
-161.75
 30
0.0
 40
1.853333
 50
180.0
 51
270.0
210
0.0
220
0.0
230
1.0
  0
LINE
  8
0
  6
CONTINUOUS
 62
     7
  5
3C8
 10
35.671667
 20
-161.75
 30
0.0
 11
35.671667
 21
-159.0
 31
0.0
  0
ARC
  8
0
  6
CONTINUOUS
 62
     7
  5
3C9
 10
30.925
 20
-159.0
 30
0.0
 40
4.746667
 50
0.0
 51
180.0
210
0.0
220
0.0
230
1.0
  0
LINE
  8
0
  6
CONTINUOUS
 62
     7
  5
3CA
 10
26.178333
 20
-159.0
 30
0.0
 11
26.178333
 21
-161.75
 31
0.0
  0
ARC
  8
0
  6
CONTINUOUS
 62
     7
  5
3CB
 10
24.325
 20
-161.75
 30
0.0
 40
1.853333
 50
270.0
 51
360.0
210
0.0
220
0.0
230
1.0
  0
LINE
  8
0
  6
CONTINUOUS
 62
     7
  5
3CC
 10
24.325
 20
-163.603333
 30
0.0
 11
6.355391
 21
-163.603333
 31
0.0
  0
ARC
  8
0
  6
CONTINUOUS
 62
     7
  5
3CD
 10
6.355391
 20
-161.75
 30
0.0
 40
1.853333
 50
176.0
 51
270.0
210
0.0
220
0.0
230
1.0
  0
LINE
  8
0
  6
CONTINUOUS
 62
     7
  5
3CE
 10
195.0
 20
-163.75
 30
0.0
 11
181.525
 21
-163.75
 31
0.0
  0
LINE
  8
0
  6
CONTINUOUS
 62
     7
  5
3CF
 10
170.325
 20
-159.0
 30
0.0
 11
170.325
 21
-161.75
 31
0.0
  0
ARC
  8
0
  6
CONTINUOUS
 62
     7
  5
3D0
 10
181.525
 20
-161.75
 30
0.0
 40
2.0
 50
180.0
 51
270.0
210
0.0
220
0.0
230
1.0
  0
LINE
  8
0
  6
CONTINUOUS
 62
     7
  5
3D1
 10
133.525
 20
-84.25
 30
0.0
 11
144.54
 21
-84.25
 31
0.0
  0
ARC
  8
0
  6
CONTINUOUS
 62
     7
  5
3D2
 10
168.325
 20
-161.75
 30
0.0
 40
2.0
 50
270.0
 51
360.0
210
0.0
220
0.0
230
1.0
  0
LINE
  8
0
  6
CONTINUOUS
 62
     7
  5
3D3
 10
168.325
 20
-163.75
 30
0.0
 11
133.525
 21
-163.75
 31
0.0
  0
ARC
  8
0
  6
CONTINUOUS
 62
     7
  5
3D4
 10
174.925
 20
-159.0
 30
0.0
 40
4.6
 50
0.0
 51
1.245659
210
0.0
220
0.0
230
1.0
  0
ARC
  8
0
  6
CONTINUOUS
 62
     7
  5
3D5
 10
174.925
 20
-159.0
 30
0.0
 40
4.6
 50
59.786377
 51
91.258831
210
0.0
220
0.0
230
1.0
  0
ARC
  8
0
  6
CONTINUOUS
 62
     7
  5
3D6
 10
174.925
 20
-159.0
 30
0.0
 40
4.6
 50
178.754341
 51
180.0
210
0.0
220
0.0
230
1.0
  0
LINE
  8
0
  6
CONTINUOUS
 62
     7
  5
3D7
 10
179.525
 20
-161.75
 30
0.0
 11
179.525
 21
-159.0
 31
0.0
  0
LINE
  8
0
  6
CONTINUOUS
 62
     7
  5
3D8
 10
122.325
 20
-159.0
 30
0.0
 11
122.325
 21
-161.75
 31
0.0
  0
ARC
  8
0
  6
CONTINUOUS
 62
     7
  5
3D9
 10
126.925
 20
-159.0
 30
0.0
 40
4.6
 50
0.0
 51
180.0
210
0.0
220
0.0
230
1.0
  0
ARC
  8
0
  6
CONTINUOUS
 62
     7
  5
3DA
 10
133.525
 20
-86.25
 30
0.0
 40
2.0
 50
90.0
 51
180.0
210
0.0
220
0.0
230
1.0
  0
ARC
  8
0
  6
CONTINUOUS
 62
     7
  5
3DB
 10
133.525
 20
-161.75
 30
0.0
 40
2.0
 50
180.0
 51
270.0
210
0.0
220
0.0
230
1.0
  0
ARC
  8
0
  6
CONTINUOUS
 62
     7
  5
3DC
 10
126.925
 20
-89.0
 30
0.0
 40
4.6
 50
180.0
 51
360.0
210
0.0
220
0.0
230
1.0
  0
LINE
  8
0
  6
CONTINUOUS
 62
     7
  5
3DD
 10
122.325
 20
-86.25
 30
0.0
 11
122.325
 21
-89.0
 31
0.0
  0
LINE
  8
0
  6
CONTINUOUS
 62
     7
  5
3DE
 10
131.525
 20
-89.0
 30
0.0
 11
131.525
 21
-86.25
 31
0.0
  0
LINE
  8
0
  6
CONTINUOUS
 62
     7
  5
3DF
 10
131.525
 20
-161.75
 30
0.0
 11
131.525
 21
-159.0
 31
0.0
  0
ARC
  8
0
  6
CONTINUOUS
 62
     7
  5
3E0
 10
120.325
 20
-86.25
 30
0.0
 40
2.0
 50
360.0
 51
90.0
210
0.0
220
0.0
230
1.0
  0
ARC
  8
0
  6
CONTINUOUS
 62
     7
  5
3E1
 10
120.325
 20
-161.75
 30
0.0
 40
2.0
 50
270.0
 51
360.0
210
0.0
220
0.0
230
1.0
  0
LINE
  8
0
  6
CONTINUOUS
 62
     7
  5
3E2
 10
120.325
 20
-163.75
 30
0.0
 11
85.525
 21
-163.75
 31
0.0
  0
LINE
  8
0
  6
CONTINUOUS
 62
     7
  5
3E3
 10
85.525
 20
-84.25
 30
0.0
 11
120.325
 21
-84.25
 31
0.0
  0
ARC
  8
0
  6
CONTINUOUS
 62
     7
  5
3E4
 10
85.525
 20
-161.75
 30
0.0
 40
2.0
 50
180.0
 51
270.0
210
0.0
220
0.0
230
1.0
  0
ARC
  8
0
  6
CONTINUOUS
 62
     7
  5
3E5
 10
85.525
 20
-86.25
 30
0.0
 40
2.0
 50
90.0
 51
180.0
210
0.0
220
0.0
230
1.0
  0
LINE
  8
0
  6
CONTINUOUS
 62
     7
  5
3E6
 10
83.525
 20
-161.75
 30
0.0
 11
83.525
 21
-159.0
 31
0.0
  0
ARC
  8
0
  6
CONTINUOUS
 62
     7
  5
3E7
 10
72.325
 20
-161.75
 30
0.0
 40
2.0
 50
270.0
 51
360.0
210
0.0
220
0.0
230
1.0
  0
ARC
  8
0
  6
CONTINUOUS
 62
     7
  5
3E8
 10
78.925
 20
-159.0
 30
0.0
 40
4.6
 50
0.0
 51
180.0
210
0.0
220
0.0
230
1.0
  0
ARC
  8
0
  6
CONTINUOUS
 62
     7
  5
3E9
 10
78.925
 20
-89.0
 30
0.0
 40
4.6
 50
180.0
 51
360.0
210
0.0
220
0.0
230
1.0
  0
LINE
  8
0
  6
CONTINUOUS
 62
     7
  5
3EA
 10
74.325
 20
-86.25
 30
0.0
 11
74.325
 21
-89.0
 31
0.0
  0
LINE
  8
0
  6
CONTINUOUS
 62
     7
  5
3EB
 10
83.525
 20
-89.0
 30
0.0
 11
83.525
 21
-86.25
 31
0.0
  0
LINE
  8
0
  6
CONTINUOUS
 62
     7
  5
3EC
 10
72.325
 20
-163.75
 30
0.0
 11
37.525
 21
-163.75
 31
0.0
  0
ARC
  8
0
  6
CONTINUOUS
 62
     7
  5
3ED
 10
72.325
 20
-86.25
 30
0.0
 40
2.0
 50
360.0
 51
90.0
210
0.0
220
0.0
230
1.0
  0
LINE
  8
0
  6
CONTINUOUS
 62
     7
  5
3EE
 10
74.325
 20
-159.0
 30
0.0
 11
74.325
 21
-161.75
 31
0.0
  0
LINE
  8
0
  6
CONTINUOUS
 62
     7
  5
3EF
 10
37.525
 20
-84.25
 30
0.0
 11
72.325
 21
-84.25
 31
0.0
  0
LINE
  8
0
  6
CONTINUOUS
 62
     7
  5
3F0
 10
35.525
 20
-89.0
 30
0.0
 11
35.525
 21
-86.25
 31
0.0
  0
ARC
  8
0
  6
CONTINUOUS
 62
     7
  5
3F1
 10
37.525
 20
-86.25
 30
0.0
 40
2.0
 50
90.0
 51
180.0
210
0.0
220
0.0
230
1.0
  0
ARC
  8
0
  6
CONTINUOUS
 62
     7
  5
3F2
 10
24.325
 20
-86.25
 30
0.0
 40
2.0
 50
360.0
 51
90.0
210
0.0
220
0.0
230
1.0
  0
LINE
  8
0
  6
CONTINUOUS
 62
     7
  5
3F3
 10
35.525
 20
-161.75
 30
0.0
 11
35.525
 21
-159.0
 31
0.0
  0
LINE
  8
0
  6
CONTINUOUS
 62
     7
  5
3F4
 10
26.325
 20
-86.25
 30
0.0
 11
26.325
 21
-89.0
 31
0.0
  0
LINE
  8
0
  6
CONTINUOUS
 62
     7
  5
3F5
 10
24.325
 20
-163.75
 30
0.0
 11
6.355391
 21
-163.75
 31
0.0
  0
LINE
  8
0
  6
CONTINUOUS
 62
     7
  5
3F6
 10
26.325
 20
-159.0
 30
0.0
 11
26.325
 21
-161.75
 31
0.0
  0
ARC
  8
0
  6
CONTINUOUS
 62
     7
  5
3F7
 10
30.925
 20
-89.0
 30
0.0
 40
4.6
 50
180.0
 51
360.0
210
0.0
220
0.0
230
1.0
  0
LINE
  8
0
  6
CONTINUOUS
 62
     7
  5
3F8
 10
11.634865
 20
-84.25
 30
0.0
 11
24.325
 21
-84.25
 31
0.0
  0
ARC
  8
0
  6
CONTINUOUS
 62
     7
  5
3F9
 10
24.325
 20
-161.75
 30
0.0
 40
2.0
 50
270.0
 51
360.0
210
0.0
220
0.0
230
1.0
  0
ARC
  8
0
  6
CONTINUOUS
 62
     7
  5
3FA
 10
30.925
 20
-159.0
 30
0.0
 40
4.6
 50
0.0
 51
180.0
210
0.0
220
0.0
230
1.0
  0
ARC
  8
0
  6
CONTINUOUS
 62
     7
  5
3FB
 10
37.525
 20
-161.75
 30
0.0
 40
2.0
 50
180.0
 51
270.0
210
0.0
220
0.0
230
1.0
  0
ARC
  8
0
  6
CONTINUOUS
 62
     7
  5
3FC
 10
11.634865
 20
-86.25
 30
0.0
 40
2.0
 50
170.345445
 51
176.0
210
0.0
220
0.0
230
1.0
  0
ARC
  8
0
  6
CONTINUOUS
 62
     7
  5
3FD
 10
11.634865
 20
-86.25
 30
0.0
 40
2.0
 50
90.0
 51
170.345445
210
0.0
220
0.0
230
1.0
  0
ARC
  8
0
  6
CONTINUOUS
 62
     7
  5
3FE
 10
6.355391
 20
-161.75
 30
0.0
 40
2.0
 50
181.654555
 51
270.0
210
0.0
220
0.0
230
1.0
  0
ARC
  8
0
  6
CONTINUOUS
 62
     7
  5
3FF
 10
6.355391
 20
-161.75
 30
0.0
 40
2.0
 50
176.0
 51
181.654555
210
0.0
220
0.0
230
1.0
  0
LINE
  8
0
  6
CONTINUOUS
 62
     7
  5
400
 10
9.639737
 20
-86.110487
 30
0.0
 11
8.738415
 21
-99.0
 31
0.0
  0
LINE
  8
0
  6
CONTINUOUS
 62
     7
  5
401
 10
7.339878
 20
-119.0
 30
0.0
 11
6.64061
 21
-129.0
 31
0.0
  0
LINE
  8
0
  6
CONTINUOUS
 62
     7
  5
402
 10
5.242074
 20
-149.0
 30
0.0
 11
4.360263
 21
-161.610487
 31
0.0
  0
ARC
  8
0
  6
CONTINUOUS
 62
     7
  5
403
 10
222.925
 20
-159.0
 30
0.0
 40
4.25
 50
320.084032
 51
346.391039
210
0.0
220
0.0
230
1.0
  0
LINE
  8
0
  6
CONTINUOUS
 62
     7
  5
404
 10
172.925
 20
-160.154701
 30
0.0
 11
172.925
 21
-158.9
 31
0.0
  0
LINE
  8
0
  6
CONTINUOUS
 62
     7
  5
405
 10
176.925
 20
-158.9
 30
0.0
 11
176.925
 21
-160.154701
 31
0.0
  0
ARC
  8
0
  6
CONTINUOUS
 62
     7
  5
406
 10
174.925
 20
-159.0
 30
0.0
 40
4.25
 50
178.65174
 51
360.0
210
0.0
220
0.0
230
1.0
  0
ARC
  8
0
  6
CONTINUOUS
 62
     7
  5
407
 10
174.925
 20
-159.0
 30
0.0
 40
4.25
 50
65.241569
 51
85.80364
210
0.0
220
0.0
230
1.0
  0
ARC
  8
0
  6
CONTINUOUS
 62
     7
  5
408
 10
174.925
 20
-159.0
 30
0.0
 40
4.25
 50
0.0
 51
1.34826
210
0.0
220
0.0
230
1.0
  0
LINE
  8
0
  6
CONTINUOUS
 62
     7
  5
409
 10
176.925
 20
-160.154701
 30
0.0
 11
174.925
 21
-161.309401
 31
0.0
  0
LINE
  8
0
  6
CONTINUOUS
 62
     7
  5
40A
 10
174.925
 20
-161.309401
 30
0.0
 11
172.925
 21
-160.154701
 31
0.0
  0
LINE
  8
0
  6
CONTINUOUS
 62
     7
  5
40B
 10
32.925
 20
-160.154701
 30
0.0
 11
30.925
 21
-161.309401
 31
0.0
  0
CIRCLE
  8
0
  6
CONTINUOUS
 62
     7
  5
40C
 10
30.925
 20
-159.0
 30
0.0
 40
4.25
210
0.0
220
0.0
230
1.0
  0
LINE
  8
0
  6
CONTINUOUS
 62
     7
  5
40D
 10
30.925
 20
-161.309401
 30
0.0
 11
28.925
 21
-160.154701
 31
0.0
  0
LINE
  8
0
  6
CONTINUOUS
 62
     7
  5
40E
 10
28.925
 20
-157.845299
 30
0.0
 11
30.925
 21
-156.690599
 31
0.0
  0
LINE
  8
0
  6
CONTINUOUS
 62
     7
  5
40F
 10
30.925
 20
-156.690599
 30
0.0
 11
32.925
 21
-157.845299
 31
0.0
  0
LINE
  8
0
  6
CONTINUOUS
 62
     7
  5
410
 10
28.925
 20
-160.154701
 30
0.0
 11
28.925
 21
-157.845299
 31
0.0
  0
LINE
  8
0
  6
CONTINUOUS
 62
     7
  5
411
 10
32.925
 20
-157.845299
 30
0.0
 11
32.925
 21
-160.154701
 31
0.0
  0
LINE
  8
0
  6
CONTINUOUS
 62
     7
  5
412
 10
80.925
 20
-157.845299
 30
0.0
 11
80.925
 21
-160.154701
 31
0.0
  0
CIRCLE
  8
0
  6
CONTINUOUS
 62
     7
  5
413
 10
78.925
 20
-159.0
 30
0.0
 40
4.25
210
0.0
220
0.0
230
1.0
  0
LINE
  8
0
  6
CONTINUOUS
 62
     7
  5
414
 10
78.925
 20
-156.690599
 30
0.0
 11
80.925
 21
-157.845299
 31
0.0
  0
LINE
  8
0
  6
CONTINUOUS
 62
     7
  5
415
 10
76.925
 20
-157.845299
 30
0.0
 11
78.925
 21
-156.690599
 31
0.0
  0
LINE
  8
0
  6
CONTINUOUS
 62
     7
  5
416
 10
76.925
 20
-160.154701
 30
0.0
 11
76.925
 21
-157.845299
 31
0.0
  0
LINE
  8
0
  6
CONTINUOUS
 62
     7
  5
417
 10
80.925
 20
-160.154701
 30
0.0
 11
78.925
 21
-161.309401
 31
0.0
  0
LINE
  8
0
  6
CONTINUOUS
 62
     7
  5
418
 10
78.925
 20
-161.309401
 30
0.0
 11
76.925
 21
-160.154701
 31
0.0
  0
LINE
  8
0
  6
CONTINUOUS
 62
     7
  5
419
 10
128.925
 20
-157.845299
 30
0.0
 11
128.925
 21
-160.154701
 31
0.0
  0
LINE
  8
0
  6
CONTINUOUS
 62
     7
  5
41A
 10
126.925
 20
-156.690599
 30
0.0
 11
128.925
 21
-157.845299
 31
0.0
  0
CIRCLE
  8
0
  6
CONTINUOUS
 62
     7
  5
41B
 10
126.925
 20
-159.0
 30
0.0
 40
4.25
210
0.0
220
0.0
230
1.0
  0
LINE
  8
0
  6
CONTINUOUS
 62
     7
  5
41C
 10
124.925
 20
-157.845299
 30
0.0
 11
126.925
 21
-156.690599
 31
0.0
  0
LINE
  8
0
  6
CONTINUOUS
 62
     7
  5
41D
 10
124.925
 20
-160.154701
 30
0.0
 11
124.925
 21
-157.845299
 31
0.0
  0
LINE
  8
0
  6
CONTINUOUS
 62
     7
  5
41E
 10
128.925
 20
-160.154701
 30
0.0
 11
126.925
 21
-161.309401
 31
0.0
  0
LINE
  8
0
  6
CONTINUOUS
 62
     7
  5
41F
 10
126.925
 20
-161.309401
 30
0.0
 11
124.925
 21
-160.154701
 31
0.0
  0
LINE
  8
0
  6
CONTINUOUS
 62
     7
  5
420
 10
128.925
 20
-87.845299
 30
0.0
 11
128.925
 21
-90.154701
 31
0.0
  0
LINE
  8
0
  6
CONTINUOUS
 62
     7
  5
421
 10
126.925
 20
-86.690599
 30
0.0
 11
128.925
 21
-87.845299
 31
0.0
  0
CIRCLE
  8
0
  6
CONTINUOUS
 62
     7
  5
422
 10
126.925
 20
-89.0
 30
0.0
 40
4.25
210
0.0
220
0.0
230
1.0
  0
LINE
  8
0
  6
CONTINUOUS
 62
     7
  5
423
 10
128.925
 20
-90.154701
 30
0.0
 11
126.925
 21
-91.309401
 31
0.0
  0
LINE
  8
0
  6
CONTINUOUS
 62
     7
  5
424
 10
124.925
 20
-87.845299
 30
0.0
 11
126.925
 21
-86.690599
 31
0.0
  0
LINE
  8
0
  6
CONTINUOUS
 62
     7
  5
425
 10
126.925
 20
-91.309401
 30
0.0
 11
124.925
 21
-90.154701
 31
0.0
  0
LINE
  8
0
  6
CONTINUOUS
 62
     7
  5
426
 10
124.925
 20
-90.154701
 30
0.0
 11
124.925
 21
-87.845299
 31
0.0
  0
LINE
  8
0
  6
CONTINUOUS
 62
     7
  5
427
 10
76.925
 20
-87.845299
 30
0.0
 11
78.925
 21
-86.690599
 31
0.0
  0
LINE
  8
0
  6
CONTINUOUS
 62
     7
  5
428
 10
80.925
 20
-87.845299
 30
0.0
 11
80.925
 21
-90.154701
 31
0.0
  0
CIRCLE
  8
0
  6
CONTINUOUS
 62
     7
  5
429
 10
78.925
 20
-89.0
 30
0.0
 40
4.25
210
0.0
220
0.0
230
1.0
  0
LINE
  8
0
  6
CONTINUOUS
 62
     7
  5
42A
 10
76.925
 20
-90.154701
 30
0.0
 11
76.925
 21
-87.845299
 31
0.0
  0
LINE
  8
0
  6
CONTINUOUS
 62
     7
  5
42B
 10
80.925
 20
-90.154701
 30
0.0
 11
78.925
 21
-91.309401
 31
0.0
  0
LINE
  8
0
  6
CONTINUOUS
 62
     7
  5
42C
 10
78.925
 20
-91.309401
 30
0.0
 11
76.925
 21
-90.154701
 31
0.0
  0
LINE
  8
0
  6
CONTINUOUS
 62
     7
  5
42D
 10
78.925
 20
-86.690599
 30
0.0
 11
80.925
 21
-87.845299
 31
0.0
  0
CIRCLE
  8
0
  6
CONTINUOUS
 62
     7
  5
42E
 10
30.925
 20
-89.0
 30
0.0
 40
4.25
210
0.0
220
0.0
230
1.0
  0
LINE
  8
0
  6
CONTINUOUS
 62
     7
  5
42F
 10
32.925
 20
-87.845299
 30
0.0
 11
32.925
 21
-90.154701
 31
0.0
  0
LINE
  8
0
  6
CONTINUOUS
 62
     7
  5
430
 10
30.925
 20
-86.690599
 30
0.0
 11
32.925
 21
-87.845299
 31
0.0
  0
LINE
  8
0
  6
CONTINUOUS
 62
     7
  5
431
 10
32.925
 20
-90.154701
 30
0.0
 11
30.925
 21
-91.309401
 31
0.0
  0
LINE
  8
0
  6
CONTINUOUS
 62
     7
  5
432
 10
28.925
 20
-87.845299
 30
0.0
 11
30.925
 21
-86.690599
 31
0.0
  0
LINE
  8
0
  6
CONTINUOUS
 62
     7
  5
433
 10
28.925
 20
-90.154701
 30
0.0
 11
28.925
 21
-87.845299
 31
0.0
  0
LINE
  8
0
  6
CONTINUOUS
 62
     7
  5
434
 10
30.925
 20
-91.309401
 30
0.0
 11
28.925
 21
-90.154701
 31
0.0
  0
LINE
  8
0
  6
CONTINUOUS
 62
     7
  5
435
 10
4.202928
 20
-164.0
 30
0.0
 11
4.356225
 21
-161.807747
 31
0.0
  0
LINE
  8
0
  6
CONTINUOUS
 62
     7
  5
436
 10
195.0
 20
-164.0
 30
0.0
 11
4.202928
 21
-164.0
 31
0.0
  0
LINE
  8
0
  6
CONTINUOUS
 62
     7
  5
437
 10
9.663192
 20
-85.914585
 30
0.0
 11
9.797072
 21
-84.0
 31
0.0
  0
LINE
  8
0
  6
CONTINUOUS
 62
     7
  5
438
 10
9.797072
 20
-84.0
 30
0.0
 11
144.54
 21
-84.0
 31
0.0
  0
ARC
  8
0
  6
CONTINUOUS
 62
     7
  5
439
 10
583.494609
 20
-86.25
 30
0.0
 40
2.0
 50
1.654555
 51
90.0
210
0.0
220
0.0
230
1.0
  0
ARC
  8
0
  6
CONTINUOUS
 62
     7
  5
43A
 10
583.494609
 20
-86.25
 30
0.0
 40
2.0
 50
356.0
 51
1.654555
210
0.0
220
0.0
230
1.0
  0
ARC
  8
0
  6
CONTINUOUS
 62
     7
  5
43B
 10
583.494609
 20
-86.25
 30
0.0
 40
1.853333
 50
356.0
 51
90.0
210
0.0
220
0.0
230
1.0
  0
ARC
  8
0
  6
CONTINUOUS
 62
     7
  5
43C
 10
558.925
 20
-159.0
 30
0.0
 40
4.746667
 50
0.0
 51
180.0
210
0.0
220
0.0
230
1.0
  0
ARC
  8
0
  6
CONTINUOUS
 62
     7
  5
43D
 10
558.925
 20
-159.0
 30
0.0
 40
4.6
 50
0.0
 51
180.0
210
0.0
220
0.0
230
1.0
  0
LINE
  8
0
  6
CONTINUOUS
 62
     7
  5
43E
 10
565.525
 20
-84.396667
 30
0.0
 11
583.494609
 21
-84.396667
 31
0.0
  0
LINE
  8
0
  6
CONTINUOUS
 62
     7
  5
43F
 10
565.525
 20
-84.25
 30
0.0
 11
583.494609
 21
-84.25
 31
0.0
  0
ARC
  8
0
  6
CONTINUOUS
 62
     7
  5
440
 10
565.525
 20
-161.75
 30
0.0
 40
1.853333
 50
180.0
 51
270.0
210
0.0
220
0.0
230
1.0
  0
ARC
  8
0
  6
CONTINUOUS
 62
     7
  5
441
 10
565.525
 20
-161.75
 30
0.0
 40
2.0
 50
180.0
 51
270.0
210
0.0
220
0.0
230
1.0
  0
LINE
  8
0
  6
CONTINUOUS
 62
     7
  5
442
 10
580.210263
 20
-161.889513
 30
0.0
 11
581.111585
 21
-149.0
 31
0.0
  0
LINE
  8
0
  6
CONTINUOUS
 62
     7
  5
443
 10
582.510122
 20
-129.0
 30
0.0
 11
583.20939
 21
-119.0
 31
0.0
  0
LINE
  8
0
  6
CONTINUOUS
 62
     7
  5
444
 10
584.607926
 20
-99.0
 30
0.0
 11
585.489737
 21
-86.389513
 31
0.0
  0
LINE
  8
0
  6
CONTINUOUS
 62
     7
  5
445
 10
585.343427
 20
-86.379282
 30
0.0
 11
584.460901
 21
-99.0
 31
0.0
  0
LINE
  8
0
  6
CONTINUOUS
 62
     7
  5
446
 10
583.062364
 20
-119.0
 30
0.0
 11
582.363096
 21
-129.0
 31
0.0
  0
LINE
  8
0
  6
CONTINUOUS
 62
     7
  5
447
 10
580.96456
 20
-149.0
 30
0.0
 11
580.063953
 21
-161.879282
 31
0.0
  0
LINE
  8
0
  6
CONTINUOUS
 62
     7
  5
448
 10
563.671667
 20
-161.75
 30
0.0
 11
563.671667
 21
-159.0
 31
0.0
  0
LINE
  8
0
  6
CONTINUOUS
 62
     7
  5
449
 10
563.525
 20
-161.75
 30
0.0
 11
563.525
 21
-159.0
 31
0.0
  0
LINE
  8
0
  6
CONTINUOUS
 62
     7
  5
44A
 10
578.215135
 20
-163.603333
 30
0.0
 11
565.525
 21
-163.603333
 31
0.0
  0
LINE
  8
0
  6
CONTINUOUS
 62
     7
  5
44B
 10
578.215135
 20
-163.75
 30
0.0
 11
565.525
 21
-163.75
 31
0.0
  0
LINE
  8
0
  6
CONTINUOUS
 62
     7
  5
44C
 10
455.925
 20
-85.5
 30
0.0
 11
445.51
 21
-85.5
 31
0.0
  0
LINE
  8
0
  6
CONTINUOUS
 62
     7
  5
44D
 10
445.51
 20
-92.5
 30
0.0
 11
455.925
 21
-92.5
 31
0.0
  0
ARC
  8
0
  6
CONTINUOUS
 62
     7
  5
44E
 10
455.925
 20
-91.5
 30
0.0
 40
1.0
 50
270.0
 51
360.0
210
0.0
220
0.0
230
1.0
  0
LINE
  8
0
  6
CONTINUOUS
 62
     7
  5
44F
 10
456.925
 20
-91.5
 30
0.0
 11
456.925
 21
-86.5
 31
0.0
  0
ARC
  8
0
  6
CONTINUOUS
 62
     7
  5
450
 10
455.925
 20
-86.5
 30
0.0
 40
1.0
 50
0.0
 51
90.0
210
0.0
220
0.0
230
1.0
  0
LINE
  8
0
  6
CONTINUOUS
 62
     7
  5
451
 10
445.5
 20
-84.396667
 30
0.0
 11
456.325
 21
-84.396667
 31
0.0
  0
ARC
  8
0
  6
CONTINUOUS
 62
     7
  5
452
 10
456.325
 20
-86.25
 30
0.0
 40
1.853333
 50
360.0
 51
90.0
210
0.0
220
0.0
230
1.0
  0
LINE
  8
0
  6
CONTINUOUS
 62
     7
  5
453
 10
458.178333
 20
-86.25
 30
0.0
 11
458.178333
 21
-89.0
 31
0.0
  0
ARC
  8
0
  6
CONTINUOUS
 62
     7
  5
454
 10
462.925
 20
-89.0
 30
0.0
 40
4.746667
 50
180.0
 51
360.0
210
0.0
220
0.0
230
1.0
  0
LINE
  8
0
  6
CONTINUOUS
 62
     7
  5
455
 10
467.671667
 20
-89.0
 30
0.0
 11
467.671667
 21
-86.25
 31
0.0
  0
ARC
  8
0
  6
CONTINUOUS
 62
     7
  5
456
 10
469.525
 20
-86.25
 30
0.0
 40
1.853333
 50
90.0
 51
180.0
210
0.0
220
0.0
230
1.0
  0
LINE
  8
0
  6
CONTINUOUS
 62
     7
  5
457
 10
469.525
 20
-84.396667
 30
0.0
 11
504.325
 21
-84.396667
 31
0.0
  0
ARC
  8
0
  6
CONTINUOUS
 62
     7
  5
458
 10
504.325
 20
-86.25
 30
0.0
 40
1.853333
 50
360.0
 51
90.0
210
0.0
220
0.0
230
1.0
  0
LINE
  8
0
  6
CONTINUOUS
 62
     7
  5
459
 10
506.178333
 20
-86.25
 30
0.0
 11
506.178333
 21
-89.0
 31
0.0
  0
ARC
  8
0
  6
CONTINUOUS
 62
     7
  5
45A
 10
510.925
 20
-89.0
 30
0.0
 40
4.746667
 50
180.0
 51
360.0
210
0.0
220
0.0
230
1.0
  0
LINE
  8
0
  6
CONTINUOUS
 62
     7
  5
45B
 10
515.671667
 20
-89.0
 30
0.0
 11
515.671667
 21
-86.25
 31
0.0
  0
ARC
  8
0
  6
CONTINUOUS
 62
     7
  5
45C
 10
517.525
 20
-86.25
 30
0.0
 40
1.853333
 50
90.0
 51
180.0
210
0.0
220
0.0
230
1.0
  0
LINE
  8
0
  6
CONTINUOUS
 62
     7
  5
45D
 10
517.525
 20
-84.396667
 30
0.0
 11
552.325
 21
-84.396667
 31
0.0
  0
ARC
  8
0
  6
CONTINUOUS
 62
     7
  5
45E
 10
552.325
 20
-86.25
 30
0.0
 40
1.853333
 50
360.0
 51
90.0
210
0.0
220
0.0
230
1.0
  0
LINE
  8
0
  6
CONTINUOUS
 62
     7
  5
45F
 10
554.178333
 20
-86.25
 30
0.0
 11
554.178333
 21
-89.0
 31
0.0
  0
ARC
  8
0
  6
CONTINUOUS
 62
     7
  5
460
 10
558.925
 20
-89.0
 30
0.0
 40
4.746667
 50
180.0
 51
360.0
210
0.0
220
0.0
230
1.0
  0
LINE
  8
0
  6
CONTINUOUS
 62
     7
  5
461
 10
563.671667
 20
-89.0
 30
0.0
 11
563.671667
 21
-86.25
 31
0.0
  0
ARC
  8
0
  6
CONTINUOUS
 62
     7
  5
462
 10
565.525
 20
-86.25
 30
0.0
 40
1.853333
 50
90.0
 51
180.0
210
0.0
220
0.0
230
1.0
  0
ARC
  8
0
  6
CONTINUOUS
 62
     7
  5
463
 10
578.215135
 20
-161.75
 30
0.0
 40
1.853333
 50
270.0
 51
356.0
210
0.0
220
0.0
230
1.0
  0
LINE
  8
0
  6
CONTINUOUS
 62
     7
  5
464
 10
554.178333
 20
-159.0
 30
0.0
 11
554.178333
 21
-161.75
 31
0.0
  0
ARC
  8
0
  6
CONTINUOUS
 62
     7
  5
465
 10
552.325
 20
-161.75
 30
0.0
 40
1.853333
 50
270.0
 51
360.0
210
0.0
220
0.0
230
1.0
  0
LINE
  8
0
  6
CONTINUOUS
 62
     7
  5
466
 10
552.325
 20
-163.603333
 30
0.0
 11
517.525
 21
-163.603333
 31
0.0
  0
ARC
  8
0
  6
CONTINUOUS
 62
     7
  5
467
 10
517.525
 20
-161.75
 30
0.0
 40
1.853333
 50
180.0
 51
270.0
210
0.0
220
0.0
230
1.0
  0
LINE
  8
0
  6
CONTINUOUS
 62
     7
  5
468
 10
515.671667
 20
-161.75
 30
0.0
 11
515.671667
 21
-159.0
 31
0.0
  0
ARC
  8
0
  6
CONTINUOUS
 62
     7
  5
469
 10
510.925
 20
-159.0
 30
0.0
 40
4.746667
 50
0.0
 51
180.0
210
0.0
220
0.0
230
1.0
  0
LINE
  8
0
  6
CONTINUOUS
 62
     7
  5
46A
 10
506.178333
 20
-159.0
 30
0.0
 11
506.178333
 21
-161.75
 31
0.0
  0
ARC
  8
0
  6
CONTINUOUS
 62
     7
  5
46B
 10
504.325
 20
-161.75
 30
0.0
 40
1.853333
 50
270.0
 51
360.0
210
0.0
220
0.0
230
1.0
  0
LINE
  8
0
  6
CONTINUOUS
 62
     7
  5
46C
 10
504.325
 20
-163.603333
 30
0.0
 11
469.525
 21
-163.603333
 31
0.0
  0
ARC
  8
0
  6
CONTINUOUS
 62
     7
  5
46D
 10
469.525
 20
-161.75
 30
0.0
 40
1.853333
 50
180.0
 51
270.0
210
0.0
220
0.0
230
1.0
  0
LINE
  8
0
  6
CONTINUOUS
 62
     7
  5
46E
 10
467.671667
 20
-161.75
 30
0.0
 11
467.671667
 21
-159.0
 31
0.0
  0
ARC
  8
0
  6
CONTINUOUS
 62
     7
  5
46F
 10
462.925
 20
-159.0
 30
0.0
 40
4.746667
 50
0.0
 51
180.0
210
0.0
220
0.0
230
1.0
  0
LINE
  8
0
  6
CONTINUOUS
 62
     7
  5
470
 10
458.178333
 20
-159.0
 30
0.0
 11
458.178333
 21
-161.75
 31
0.0
  0
ARC
  8
0
  6
CONTINUOUS
 62
     7
  5
471
 10
456.325
 20
-161.75
 30
0.0
 40
1.853333
 50
270.0
 51
360.0
210
0.0
220
0.0
230
1.0
  0
LINE
  8
0
  6
CONTINUOUS
 62
     7
  5
472
 10
456.325
 20
-163.603333
 30
0.0
 11
421.525
 21
-163.603333
 31
0.0
  0
ARC
  8
0
  6
CONTINUOUS
 62
     7
  5
473
 10
421.525
 20
-161.75
 30
0.0
 40
1.853333
 50
180.0
 51
270.0
210
0.0
220
0.0
230
1.0
  0
LINE
  8
0
  6
CONTINUOUS
 62
     7
  5
474
 10
419.671667
 20
-161.75
 30
0.0
 11
419.671667
 21
-160.0
 31
0.0
  0
LINE
  8
0
  6
CONTINUOUS
 62
     7
  5
475
 10
410.178333
 20
-160.0
 30
0.0
 11
410.178333
 21
-161.75
 31
0.0
  0
ARC
  8
0
  6
CONTINUOUS
 62
     7
  5
476
 10
408.325
 20
-161.75
 30
0.0
 40
1.853333
 50
270.0
 51
360.0
210
0.0
220
0.0
230
1.0
  0
LINE
  8
0
  6
CONTINUOUS
 62
     7
  5
477
 10
408.325
 20
-163.603333
 30
0.0
 11
395.0
 21
-163.603333
 31
0.0
  0
ARC
  8
0
  6
CONTINUOUS
 62
     7
  5
478
 10
578.215135
 20
-161.75
 30
0.0
 40
2.0
 50
350.345445
 51
356.0
210
0.0
220
0.0
230
1.0
  0
ARC
  8
0
  6
CONTINUOUS
 62
     7
  5
479
 10
578.215135
 20
-161.75
 30
0.0
 40
2.0
 50
270.0
 51
350.345445
210
0.0
220
0.0
230
1.0
  0
ARC
  8
0
  6
CONTINUOUS
 62
     7
  5
47A
 10
565.525
 20
-86.25
 30
0.0
 40
2.0
 50
90.0
 51
180.0
210
0.0
220
0.0
230
1.0
  0
LINE
  8
0
  6
CONTINUOUS
 62
     7
  5
47B
 10
552.325
 20
-163.75
 30
0.0
 11
517.525
 21
-163.75
 31
0.0
  0
ARC
  8
0
  6
CONTINUOUS
 62
     7
  5
47C
 10
552.325
 20
-86.25
 30
0.0
 40
2.0
 50
360.0
 51
90.0
210
0.0
220
0.0
230
1.0
  0
LINE
  8
0
  6
CONTINUOUS
 62
     7
  5
47D
 10
517.525
 20
-84.25
 30
0.0
 11
552.325
 21
-84.25
 31
0.0
  0
LINE
  8
0
  6
CONTINUOUS
 62
     7
  5
47E
 10
554.325
 20
-159.0
 30
0.0
 11
554.325
 21
-161.75
 31
0.0
  0
ARC
  8
0
  6
CONTINUOUS
 62
     7
  5
47F
 10
558.925
 20
-89.0
 30
0.0
 40
4.6
 50
180.0
 51
0.0
210
0.0
220
0.0
230
1.0
  0
LINE
  8
0
  6
CONTINUOUS
 62
     7
  5
480
 10
563.525
 20
-89.0
 30
0.0
 11
563.525
 21
-86.25
 31
0.0
  0
LINE
  8
0
  6
CONTINUOUS
 62
     7
  5
481
 10
554.325
 20
-86.25
 30
0.0
 11
554.325
 21
-89.0
 31
0.0
  0
ARC
  8
0
  6
CONTINUOUS
 62
     7
  5
482
 10
552.325
 20
-161.75
 30
0.0
 40
2.0
 50
270.0
 51
360.0
210
0.0
220
0.0
230
1.0
  0
ARC
  8
0
  6
CONTINUOUS
 62
     7
  5
483
 10
517.525
 20
-86.25
 30
0.0
 40
2.0
 50
90.0
 51
180.0
210
0.0
220
0.0
230
1.0
  0
LINE
  8
0
  6
CONTINUOUS
 62
     7
  5
484
 10
515.525
 20
-161.75
 30
0.0
 11
515.525
 21
-159.0
 31
0.0
  0
ARC
  8
0
  6
CONTINUOUS
 62
     7
  5
485
 10
517.525
 20
-161.75
 30
0.0
 40
2.0
 50
180.0
 51
270.0
210
0.0
220
0.0
230
1.0
  0
LINE
  8
0
  6
CONTINUOUS
 62
     7
  5
486
 10
515.525
 20
-89.0
 30
0.0
 11
515.525
 21
-86.25
 31
0.0
  0
ARC
  8
0
  6
CONTINUOUS
 62
     7
  5
487
 10
504.325
 20
-161.75
 30
0.0
 40
2.0
 50
270.0
 51
360.0
210
0.0
220
0.0
230
1.0
  0
ARC
  8
0
  6
CONTINUOUS
 62
     7
  5
488
 10
510.925
 20
-89.0
 30
0.0
 40
4.6
 50
180.0
 51
360.0
210
0.0
220
0.0
230
1.0
  0
LINE
  8
0
  6
CONTINUOUS
 62
     7
  5
489
 10
506.325
 20
-159.0
 30
0.0
 11
506.325
 21
-161.75
 31
0.0
  0
ARC
  8
0
  6
CONTINUOUS
 62
     7
  5
48A
 10
510.925
 20
-159.0
 30
0.0
 40
4.6
 50
0.0
 51
180.0
210
0.0
220
0.0
230
1.0
  0
LINE
  8
0
  6
CONTINUOUS
 62
     7
  5
48B
 10
504.325
 20
-163.75
 30
0.0
 11
469.525
 21
-163.75
 31
0.0
  0
ARC
  8
0
  6
CONTINUOUS
 62
     7
  5
48C
 10
504.325
 20
-86.25
 30
0.0
 40
2.0
 50
360.0
 51
90.0
210
0.0
220
0.0
230
1.0
  0
LINE
  8
0
  6
CONTINUOUS
 62
     7
  5
48D
 10
469.525
 20
-84.25
 30
0.0
 11
504.325
 21
-84.25
 31
0.0
  0
LINE
  8
0
  6
CONTINUOUS
 62
     7
  5
48E
 10
506.325
 20
-86.25
 30
0.0
 11
506.325
 21
-89.0
 31
0.0
  0
ARC
  8
0
  6
CONTINUOUS
 62
     7
  5
48F
 10
469.525
 20
-161.75
 30
0.0
 40
2.0
 50
180.0
 51
270.0
210
0.0
220
0.0
230
1.0
  0
LINE
  8
0
  6
CONTINUOUS
 62
     7
  5
490
 10
458.325
 20
-86.25
 30
0.0
 11
458.325
 21
-89.0
 31
0.0
  0
ARC
  8
0
  6
CONTINUOUS
 62
     7
  5
491
 10
462.925
 20
-159.0
 30
0.0
 40
4.6
 50
0.0
 51
180.0
210
0.0
220
0.0
230
1.0
  0
LINE
  8
0
  6
CONTINUOUS
 62
     7
  5
492
 10
467.525
 20
-89.0
 30
0.0
 11
467.525
 21
-86.25
 31
0.0
  0
LINE
  8
0
  6
CONTINUOUS
 62
     7
  5
493
 10
467.525
 20
-161.75
 30
0.0
 11
467.525
 21
-159.0
 31
0.0
  0
ARC
  8
0
  6
CONTINUOUS
 62
     7
  5
494
 10
462.925
 20
-89.0
 30
0.0
 40
4.6
 50
180.0
 51
360.0
210
0.0
220
0.0
230
1.0
  0
ARC
  8
0
  6
CONTINUOUS
 62
     7
  5
495
 10
469.525
 20
-86.25
 30
0.0
 40
2.0
 50
90.0
 51
180.0
210
0.0
220
0.0
230
1.0
  0
LINE
  8
0
  6
CONTINUOUS
 62
     7
  5
496
 10
458.325
 20
-159.0
 30
0.0
 11
458.325
 21
-161.75
 31
0.0
  0
LINE
  8
0
  6
CONTINUOUS
 62
     7
  5
497
 10
445.5
 20
-84.25
 30
0.0
 11
456.325
 21
-84.25
 31
0.0
  0
LINE
  8
0
  6
CONTINUOUS
 62
     7
  5
498
 10
456.325
 20
-163.75
 30
0.0
 11
421.525
 21
-163.75
 31
0.0
  0
ARC
  8
0
  6
CONTINUOUS
 62
     7
  5
499
 10
456.325
 20
-86.25
 30
0.0
 40
2.0
 50
360.0
 51
90.0
210
0.0
220
0.0
230
1.0
  0
ARC
  8
0
  6
CONTINUOUS
 62
     7
  5
49A
 10
456.325
 20
-161.75
 30
0.0
 40
2.0
 50
270.0
 51
360.0
210
0.0
220
0.0
230
1.0
  0
ARC
  8
0
  6
CONTINUOUS
 62
     7
  5
49B
 10
421.525
 20
-161.75
 30
0.0
 40
2.0
 50
180.0
 51
270.0
210
0.0
220
0.0
230
1.0
  0
LINE
  8
0
  6
CONTINUOUS
 62
     7
  5
49C
 10
419.525
 20
-161.75
 30
0.0
 11
419.525
 21
-160.0
 31
0.0
  0
LINE
  8
0
  6
CONTINUOUS
 62
     7
  5
49D
 10
410.325
 20
-160.0
 30
0.0
 11
410.325
 21
-161.75
 31
0.0
  0
LINE
  8
0
  6
CONTINUOUS
 62
     7
  5
49E
 10
408.325
 20
-163.75
 30
0.0
 11
395.0
 21
-163.75
 31
0.0
  0
ARC
  8
0
  6
CONTINUOUS
 62
     7
  5
49F
 10
408.325
 20
-161.75
 30
0.0
 40
2.0
 50
270.0
 51
360.0
210
0.0
220
0.0
230
1.0
  0
LINE
  8
0
  6
CONTINUOUS
 62
     7
  5
4A0
 10
508.925
 20
-87.845299
 30
0.0
 11
510.925
 21
-86.690599
 31
0.0
  0
LINE
  8
0
  6
CONTINUOUS
 62
     7
  5
4A1
 10
508.925
 20
-90.154701
 30
0.0
 11
508.925
 21
-87.845299
 31
0.0
  0
LINE
  8
0
  6
CONTINUOUS
 62
     7
  5
4A2
 10
510.925
 20
-91.309401
 30
0.0
 11
508.925
 21
-90.154701
 31
0.0
  0
LINE
  8
0
  6
CONTINUOUS
 62
     7
  5
4A3
 10
512.925
 20
-90.154701
 30
0.0
 11
510.925
 21
-91.309401
 31
0.0
  0
LINE
  8
0
  6
CONTINUOUS
 62
     7
  5
4A4
 10
512.925
 20
-87.845299
 30
0.0
 11
512.925
 21
-90.154701
 31
0.0
  0
LINE
  8
0
  6
CONTINUOUS
 62
     7
  5
4A5
 10
510.925
 20
-86.690599
 30
0.0
 11
512.925
 21
-87.845299
 31
0.0
  0
CIRCLE
  8
0
  6
CONTINUOUS
 62
     7
  5
4A6
 10
510.925
 20
-89.0
 30
0.0
 40
4.25
210
0.0
220
0.0
230
1.0
  0
LINE
  8
0
  6
CONTINUOUS
 62
     7
  5
4A7
 10
560.925
 20
-157.845299
 30
0.0
 11
560.925
 21
-160.154701
 31
0.0
  0
LINE
  8
0
  6
CONTINUOUS
 62
     7
  5
4A8
 10
558.925
 20
-156.690599
 30
0.0
 11
560.925
 21
-157.845299
 31
0.0
  0
CIRCLE
  8
0
  6
CONTINUOUS
 62
     7
  5
4A9
 10
558.925
 20
-159.0
 30
0.0
 40
4.25
210
0.0
220
0.0
230
1.0
  0
LINE
  8
0
  6
CONTINUOUS
 62
     7
  5
4AA
 10
560.925
 20
-160.154701
 30
0.0
 11
558.925
 21
-161.309401
 31
0.0
  0
LINE
  8
0
  6
CONTINUOUS
 62
     7
  5
4AB
 10
556.925
 20
-160.154701
 30
0.0
 11
556.925
 21
-157.845299
 31
0.0
  0
LINE
  8
0
  6
CONTINUOUS
 62
     7
  5
4AC
 10
556.925
 20
-157.845299
 30
0.0
 11
558.925
 21
-156.690599
 31
0.0
  0
LINE
  8
0
  6
CONTINUOUS
 62
     7
  5
4AD
 10
558.925
 20
-161.309401
 30
0.0
 11
556.925
 21
-160.154701
 31
0.0
  0
LINE
  8
0
  6
CONTINUOUS
 62
     7
  5
4AE
 10
508.925
 20
-160.154701
 30
0.0
 11
508.925
 21
-157.845299
 31
0.0
  0
CIRCLE
  8
0
  6
CONTINUOUS
 62
     7
  5
4AF
 10
510.925
 20
-159.0
 30
0.0
 40
4.25
210
0.0
220
0.0
230
1.0
  0
LINE
  8
0
  6
CONTINUOUS
 62
     7
  5
4B0
 10
508.925
 20
-157.845299
 30
0.0
 11
510.925
 21
-156.690599
 31
0.0
  0
LINE
  8
0
  6
CONTINUOUS
 62
     7
  5
4B1
 10
512.925
 20
-160.154701
 30
0.0
 11
510.925
 21
-161.309401
 31
0.0
  0
LINE
  8
0
  6
CONTINUOUS
 62
     7
  5
4B2
 10
510.925
 20
-156.690599
 30
0.0
 11
512.925
 21
-157.845299
 31
0.0
  0
LINE
  8
0
  6
CONTINUOUS
 62
     7
  5
4B3
 10
510.925
 20
-161.309401
 30
0.0
 11
508.925
 21
-160.154701
 31
0.0
  0
LINE
  8
0
  6
CONTINUOUS
 62
     7
  5
4B4
 10
512.925
 20
-157.845299
 30
0.0
 11
512.925
 21
-160.154701
 31
0.0
  0
LINE
  8
0
  6
CONTINUOUS
 62
     7
  5
4B5
 10
556.925
 20
-90.154701
 30
0.0
 11
556.925
 21
-87.845299
 31
0.0
  0
CIRCLE
  8
0
  6
CONTINUOUS
 62
     7
  5
4B6
 10
558.925
 20
-89.0
 30
0.0
 40
4.25
210
0.0
220
0.0
230
1.0
  0
LINE
  8
0
  6
CONTINUOUS
 62
     7
  5
4B7
 10
560.925
 20
-87.845299
 30
0.0
 11
560.925
 21
-90.154701
 31
0.0
  0
LINE
  8
0
  6
CONTINUOUS
 62
     7
  5
4B8
 10
558.925
 20
-91.309401
 30
0.0
 11
556.925
 21
-90.154701
 31
0.0
  0
LINE
  8
0
  6
CONTINUOUS
 62
     7
  5
4B9
 10
560.925
 20
-90.154701
 30
0.0
 11
558.925
 21
-91.309401
 31
0.0
  0
LINE
  8
0
  6
CONTINUOUS
 62
     7
  5
4BA
 10
558.925
 20
-86.690599
 30
0.0
 11
560.925
 21
-87.845299
 31
0.0
  0
LINE
  8
0
  6
CONTINUOUS
 62
     7
  5
4BB
 10
556.925
 20
-87.845299
 30
0.0
 11
558.925
 21
-86.690599
 31
0.0
  0
LINE
  8
0
  6
CONTINUOUS
 62
     7
  5
4BC
 10
412.925
 20
-160.154701
 30
0.0
 11
412.925
 21
-160.0
 31
0.0
  0
LINE
  8
0
  6
CONTINUOUS
 62
     7
  5
4BD
 10
414.925
 20
-161.309401
 30
0.0
 11
412.925
 21
-160.154701
 31
0.0
  0
LINE
  8
0
  6
CONTINUOUS
 62
     7
  5
4BE
 10
416.925
 20
-160.154701
 30
0.0
 11
414.925
 21
-161.309401
 31
0.0
  0
ARC
  8
0
  6
CONTINUOUS
 62
     7
  5
4BF
 10
414.925
 20
-159.0
 30
0.0
 40
4.25
 50
193.608961
 51
346.391039
210
0.0
220
0.0
230
1.0
  0
LINE
  8
0
  6
CONTINUOUS
 62
     7
  5
4C0
 10
416.925
 20
-160.0
 30
0.0
 11
416.925
 21
-160.154701
 31
0.0
  0
LINE
  8
0
  6
CONTINUOUS
 62
     7
  5
4C1
 10
460.925
 20
-157.845299
 30
0.0
 11
462.925
 21
-156.690599
 31
0.0
  0
LINE
  8
0
  6
CONTINUOUS
 62
     7
  5
4C2
 10
460.925
 20
-160.154701
 30
0.0
 11
460.925
 21
-157.845299
 31
0.0
  0
LINE
  8
0
  6
CONTINUOUS
 62
     7
  5
4C3
 10
464.925
 20
-160.154701
 30
0.0
 11
462.925
 21
-161.309401
 31
0.0
  0
LINE
  8
0
  6
CONTINUOUS
 62
     7
  5
4C4
 10
464.925
 20
-157.845299
 30
0.0
 11
464.925
 21
-160.154701
 31
0.0
  0
LINE
  8
0
  6
CONTINUOUS
 62
     7
  5
4C5
 10
462.925
 20
-156.690599
 30
0.0
 11
464.925
 21
-157.845299
 31
0.0
  0
LINE
  8
0
  6
CONTINUOUS
 62
     7
  5
4C6
 10
462.925
 20
-161.309401
 30
0.0
 11
460.925
 21
-160.154701
 31
0.0
  0
CIRCLE
  8
0
  6
CONTINUOUS
 62
     7
  5
4C7
 10
462.925
 20
-159.0
 30
0.0
 40
4.25
210
0.0
220
0.0
230
1.0
  0
LINE
  8
0
  6
CONTINUOUS
 62
     7
  5
4C8
 10
460.925
 20
-87.845299
 30
0.0
 11
462.925
 21
-86.690599
 31
0.0
  0
LINE
  8
0
  6
CONTINUOUS
 62
     7
  5
4C9
 10
464.925
 20
-90.154701
 30
0.0
 11
462.925
 21
-91.309401
 31
0.0
  0
LINE
  8
0
  6
CONTINUOUS
 62
     7
  5
4CA
 10
464.925
 20
-87.845299
 30
0.0
 11
464.925
 21
-90.154701
 31
0.0
  0
LINE
  8
0
  6
CONTINUOUS
 62
     7
  5
4CB
 10
462.925
 20
-86.690599
 30
0.0
 11
464.925
 21
-87.845299
 31
0.0
  0
LINE
  8
0
  6
CONTINUOUS
 62
     7
  5
4CC
 10
462.925
 20
-91.309401
 30
0.0
 11
460.925
 21
-90.154701
 31
0.0
  0
LINE
  8
0
  6
CONTINUOUS
 62
     7
  5
4CD
 10
460.925
 20
-90.154701
 30
0.0
 11
460.925
 21
-87.845299
 31
0.0
  0
CIRCLE
  8
0
  6
CONTINUOUS
 62
     7
  5
4CE
 10
462.925
 20
-89.0
 30
0.0
 40
4.25
210
0.0
220
0.0
230
1.0
  0
LINE
  8
0
  6
CONTINUOUS
 62
     7
  5
4CF
 10
580.186808
 20
-162.085415
 30
0.0
 11
580.052928
 21
-164.0
 31
0.0
  0
LINE
  8
0
  6
CONTINUOUS
 62
     7
  5
4D0
 10
580.052928
 20
-164.0
 30
0.0
 11
395.0
 21
-164.0
 31
0.0
  0
LINE
  8
0
  6
CONTINUOUS
 62
     7
  5
4D1
 10
445.5
 20
-84.0
 30
0.0
 11
585.647072
 21
-84.0
 31
0.0
  0
LINE
  8
0
  6
CONTINUOUS
 62
     7
  5
4D2
 10
585.647072
 20
-84.0
 30
0.0
 11
585.493775
 21
-86.192253
 31
0.0
  0
LINE
  8
0
  6
CONTINUOUS
 62
     7
  5
4D3
 10
599.0
 20
-196.5
 30
0.0
 11
629.0
 21
-196.5
 31
0.0
  0
LINE
  8
0
  6
CONTINUOUS
 62
     7
  5
4D4
 10
629.0
 20
-196.5
 30
0.0
 11
629.0
 21
-200.5
 31
0.0
  0
LINE
  8
0
  6
CONTINUOUS
 62
     7
  5
4D5
 10
629.0
 20
-200.5
 30
0.0
 11
599.0
 21
-200.5
 31
0.0
  0
LINE
  8
0
  6
CONTINUOUS
 62
     7
  5
4D6
 10
599.0
 20
-200.5
 30
0.0
 11
599.0
 21
-196.5
 31
0.0
  0
CIRCLE
  8
0
  6
CONTINUOUS
 62
     7
  5
4D7
 10
-31.5
 20
-189.0
 30
0.0
 40
7.0
210
0.0
220
0.0
230
1.0
  0
CIRCLE
  8
0
  6
CONTINUOUS
 62
     7
  5
4D8
 10
-31.5
 20
-59.0
 30
0.0
 40
7.0
210
0.0
220
0.0
230
1.0
  0
CIRCLE
  8
0
  6
CONTINUOUS
 62
     7
  5
4D9
 10
-16.5
 20
-59.0
 30
0.0
 40
7.0
210
0.0
220
0.0
230
1.0
  0
LINE
  8
0
  6
CONTINUOUS
 62
     7
  5
4DA
 10
-9.0
 20
-196.5
 30
0.0
 11
-39.0
 21
-196.5
 31
0.0
  0
LINE
  8
0
  6
CONTINUOUS
 62
     7
  5
4DB
 10
-39.0
 20
-196.5
 30
0.0
 11
-39.0
 21
-51.5
 31
0.0
  0
LINE
  8
0
  6
CONTINUOUS
 62
     7
  5
4DC
 10
-39.0
 20
-51.5
 30
0.0
 11
-9.0
 21
-51.5
 31
0.0
  0
LINE
  8
0
  6
CONTINUOUS
 62
     7
  5
4DD
 10
-9.0
 20
-196.5
 30
0.0
 11
-9.0
 21
-51.5
 31
0.0
  0
CIRCLE
  8
0
  6
CONTINUOUS
 62
     7
  5
4DE
 10
-16.5
 20
-189.0
 30
0.0
 40
7.0
210
0.0
220
0.0
230
1.0
  0
LINE
  8
0
  6
CONTINUOUS
 62
     7
  5
4DF
 10
-39.0
 20
-200.5
 30
0.0
 11
-9.0
 21
-200.5
 31
0.0
  0
LINE
  8
0
  6
CONTINUOUS
 62
     7
  5
4E0
 10
-39.0
 20
-196.5
 30
0.0
 11
-39.0
 21
-200.5
 31
0.0
  0
LINE
  8
0
  6
CONTINUOUS
 62
     7
  5
4E1
 10
-9.0
 20
-200.5
 30
0.0
 11
-9.0
 21
-196.5
 31
0.0
  0
LINE
  8
0
  6
CONTINUOUS
 62
     7
  5
4E2
 10
-39.0
 20
-47.5
 30
0.0
 11
-39.0
 21
-51.5
 31
0.0
  0
LINE
  8
0
  6
CONTINUOUS
 62
     7
  5
4E3
 10
-9.0
 20
-47.5
 30
0.0
 11
-39.0
 21
-47.5
 31
0.0
  0
LINE
  8
0
  6
CONTINUOUS
 62
     7
  5
4E4
 10
-9.0
 20
-51.5
 30
0.0
 11
-9.0
 21
-47.5
 31
0.0
  0
LINE
  8
0
  6
CONTINUOUS
 62
     7
  5
4E5
 10
599.0
 20
-47.5
 30
0.0
 11
629.0
 21
-47.5
 31
0.0
  0
LINE
  8
0
  6
CONTINUOUS
 62
     7
  5
4E6
 10
629.0
 20
-47.5
 30
0.0
 11
629.0
 21
-51.5
 31
0.0
  0
LINE
  8
0
  6
CONTINUOUS
 62
     7
  5
4E7
 10
629.0
 20
-51.5
 30
0.0
 11
599.0
 21
-51.5
 31
0.0
  0
LINE
  8
0
  6
CONTINUOUS
 62
     7
  5
4E8
 10
599.0
 20
-51.5
 30
0.0
 11
599.0
 21
-47.5
 31
0.0
  0
CIRCLE
  8
0
  6
CONTINUOUS
 62
     7
  5
4E9
 10
621.5
 20
-189.0
 30
0.0
 40
7.0
210
0.0
220
0.0
230
1.0
  0
CIRCLE
  8
0
  6
CONTINUOUS
 62
     7
  5
4EA
 10
606.5
 20
-59.0
 30
0.0
 40
7.0
210
0.0
220
0.0
230
1.0
  0
LINE
  8
0
  6
CONTINUOUS
 62
     7
  5
4EB
 10
629.0
 20
-196.5
 30
0.0
 11
629.0
 21
-51.5
 31
0.0
  0
CIRCLE
  8
0
  6
CONTINUOUS
 62
     7
  5
4EC
 10
606.5
 20
-189.0
 30
0.0
 40
7.0
210
0.0
220
0.0
230
1.0
  0
LINE
  8
0
  6
CONTINUOUS
 62
     7
  5
4ED
 10
599.0
 20
-196.5
 30
0.0
 11
599.0
 21
-51.5
 31
0.0
  0
CIRCLE
  8
0
  6
CONTINUOUS
 62
     7
  5
4EE
 10
621.5
 20
-59.0
 30
0.0
 40
7.0
210
0.0
220
0.0
230
1.0
  0
LINE
  8
0
  6
CONTINUOUS
 62
     7
  5
4EF
 10
-28.5
 20
-60.732051
 30
0.0
 11
-28.5
 21
-57.267949
 31
0.0
  0
LINE
  8
0
  6
CONTINUOUS
 62
     7
  5
4F0
 10
-28.5
 20
-57.267949
 30
0.0
 11
-31.5
 21
-55.535898
 31
0.0
  0
LINE
  8
0
  6
CONTINUOUS
 62
     7
  5
4F1
 10
-34.5
 20
-60.732051
 30
0.0
 11
-31.5
 21
-62.464102
 31
0.0
  0
LINE
  8
0
  6
CONTINUOUS
 62
     7
  5
4F2
 10
-31.5
 20
-62.464102
 30
0.0
 11
-28.5
 21
-60.732051
 31
0.0
  0
CIRCLE
  8
0
  6
CONTINUOUS
 62
     7
  5
4F3
 10
-31.5
 20
-59.0
 30
0.0
 40
6.5
210
0.0
220
0.0
230
1.0
  0
LINE
  8
0
  6
CONTINUOUS
 62
     7
  5
4F4
 10
-34.5
 20
-57.267949
 30
0.0
 11
-34.5
 21
-60.732051
 31
0.0
  0
LINE
  8
0
  6
CONTINUOUS
 62
     7
  5
4F5
 10
-31.5
 20
-55.535898
 30
0.0
 11
-34.5
 21
-57.267949
 31
0.0
  0
LINE
  8
0
  6
CONTINUOUS
 62
     7
  5
4F6
 10
-34.5
 20
-187.267949
 30
0.0
 11
-31.5
 21
-185.535898
 31
0.0
  0
LINE
  8
0
  6
CONTINUOUS
 62
     7
  5
4F7
 10
-31.5
 20
-192.464102
 30
0.0
 11
-34.5
 21
-190.732051
 31
0.0
  0
LINE
  8
0
  6
CONTINUOUS
 62
     7
  5
4F8
 10
-28.5
 20
-190.732051
 30
0.0
 11
-31.5
 21
-192.464102
 31
0.0
  0
LINE
  8
0
  6
CONTINUOUS
 62
     7
  5
4F9
 10
-28.5
 20
-187.267949
 30
0.0
 11
-28.5
 21
-190.732051
 31
0.0
  0
LINE
  8
0
  6
CONTINUOUS
 62
     7
  5
4FA
 10
-31.5
 20
-185.535898
 30
0.0
 11
-28.5
 21
-187.267949
 31
0.0
  0
LINE
  8
0
  6
CONTINUOUS
 62
     7
  5
4FB
 10
-34.5
 20
-190.732051
 30
0.0
 11
-34.5
 21
-187.267949
 31
0.0
  0
CIRCLE
  8
0
  6
CONTINUOUS
 62
     7
  5
4FC
 10
-31.5
 20
-189.0
 30
0.0
 40
6.5
210
0.0
220
0.0
230
1.0
  0
LINE
  8
0
  6
CONTINUOUS
 62
     7
  5
4FD
 10
624.5
 20
-190.732051
 30
0.0
 11
621.5
 21
-192.464102
 31
0.0
  0
CIRCLE
  8
0
  6
CONTINUOUS
 62
     7
  5
4FE
 10
621.5
 20
-189.0
 30
0.0
 40
6.5
210
0.0
220
0.0
230
1.0
  0
LINE
  8
0
  6
CONTINUOUS
 62
     7
  5
4FF
 10
621.5
 20
-192.464102
 30
0.0
 11
618.5
 21
-190.732051
 31
0.0
  0
LINE
  8
0
  6
CONTINUOUS
 62
     7
  5
500
 10
624.5
 20
-187.267949
 30
0.0
 11
624.5
 21
-190.732051
 31
0.0
  0
LINE
  8
0
  6
CONTINUOUS
 62
     7
  5
501
 10
618.5
 20
-190.732051
 30
0.0
 11
618.5
 21
-187.267949
 31
0.0
  0
LINE
  8
0
  6
CONTINUOUS
 62
     7
  5
502
 10
621.5
 20
-185.535898
 30
0.0
 11
624.5
 21
-187.267949
 31
0.0
  0
LINE
  8
0
  6
CONTINUOUS
 62
     7
  5
503
 10
618.5
 20
-187.267949
 30
0.0
 11
621.5
 21
-185.535898
 31
0.0
  0
LINE
  8
0
  6
CONTINUOUS
 62
     7
  5
504
 10
-19.5
 20
-57.267949
 30
0.0
 11
-19.5
 21
-60.732051
 31
0.0
  0
LINE
  8
0
  6
CONTINUOUS
 62
     7
  5
505
 10
-16.5
 20
-62.464102
 30
0.0
 11
-13.5
 21
-60.732051
 31
0.0
  0
LINE
  8
0
  6
CONTINUOUS
 62
     7
  5
506
 10
-13.5
 20
-57.267949
 30
0.0
 11
-16.5
 21
-55.535898
 31
0.0
  0
LINE
  8
0
  6
CONTINUOUS
 62
     7
  5
507
 10
-16.5
 20
-55.535898
 30
0.0
 11
-19.5
 21
-57.267949
 31
0.0
  0
CIRCLE
  8
0
  6
CONTINUOUS
 62
     7
  5
508
 10
-16.5
 20
-59.0
 30
0.0
 40
6.5
210
0.0
220
0.0
230
1.0
  0
LINE
  8
0
  6
CONTINUOUS
 62
     7
  5
509
 10
-13.5
 20
-60.732051
 30
0.0
 11
-13.5
 21
-57.267949
 31
0.0
  0
LINE
  8
0
  6
CONTINUOUS
 62
     7
  5
50A
 10
-19.5
 20
-60.732051
 30
0.0
 11
-16.5
 21
-62.464102
 31
0.0
  0
LINE
  8
0
  6
CONTINUOUS
 62
     7
  5
50B
 10
606.5
 20
-192.464102
 30
0.0
 11
603.5
 21
-190.732051
 31
0.0
  0
CIRCLE
  8
0
  6
CONTINUOUS
 62
     7
  5
50C
 10
606.5
 20
-189.0
 30
0.0
 40
6.5
210
0.0
220
0.0
230
1.0
  0
LINE
  8
0
  6
CONTINUOUS
 62
     7
  5
50D
 10
609.5
 20
-187.267949
 30
0.0
 11
609.5
 21
-190.732051
 31
0.0
  0
LINE
  8
0
  6
CONTINUOUS
 62
     7
  5
50E
 10
603.5
 20
-187.267949
 30
0.0
 11
606.5
 21
-185.535898
 31
0.0
  0
LINE
  8
0
  6
CONTINUOUS
 62
     7
  5
50F
 10
603.5
 20
-190.732051
 30
0.0
 11
603.5
 21
-187.267949
 31
0.0
  0
LINE
  8
0
  6
CONTINUOUS
 62
     7
  5
510
 10
609.5
 20
-190.732051
 30
0.0
 11
606.5
 21
-192.464102
 31
0.0
  0
LINE
  8
0
  6
CONTINUOUS
 62
     7
  5
511
 10
606.5
 20
-185.535898
 30
0.0
 11
609.5
 21
-187.267949
 31
0.0
  0
LINE
  8
0
  6
CONTINUOUS
 62
     7
  5
512
 10
624.5
 20
-57.267949
 30
0.0
 11
621.5
 21
-55.535898
 31
0.0
  0
LINE
  8
0
  6
CONTINUOUS
 62
     7
  5
513
 10
621.5
 20
-62.464102
 30
0.0
 11
624.5
 21
-60.732051
 31
0.0
  0
LINE
  8
0
  6
CONTINUOUS
 62
     7
  5
514
 10
618.5
 20
-57.267949
 30
0.0
 11
618.5
 21
-60.732051
 31
0.0
  0
LINE
  8
0
  6
CONTINUOUS
 62
     7
  5
515
 10
618.5
 20
-60.732051
 30
0.0
 11
621.5
 21
-62.464102
 31
0.0
  0
CIRCLE
  8
0
  6
CONTINUOUS
 62
     7
  5
516
 10
621.5
 20
-59.0
 30
0.0
 40
6.5
210
0.0
220
0.0
230
1.0
  0
LINE
  8
0
  6
CONTINUOUS
 62
     7
  5
517
 10
621.5
 20
-55.535898
 30
0.0
 11
618.5
 21
-57.267949
 31
0.0
  0
LINE
  8
0
  6
CONTINUOUS
 62
     7
  5
518
 10
624.5
 20
-60.732051
 30
0.0
 11
624.5
 21
-57.267949
 31
0.0
  0
LINE
  8
0
  6
CONTINUOUS
 62
     7
  5
519
 10
609.5
 20
-60.732051
 30
0.0
 11
609.5
 21
-57.267949
 31
0.0
  0
LINE
  8
0
  6
CONTINUOUS
 62
     7
  5
51A
 10
603.5
 20
-60.732051
 30
0.0
 11
606.5
 21
-62.464102
 31
0.0
  0
LINE
  8
0
  6
CONTINUOUS
 62
     7
  5
51B
 10
603.5
 20
-57.267949
 30
0.0
 11
603.5
 21
-60.732051
 31
0.0
  0
LINE
  8
0
  6
CONTINUOUS
 62
     7
  5
51C
 10
606.5
 20
-62.464102
 30
0.0
 11
609.5
 21
-60.732051
 31
0.0
  0
LINE
  8
0
  6
CONTINUOUS
 62
     7
  5
51D
 10
606.5
 20
-55.535898
 30
0.0
 11
603.5
 21
-57.267949
 31
0.0
  0
LINE
  8
0
  6
CONTINUOUS
 62
     7
  5
51E
 10
609.5
 20
-57.267949
 30
0.0
 11
606.5
 21
-55.535898
 31
0.0
  0
CIRCLE
  8
0
  6
CONTINUOUS
 62
     7
  5
51F
 10
606.5
 20
-59.0
 30
0.0
 40
6.5
210
0.0
220
0.0
230
1.0
  0
LINE
  8
0
  6
CONTINUOUS
 62
     7
  5
520
 10
-16.5
 20
-192.464102
 30
0.0
 11
-19.5
 21
-190.732051
 31
0.0
  0
LINE
  8
0
  6
CONTINUOUS
 62
     7
  5
521
 10
-19.5
 20
-190.732051
 30
0.0
 11
-19.5
 21
-187.267949
 31
0.0
  0
LINE
  8
0
  6
CONTINUOUS
 62
     7
  5
522
 10
-16.5
 20
-185.535898
 30
0.0
 11
-13.5
 21
-187.267949
 31
0.0
  0
LINE
  8
0
  6
CONTINUOUS
 62
     7
  5
523
 10
-19.5
 20
-187.267949
 30
0.0
 11
-16.5
 21
-185.535898
 31
0.0
  0
LINE
  8
0
  6
CONTINUOUS
 62
     7
  5
524
 10
-13.5
 20
-190.732051
 30
0.0
 11
-16.5
 21
-192.464102
 31
0.0
  0
CIRCLE
  8
0
  6
CONTINUOUS
 62
     7
  5
525
 10
-16.5
 20
-189.0
 30
0.0
 40
6.5
210
0.0
220
0.0
230
1.0
  0
LINE
  8
0
  6
CONTINUOUS
 62
     7
  5
526
 10
-13.5
 20
-187.267949
 30
0.0
 11
-13.5
 21
-190.732051
 31
0.0
  0
LINE
  8
0
  6
CONTINUOUS
 62
     7
  5
527
 10
580.0
 20
-99.0
 30
0.0
 11
580.0
 21
-119.0
 31
0.0
  0
LINE
  8
0
  6
CONTINUOUS
 62
     7
  5
528
 10
10.0
 20
-99.0
 30
0.0
 11
10.0
 21
-119.0
 31
0.0
  0
LINE
  8
0
  6
CONTINUOUS
 62
     7
  5
529
 10
580.0
 20
-149.0
 30
0.0
 11
580.0
 21
-129.0
 31
0.0
  0
LINE
  8
0
  6
CONTINUOUS
 62
     7
  5
52A
 10
10.0
 20
-149.0
 30
0.0
 11
10.0
 21
-129.0
 31
0.0
  0
LINE
  8
0
  6
CONTINUOUS
 62
     7
  5
52B
 10
-8.0
 20
-69.06625
 30
0.0
 11
195.0
 21
-69.06625
 31
0.0
  0
LINE
  8
0
  6
CONTINUOUS
 62
     7
  5
52C
 10
395.0
 20
-69.06625
 30
0.0
 11
598.0
 21
-69.06625
 31
0.0
  0
LINE
  8
0
  6
CONTINUOUS
 62
     7
  5
52D
 10
-8.0
 20
-68.725
 30
0.0
 11
-8.0
 21
-69.06625
 31
0.0
  0
LINE
  8
0
  6
CONTINUOUS
 62
     7
  5
52E
 10
-8.0
 20
-68.725
 30
0.0
 11
195.0
 21
-68.725
 31
0.0
  0
LINE
  8
0
  6
CONTINUOUS
 62
     7
  5
52F
 10
395.0
 20
-68.725
 30
0.0
 11
598.0
 21
-68.725
 31
0.0
  0
LINE
  8
0
  6
CONTINUOUS
 62
     7
  5
530
 10
598.0
 20
-68.725
 30
0.0
 11
598.0
 21
-69.06625
 31
0.0
  0
LINE
  8
0
  6
CONTINUOUS
 62
     7
  5
531
 10
-8.0
 20
-49.275
 30
0.0
 11
195.0
 21
-49.275
 31
0.0
  0
LINE
  8
0
  6
CONTINUOUS
 62
     7
  5
532
 10
395.0
 20
-49.275
 30
0.0
 11
598.0
 21
-49.275
 31
0.0
  0
LINE
  8
0
  6
CONTINUOUS
 62
     7
  5
533
 10
-8.0
 20
-48.93375
 30
0.0
 11
-8.0
 21
-49.275
 31
0.0
  0
LINE
  8
0
  6
CONTINUOUS
 62
     7
  5
534
 10
-8.0
 20
-48.93375
 30
0.0
 11
195.0
 21
-48.93375
 31
0.0
  0
LINE
  8
0
  6
CONTINUOUS
 62
     7
  5
535
 10
395.0
 20
-48.93375
 30
0.0
 11
598.0
 21
-48.93375
 31
0.0
  0
LINE
  8
0
  6
CONTINUOUS
 62
     7
  5
536
 10
598.0
 20
-48.93375
 30
0.0
 11
598.0
 21
-49.275
 31
0.0
  0
LINE
  8
0
  6
CONTINUOUS
 62
     7
  5
537
 10
-8.0
 20
-199.06625
 30
0.0
 11
195.0
 21
-199.06625
 31
0.0
  0
LINE
  8
0
  6
CONTINUOUS
 62
     7
  5
538
 10
395.0
 20
-199.06625
 30
0.0
 11
598.0
 21
-199.06625
 31
0.0
  0
LINE
  8
0
  6
CONTINUOUS
 62
     7
  5
539
 10
-8.0
 20
-199.06625
 30
0.0
 11
-8.0
 21
-198.725
 31
0.0
  0
LINE
  8
0
  6
CONTINUOUS
 62
     7
  5
53A
 10
-8.0
 20
-198.725
 30
0.0
 11
195.0
 21
-198.725
 31
0.0
  0
LINE
  8
0
  6
CONTINUOUS
 62
     7
  5
53B
 10
395.0
 20
-198.725
 30
0.0
 11
598.0
 21
-198.725
 31
0.0
  0
LINE
  8
0
  6
CONTINUOUS
 62
     7
  5
53C
 10
598.0
 20
-199.06625
 30
0.0
 11
598.0
 21
-198.725
 31
0.0
  0
LINE
  8
0
  6
CONTINUOUS
 62
     7
  5
53D
 10
-8.0
 20
-179.275
 30
0.0
 11
195.0
 21
-179.275
 31
0.0
  0
LINE
  8
0
  6
CONTINUOUS
 62
     7
  5
53E
 10
395.0
 20
-179.275
 30
0.0
 11
598.0
 21
-179.275
 31
0.0
  0
LINE
  8
0
  6
CONTINUOUS
 62
     7
  5
53F
 10
-8.0
 20
-179.275
 30
0.0
 11
-8.0
 21
-178.93375
 31
0.0
  0
LINE
  8
0
  6
CONTINUOUS
 62
     7
  5
540
 10
-8.0
 20
-178.93375
 30
0.0
 11
195.0
 21
-178.93375
 31
0.0
  0
LINE
  8
0
  6
CONTINUOUS
 62
     7
  5
541
 10
395.0
 20
-178.93375
 30
0.0
 11
598.0
 21
-178.93375
 31
0.0
  0
LINE
  8
0
  6
CONTINUOUS
 62
     7
  5
542
 10
598.0
 20
-179.275
 30
0.0
 11
598.0
 21
-178.93375
 31
0.0
  0
LINE
  8
0
  6
CONTINUOUS
 62
     7
  5
543
 10
-8.0
 20
-198.725
 30
0.0
 11
-8.0
 21
-179.275
 31
0.0
  0
LINE
  8
0
  6
CONTINUOUS
 62
     7
  5
544
 10
598.0
 20
-198.725
 30
0.0
 11
598.0
 21
-179.275
 31
0.0
  0
LINE
  8
0
  6
CONTINUOUS
 62
     7
  5
545
 10
-8.0
 20
-49.275
 30
0.0
 11
-8.0
 21
-68.725
 31
0.0
  0
LINE
  8
0
  6
CONTINUOUS
 62
     7
  5
546
 10
598.0
 20
-49.275
 30
0.0
 11
598.0
 21
-68.725
 31
0.0
  0
LINE
  8
0
  6
CONTINUOUS
 62
     7
  5
547
 10
-8.0
 20
-178.93375
 30
0.0
 11
-8.0
 21
-177.646447
 31
0.0
  0
LINE
  8
0
  6
CONTINUOUS
 62
     7
  5
548
 10
598.0
 20
-178.93375
 30
0.0
 11
598.0
 21
-177.646447
 31
0.0
  0
LINE
  8
0
  6
CONTINUOUS
 62
     7
  5
549
 10
-8.0
 20
-69.06625
 30
0.0
 11
-8.0
 21
-70.353553
 31
0.0
  0
LINE
  8
0
  6
CONTINUOUS
 62
     7
  5
54A
 10
598.0
 20
-69.06625
 30
0.0
 11
598.0
 21
-70.353553
 31
0.0
  0
LINE
  8
0
  6
CONTINUOUS
 62
     7
  5
54B
 10
-8.0
 20
-200.353553
 30
0.0
 11
-8.0
 21
-199.06625
 31
0.0
  0
LINE
  8
0
  6
CONTINUOUS
 62
     7
  5
54C
 10
598.0
 20
-200.353553
 30
0.0
 11
598.0
 21
-199.06625
 31
0.0
  0
LINE
  8
0
  6
CONTINUOUS
 62
     7
  5
54D
 10
-8.0
 20
-47.646447
 30
0.0
 11
-8.0
 21
-48.93375
 31
0.0
  0
LINE
  8
0
  6
CONTINUOUS
 62
     7
  5
54E
 10
598.0
 20
-47.646447
 30
0.0
 11
598.0
 21
-48.93375
 31
0.0
  0
LINE
  8
0
  6
CONTINUOUS
 62
     7
  5
54F
 10
-9.0
 20
-177.5
 30
0.0
 11
195.0
 21
-177.5
 31
0.0
  0
LINE
  8
0
  6
CONTINUOUS
 62
     7
  5
550
 10
395.0
 20
-177.5
 30
0.0
 11
599.0
 21
-177.5
 31
0.0
  0
LINE
  8
0
  6
CONTINUOUS
 62
     7
  5
551
 10
-9.0
 20
-173.5
 30
0.0
 11
195.0
 21
-173.5
 31
0.0
  0
LINE
  8
0
  6
CONTINUOUS
 62
     7
  5
552
 10
395.0
 20
-173.5
 30
0.0
 11
599.0
 21
-173.5
 31
0.0
  0
LINE
  8
0
  6
CONTINUOUS
 62
     7
  5
553
 10
-8.0
 20
-177.646447
 30
0.0
 11
-8.0
 21
-177.5
 31
0.0
  0
LINE
  8
0
  6
CONTINUOUS
 62
     7
  5
554
 10
598.0
 20
-177.646447
 30
0.0
 11
598.0
 21
-177.5
 31
0.0
  0
LINE
  8
0
  6
CONTINUOUS
 62
     7
  5
555
 10
-8.0
 20
-70.5
 30
0.0
 11
195.0
 21
-70.5
 31
0.0
  0
LINE
  8
0
  6
CONTINUOUS
 62
     7
  5
556
 10
395.0
 20
-70.5
 30
0.0
 11
598.0
 21
-70.5
 31
0.0
  0
LINE
  8
0
  6
CONTINUOUS
 62
     7
  5
557
 10
-8.0
 20
-70.353553
 30
0.0
 11
-8.0
 21
-70.5
 31
0.0
  0
LINE
  8
0
  6
CONTINUOUS
 62
     7
  5
558
 10
598.0
 20
-70.353553
 30
0.0
 11
598.0
 21
-70.5
 31
0.0
  0
LINE
  8
0
  6
CONTINUOUS
 62
     7
  5
559
 10
-8.0
 20
-200.5
 30
0.0
 11
195.0
 21
-200.5
 31
0.0
  0
LINE
  8
0
  6
CONTINUOUS
 62
     7
  5
55A
 10
395.0
 20
-200.5
 30
0.0
 11
598.0
 21
-200.5
 31
0.0
  0
LINE
  8
0
  6
CONTINUOUS
 62
     7
  5
55B
 10
-8.0
 20
-200.5
 30
0.0
 11
-8.0
 21
-200.353553
 31
0.0
  0
LINE
  8
0
  6
CONTINUOUS
 62
     7
  5
55C
 10
598.0
 20
-200.5
 30
0.0
 11
598.0
 21
-200.353553
 31
0.0
  0
LINE
  8
0
  6
CONTINUOUS
 62
     7
  5
55D
 10
-8.0
 20
-47.5
 30
0.0
 11
195.0
 21
-47.5
 31
0.0
  0
LINE
  8
0
  6
CONTINUOUS
 62
     7
  5
55E
 10
395.0
 20
-47.5
 30
0.0
 11
598.0
 21
-47.5
 31
0.0
  0
LINE
  8
0
  6
CONTINUOUS
 62
     7
  5
55F
 10
-8.0
 20
-47.5
 30
0.0
 11
-8.0
 21
-47.646447
 31
0.0
  0
LINE
  8
0
  6
CONTINUOUS
 62
     7
  5
560
 10
598.0
 20
-47.5
 30
0.0
 11
598.0
 21
-47.646447
 31
0.0
  0
LINE
  8
0
  6
CONTINUOUS
 62
     7
  5
561
 10
-9.0
 20
-184.9
 30
0.0
 11
-8.0
 21
-184.9
 31
0.0
  0
LINE
  8
0
  6
CONTINUOUS
 62
     7
  5
562
 10
598.0
 20
-184.9
 30
0.0
 11
599.0
 21
-184.9
 31
0.0
  0
LINE
  8
0
  6
CONTINUOUS
 62
     7
  5
563
 10
-9.0
 20
-193.1
 30
0.0
 11
-8.0
 21
-193.1
 31
0.0
  0
LINE
  8
0
  6
CONTINUOUS
 62
     7
  5
564
 10
598.0
 20
-193.1
 30
0.0
 11
599.0
 21
-193.1
 31
0.0
  0
LINE
  8
0
  6
CONTINUOUS
 62
     7
  5
565
 10
-9.0
 20
-74.5
 30
0.0
 11
195.0
 21
-74.5
 31
0.0
  0
LINE
  8
0
  6
CONTINUOUS
 62
     7
  5
566
 10
395.0
 20
-74.5
 30
0.0
 11
599.0
 21
-74.5
 31
0.0
  0
LINE
  8
0
  6
CONTINUOUS
 62
     7
  5
567
 10
-39.0
 20
-207.0
 30
0.0
 11
195.0
 21
-207.0
 31
0.0
  0
LINE
  8
0
  6
CONTINUOUS
 62
     7
  5
568
 10
395.0
 20
-207.0
 30
0.0
 11
629.0
 21
-207.0
 31
0.0
  0
LINE
  8
0
  6
CONTINUOUS
 62
     7
  5
569
 10
-39.0
 20
-200.5
 30
0.0
 11
-39.0
 21
-207.0
 31
0.0
  0
LINE
  8
0
  6
CONTINUOUS
 62
     7
  5
56A
 10
629.0
 20
-200.5
 30
0.0
 11
629.0
 21
-207.0
 31
0.0
  0
LINE
  8
0
  6
CONTINUOUS
 62
     7
  5
56B
 10
-9.0
 20
-63.1
 30
0.0
 11
-8.0
 21
-63.1
 31
0.0
  0
LINE
  8
0
  6
CONTINUOUS
 62
     7
  5
56C
 10
598.0
 20
-63.1
 30
0.0
 11
599.0
 21
-63.1
 31
0.0
  0
LINE
  8
0
  6
CONTINUOUS
 62
     7
  5
56D
 10
-9.0
 20
-54.9
 30
0.0
 11
-8.0
 21
-54.9
 31
0.0
  0
LINE
  8
0
  6
CONTINUOUS
 62
     7
  5
56E
 10
598.0
 20
-54.9
 30
0.0
 11
599.0
 21
-54.9
 31
0.0
  0
LINE
  8
0
  6
CONTINUOUS
 62
     7
  5
56F
 10
-39.0
 20
-41.0
 30
0.0
 11
195.0
 21
-41.0
 31
0.0
  0
LINE
  8
0
  6
CONTINUOUS
 62
     7
  5
570
 10
395.0
 20
-41.0
 30
0.0
 11
629.0
 21
-41.0
 31
0.0
  0
LINE
  8
0
  6
CONTINUOUS
 62
     7
  5
571
 10
-39.0
 20
-41.0
 30
0.0
 11
-39.0
 21
-47.5
 31
0.0
  0
LINE
  8
0
  6
CONTINUOUS
 62
     7
  5
572
 10
629.0
 20
-41.0
 30
0.0
 11
629.0
 21
-47.5
 31
0.0
  0
LINE
  8
0
  6
CONTINUOUS
 62
     7
  5
573
 10
632.000003
 20
-198.899993
 30
0.0
 11
632.0
 21
-49.099993
 31
0.0
  0
LINE
  8
0
  6
CONTINUOUS
 62
     7
  5
574
 10
629.0
 20
-206.899993
 30
0.0
 11
632.000003
 21
-206.899993
 31
0.0
  0
LINE
  8
0
  6
CONTINUOUS
 62
     7
  5
575
 10
632.000003
 20
-206.899993
 30
0.0
 11
632.000003
 21
-198.899993
 31
0.0
  0
LINE
  8
0
  6
CONTINUOUS
 62
     7
  5
576
 10
-39.0
 20
-206.899993
 30
0.0
 11
-42.000003
 21
-206.899993
 31
0.0
  0
LINE
  8
0
  6
CONTINUOUS
 62
     7
  5
577
 10
-42.000003
 20
-206.899993
 30
0.0
 11
-42.000003
 21
-198.899993
 31
0.0
  0
LINE
  8
0
  6
CONTINUOUS
 62
     7
  5
578
 10
-42.000003
 20
-198.899993
 30
0.0
 11
-42.0
 21
-49.099993
 31
0.0
  0
LINE
  8
0
  6
CONTINUOUS
 62
     7
  5
579
 10
629.0
 20
-41.099993
 30
0.0
 11
632.0
 21
-41.099993
 31
0.0
  0
LINE
  8
0
  6
CONTINUOUS
 62
     7
  5
57A
 10
632.0
 20
-49.099993
 30
0.0
 11
632.0
 21
-41.099993
 31
0.0
  0
LINE
  8
0
  6
CONTINUOUS
 62
     7
  5
57B
 10
-39.0
 20
-41.099993
 30
0.0
 11
-42.0
 21
-41.099993
 31
0.0
  0
LINE
  8
0
  6
CONTINUOUS
 62
     7
  5
57C
 10
-42.0
 20
-49.099993
 30
0.0
 11
-42.0
 21
-41.099993
 31
0.0
  0
LINE
  8
0
  6
CONTINUOUS
 62
     7
  5
57D
 10
-48.6
 20
-56.099993
 30
0.0
 11
-48.6
 21
-68.099993
 31
0.0
  0
LINE
  8
0
  6
CONTINUOUS
 62
     7
  5
57E
 10
638.6
 20
-56.099993
 30
0.0
 11
638.6
 21
-68.099993
 31
0.0
  0
LINE
  8
0
  6
CONTINUOUS
 62
     7
  5
57F
 10
-48.6
 20
-191.900007
 30
0.0
 11
-48.6
 21
-179.900007
 31
0.0
  0
LINE
  8
0
  6
CONTINUOUS
 62
     7
  5
580
 10
638.6
 20
-191.900007
 30
0.0
 11
638.6
 21
-179.900007
 31
0.0
  0
LINE
  8
0
  6
CONTINUOUS
 62
     7
  5
581
 10
-9.0
 20
-162.1
 30
0.0
 11
4.335788
 21
-162.1
 31
0.0
  0
LINE
  8
0
  6
CONTINUOUS
 62
     7
  5
582
 10
580.185788
 20
-162.1
 30
0.0
 11
599.0
 21
-162.1
 31
0.0
  0
LINE
  8
0
  6
CONTINUOUS
 62
     7
  5
583
 10
-9.0
 20
-155.9
 30
0.0
 11
4.759579
 21
-155.9
 31
0.0
  0
LINE
  8
0
  6
CONTINUOUS
 62
     7
  5
584
 10
580.62909
 20
-155.9
 30
0.0
 11
599.0
 21
-155.9
 31
0.0
  0
LINE
  8
0
  6
CONTINUOUS
 62
     7
  5
585
 10
-9.0
 20
-85.9
 30
0.0
 11
9.664212
 21
-85.9
 31
0.0
  0
LINE
  8
0
  6
CONTINUOUS
 62
     7
  5
586
 10
585.514212
 20
-85.9
 30
0.0
 11
599.0
 21
-85.9
 31
0.0
  0
LINE
  8
0
  6
CONTINUOUS
 62
     7
  5
587
 10
-9.0
 20
-92.1
 30
0.0
 11
9.22091
 21
-92.1
 31
0.0
  0
LINE
  8
0
  6
CONTINUOUS
 62
     7
  5
588
 10
585.090421
 20
-92.1
 30
0.0
 11
599.0
 21
-92.1
 31
0.0
  0
LINE
  8
0
  6
CONTINUOUS
 62
     7
  5
589
 10
304.749023
 20
-217.656887
 30
0.0
 11
295.578068
 21
-213.670211
 31
0.0
  0
LINE
  8
0
  6
CONTINUOUS
 62
     7
  5
58A
 10
294.421932
 20
-216.329789
 30
0.0
 11
303.592887
 21
-220.316464
 31
0.0
  0
LINE
  8
0
  6
CONTINUOUS
 62
     7
  5
58B
 10
286.5
 20
-217.2
 30
0.0
 11
286.5
 21
-218.5
 31
0.0
  0
LINE
  8
0
  6
CONTINUOUS
 62
     7
  5
58C
 10
580.0
 20
-119.0
 30
0.0
 11
599.0
 21
-119.0
 31
0.0
  0
LINE
  8
0
  6
CONTINUOUS
 62
     7
  5
58D
 10
599.0
 20
-99.0
 30
0.0
 11
580.0
 21
-99.0
 31
0.0
  0
LINE
  8
0
  6
CONTINUOUS
 62
     7
  5
58E
 10
10.0
 20
-99.0
 30
0.0
 11
-9.0
 21
-99.0
 31
0.0
  0
LINE
  8
0
  6
CONTINUOUS
 62
     7
  5
58F
 10
-9.0
 20
-119.0
 30
0.0
 11
10.0
 21
-119.0
 31
0.0
  0
LINE
  8
0
  6
CONTINUOUS
 62
     7
  5
590
 10
580.0
 20
-149.0
 30
0.0
 11
599.0
 21
-149.0
 31
0.0
  0
LINE
  8
0
  6
CONTINUOUS
 62
     7
  5
591
 10
599.0
 20
-129.0
 30
0.0
 11
580.0
 21
-129.0
 31
0.0
  0
LINE
  8
0
  6
CONTINUOUS
 62
     7
  5
592
 10
10.0
 20
-129.0
 30
0.0
 11
-9.0
 21
-129.0
 31
0.0
  0
LINE
  8
0
  6
CONTINUOUS
 62
     7
  5
593
 10
-9.0
 20
-149.0
 30
0.0
 11
10.0
 21
-149.0
 31
0.0
  0
ARC
  8
0
  6
CONTINUOUS
 62
     7
  5
594
 10
-39.675
 20
-62.099993
 30
0.0
 40
10.754331
 50
213.911714
 51
257.514531
210
0.0
220
0.0
230
1.0
  0
ARC
  8
0
  6
CONTINUOUS
 62
     7
  5
595
 10
-39.675
 20
-62.099993
 30
0.0
 40
10.754331
 50
102.485466
 51
146.088286
210
0.0
220
0.0
230
1.0
  0
ARC
  8
0
  6
CONTINUOUS
 62
     7
  5
596
 10
629.675
 20
-62.099993
 30
0.0
 40
10.754331
 50
33.911714
 51
77.514534
210
0.0
220
0.0
230
1.0
  0
ARC
  8
0
  6
CONTINUOUS
 62
     7
  5
597
 10
629.675
 20
-62.099993
 30
0.0
 40
10.754331
 50
282.485469
 51
326.088286
210
0.0
220
0.0
230
1.0
  0
ARC
  8
0
  6
CONTINUOUS
 62
     7
  5
598
 10
-39.675
 20
-185.900007
 30
0.0
 40
10.754331
 50
213.911714
 51
257.514517
210
0.0
220
0.0
230
1.0
  0
ARC
  8
0
  6
CONTINUOUS
 62
     7
  5
599
 10
-39.675
 20
-185.900007
 30
0.0
 40
10.754331
 50
102.48548
 51
146.088286
210
0.0
220
0.0
230
0.9999999999999999
  0
ARC
  8
0
  6
CONTINUOUS
 62
     7
  5
59A
 10
629.675
 20
-185.900007
 30
0.0
 40
10.754331
 50
33.911714
 51
77.51452
210
0.0
220
0.0
230
1.0
  0
ARC
  8
0
  6
CONTINUOUS
 62
     7
  5
59B
 10
629.675
 20
-185.900007
 30
0.0
 40
10.754331
 50
282.485483
 51
326.088286
210
0.0
220
0.0
230
0.9999999999999999
  0
ENDBLK
  8
0
  5
59C
  0
BLOCK
  8
0
  5
59F
  2
AID2613
 70
     0
 10
0.0
 20
0.0
 30
0.0
  3
#auxiliary draft view
  0
LINE
  8
0
  6
CONTINUOUS
 62
     7
  5
5A0
 10
195.65
 20
682.2
 30
0.0
 11
206.15
 21
682.2
 31
0.0
  0
LINE
  8
0
  6
CONTINUOUS
 62
     7
  5
5A1
 10
195.65
 20
682.2
 30
0.0
 11
195.65
 21
681.7
 31
0.0
  0
LINE
  8
0
  6
CONTINUOUS
 62
     7
  5
5A2
 10
394.35
 20
682.2
 30
0.0
 11
383.85
 21
682.2
 31
0.0
  0
LINE
  8
0
  6
CONTINUOUS
 62
     7
  5
5A3
 10
394.35
 20
682.2
 30
0.0
 11
394.35
 21
681.7
 31
0.0
  0
LINE
  8
0
  6
CONTINUOUS
 62
     7
  5
5A4
 10
277.35
 20
682.2
 30
0.0
 11
266.85
 21
682.2
 31
0.0
  0
LINE
  8
0
  6
CONTINUOUS
 62
     7
  5
5A5
 10
277.35
 20
681.7
 30
0.0
 11
277.35
 21
682.2
 31
0.0
  0
LINE
  8
0
  6
CONTINUOUS
 62
     7
  5
5A6
 10
312.65
 20
682.2
 30
0.0
 11
323.15
 21
682.2
 31
0.0
  0
LINE
  8
0
  6
CONTINUOUS
 62
     7
  5
5A7
 10
312.65
 20
681.7
 30
0.0
 11
312.65
 21
682.2
 31
0.0
  0
LINE
  8
0
  6
CONTINUOUS
 62
     7
  5
5A8
 10
266.85
 20
683.0
 30
0.0
 11
206.15
 21
683.0
 31
0.0
  0
LINE
  8
0
  6
CONTINUOUS
 62
     7
  5
5A9
 10
266.85
 20
683.0
 30
0.0
 11
266.85
 21
682.5
 31
0.0
  0
LINE
  8
0
  6
CONTINUOUS
 62
     7
  5
5AA
 10
206.15
 20
682.5
 30
0.0
 11
206.15
 21
683.0
 31
0.0
  0
LINE
  8
0
  6
CONTINUOUS
 62
     7
  5
5AB
 10
266.85
 20
681.7
 30
0.0
 11
266.85
 21
682.5
 31
0.0
  0
LINE
  8
0
  6
CONTINUOUS
 62
     7
  5
5AC
 10
206.15
 20
681.7
 30
0.0
 11
206.15
 21
682.5
 31
0.0
  0
LINE
  8
0
  6
CONTINUOUS
 62
     7
  5
5AD
 10
195.65
 20
677.0
 30
0.0
 11
195.65
 21
681.7
 31
0.0
  0
LINE
  8
0
  6
CONTINUOUS
 62
     7
  5
5AE
 10
277.35
 20
681.7
 30
0.0
 11
277.35
 21
677.0
 31
0.0
  0
LINE
  8
0
  6
CONTINUOUS
 62
     7
  5
5AF
 10
323.15
 20
683.0
 30
0.0
 11
383.85
 21
683.0
 31
0.0
  0
LINE
  8
0
  6
CONTINUOUS
 62
     7
  5
5B0
 10
383.85
 20
682.5
 30
0.0
 11
383.85
 21
683.0
 31
0.0
  0
LINE
  8
0
  6
CONTINUOUS
 62
     7
  5
5B1
 10
323.15
 20
683.0
 30
0.0
 11
323.15
 21
682.5
 31
0.0
  0
LINE
  8
0
  6
CONTINUOUS
 62
     7
  5
5B2
 10
277.35
 20
505.8
 30
0.0
 11
266.85
 21
505.8
 31
0.0
  0
LINE
  8
0
  6
CONTINUOUS
 62
     7
  5
5B3
 10
277.35
 20
506.3
 30
0.0
 11
277.35
 21
505.8
 31
0.0
  0
LINE
  8
0
  6
CONTINUOUS
 62
     7
  5
5B4
 10
195.65
 20
505.8
 30
0.0
 11
206.15
 21
505.8
 31
0.0
  0
LINE
  8
0
  6
CONTINUOUS
 62
     7
  5
5B5
 10
195.65
 20
505.8
 30
0.0
 11
195.65
 21
506.3
 31
0.0
  0
LINE
  8
0
  6
CONTINUOUS
 62
     7
  5
5B6
 10
394.35
 20
505.8
 30
0.0
 11
383.85
 21
505.8
 31
0.0
  0
LINE
  8
0
  6
CONTINUOUS
 62
     7
  5
5B7
 10
394.35
 20
505.8
 30
0.0
 11
394.35
 21
506.3
 31
0.0
  0
LINE
  8
0
  6
CONTINUOUS
 62
     7
  5
5B8
 10
383.85
 20
681.7
 30
0.0
 11
383.85
 21
682.5
 31
0.0
  0
LINE
  8
0
  6
CONTINUOUS
 62
     7
  5
5B9
 10
323.15
 20
681.7
 30
0.0
 11
323.15
 21
682.5
 31
0.0
  0
LINE
  8
0
  6
CONTINUOUS
 62
     7
  5
5BA
 10
394.35
 20
677.0
 30
0.0
 11
394.35
 21
681.7
 31
0.0
  0
LINE
  8
0
  6
CONTINUOUS
 62
     7
  5
5BB
 10
312.65
 20
681.7
 30
0.0
 11
312.65
 21
677.0
 31
0.0
  0
LINE
  8
0
  6
CONTINUOUS
 62
     7
  5
5BC
 10
312.65
 20
505.8
 30
0.0
 11
323.15
 21
505.8
 31
0.0
  0
LINE
  8
0
  6
CONTINUOUS
 62
     7
  5
5BD
 10
312.65
 20
506.3
 30
0.0
 11
312.65
 21
505.8
 31
0.0
  0
LINE
  8
0
  6
CONTINUOUS
 62
     7
  5
5BE
 10
323.15
 20
505.0
 30
0.0
 11
383.85
 21
505.0
 31
0.0
  0
LINE
  8
0
  6
CONTINUOUS
 62
     7
  5
5BF
 10
383.85
 20
505.5
 30
0.0
 11
383.85
 21
505.0
 31
0.0
  0
LINE
  8
0
  6
CONTINUOUS
 62
     7
  5
5C0
 10
323.15
 20
505.0
 30
0.0
 11
323.15
 21
505.5
 31
0.0
  0
LINE
  8
0
  6
CONTINUOUS
 62
     7
  5
5C1
 10
383.85
 20
506.3
 30
0.0
 11
383.85
 21
505.5
 31
0.0
  0
LINE
  8
0
  6
CONTINUOUS
 62
     7
  5
5C2
 10
323.15
 20
506.3
 30
0.0
 11
323.15
 21
505.5
 31
0.0
  0
LINE
  8
0
  6
CONTINUOUS
 62
     7
  5
5C3
 10
394.35
 20
511.0
 30
0.0
 11
394.35
 21
506.3
 31
0.0
  0
LINE
  8
0
  6
CONTINUOUS
 62
     7
  5
5C4
 10
312.65
 20
506.3
 30
0.0
 11
312.65
 21
511.0
 31
0.0
  0
LINE
  8
0
  6
CONTINUOUS
 62
     7
  5
5C5
 10
266.85
 20
505.0
 30
0.0
 11
206.15
 21
505.0
 31
0.0
  0
LINE
  8
0
  6
CONTINUOUS
 62
     7
  5
5C6
 10
206.15
 20
505.5
 30
0.0
 11
206.15
 21
505.0
 31
0.0
  0
LINE
  8
0
  6
CONTINUOUS
 62
     7
  5
5C7
 10
266.85
 20
505.0
 30
0.0
 11
266.85
 21
505.5
 31
0.0
  0
LINE
  8
0
  6
CONTINUOUS
 62
     7
  5
5C8
 10
206.15
 20
506.3
 30
0.0
 11
206.15
 21
505.5
 31
0.0
  0
LINE
  8
0
  6
CONTINUOUS
 62
     7
  5
5C9
 10
266.85
 20
506.3
 30
0.0
 11
266.85
 21
505.5
 31
0.0
  0
LINE
  8
0
  6
CONTINUOUS
 62
     7
  5
5CA
 10
195.65
 20
511.0
 30
0.0
 11
195.65
 21
506.3
 31
0.0
  0
LINE
  8
0
  6
CONTINUOUS
 62
     7
  5
5CB
 10
277.35
 20
506.3
 30
0.0
 11
277.35
 21
511.0
 31
0.0
  0
ARC
  8
0
  6
CONTINUOUS
 62
     7
  5
5CC
 10
295.0
 20
685.0
 30
0.0
 40
5.95
 50
141.864937
 51
143.968121
210
0.0
220
0.0
230
1.0
  0
ARC
  8
0
  6
CONTINUOUS
 62
     7
  5
5CD
 10
295.0
 20
685.0
 30
0.0
 40
5.95
 50
36.031879
 51
38.135063
210
0.0
220
0.0
230
1.0
  0
LINE
  8
0
  6
CONTINUOUS
 62
     7
  5
5CE
 10
289.161904
 20
688.499842
 30
0.0
 11
290.688899
 21
689.381453
 31
0.0
  0
LINE
  8
0
  6
CONTINUOUS
 62
     7
  5
5CF
 10
299.311086
 20
689.381461
 30
0.0
 11
300.838105
 21
688.499836
 31
0.0
  0
LINE
  8
0
  6
CONTINUOUS
 62
     7
  5
5D0
 10
295.0
 20
691.870468
 30
0.0
 11
296.074638
 21
691.250025
 31
0.0
  0
LINE
  8
0
  6
CONTINUOUS
 62
     7
  5
5D1
 10
293.925429
 20
691.250064
 30
0.0
 11
295.0
 21
691.870468
 31
0.0
  0
LINE
  8
0
  6
CONTINUOUS
 62
     7
  5
5D2
 10
286.0
 20
677.0
 30
0.0
 11
286.0
 21
686.7
 31
0.0
  0
LINE
  8
0
  6
CONTINUOUS
 62
     7
  5
5D3
 10
291.0
 20
691.7
 30
0.0
 11
287.8
 21
688.5
 31
0.0
  0
LINE
  8
0
  6
CONTINUOUS
 62
     7
  5
5D4
 10
286.5
 20
687.2
 30
0.0
 11
286.0
 21
686.7
 31
0.0
  0
LINE
  8
0
  6
CONTINUOUS
 62
     7
  5
5D5
 10
304.0
 20
686.7
 30
0.0
 11
303.5
 21
687.2
 31
0.0
  0
LINE
  8
0
  6
CONTINUOUS
 62
     7
  5
5D6
 10
302.2
 20
688.5
 30
0.0
 11
299.0
 21
691.7
 31
0.0
  0
LINE
  8
0
  6
CONTINUOUS
 62
     7
  5
5D7
 10
304.0
 20
686.7
 30
0.0
 11
304.0
 21
677.0
 31
0.0
  0
LINE
  8
0
  6
CONTINUOUS
 62
     7
  5
5D8
 10
299.0
 20
691.7
 30
0.0
 11
295.29526
 21
691.7
 31
0.0
  0
LINE
  8
0
  6
CONTINUOUS
 62
     7
  5
5D9
 10
294.70474
 20
691.7
 30
0.0
 11
291.0
 21
691.7
 31
0.0
  0
POLYLINE
  8
0
  6
CONTINUOUS
 62
     7
  5
5DA
 66
     1
 10
0.0
 20
0.0
 30
0.0
 40
0.5
 41
0.5
  0
VERTEX
  8
0
 62
     7
  5
5DB
 10
304.749023
 20
687.656887
 30
0.0
  0
VERTEX
  8
0
 62
     7
  5
5DC
 10
304.76085
 20
687.666902
 30
0.0
  0
VERTEX
  8
0
 62
     7
  5
5DD
 10
304.76904
 20
687.685054
 30
0.0
  0
VERTEX
  8
0
 62
     7
  5
5DE
 10
304.773542
 20
687.711231
 30
0.0
  0
VERTEX
  8
0
 62
     7
  5
5DF
 10
304.77433
 20
687.745271
 30
0.0
  0
VERTEX
  8
0
 62
     7
  5
5E0
 10
304.771397
 20
687.786965
 30
0.0
  0
VERTEX
  8
0
 62
     7
  5
5E1
 10
304.764763
 20
687.836056
 30
0.0
  0
VERTEX
  8
0
 62
     7
  5
5E2
 10
304.754467
 20
687.892241
 30
0.0
  0
VERTEX
  8
0
 62
     7
  5
5E3
 10
304.740574
 20
687.955173
 30
0.0
  0
VERTEX
  8
0
 62
     7
  5
5E4
 10
304.723169
 20
688.024465
 30
0.0
  0
VERTEX
  8
0
 62
     7
  5
5E5
 10
304.702359
 20
688.099689
 30
0.0
  0
VERTEX
  8
0
 62
     7
  5
5E6
 10
304.678273
 20
688.180381
 30
0.0
  0
VERTEX
  8
0
 62
     7
  5
5E7
 10
304.65106
 20
688.266045
 30
0.0
  0
VERTEX
  8
0
 62
     7
  5
5E8
 10
304.620886
 20
688.356152
 30
0.0
  0
VERTEX
  8
0
 62
     7
  5
5E9
 10
304.587938
 20
688.450146
 30
0.0
  0
VERTEX
  8
0
 62
     7
  5
5EA
 10
304.55242
 20
688.547448
 30
0.0
  0
VERTEX
  8
0
 62
     7
  5
5EB
 10
304.514549
 20
688.647458
 30
0.0
  0
VERTEX
  8
0
 62
     7
  5
5EC
 10
304.474561
 20
688.749559
 30
0.0
  0
VERTEX
  8
0
 62
     7
  5
5ED
 10
304.4327
 20
688.853122
 30
0.0
  0
VERTEX
  8
0
 62
     7
  5
5EE
 10
304.389226
 20
688.957509
 30
0.0
  0
VERTEX
  8
0
 62
     7
  5
5EF
 10
304.344406
 20
689.062075
 30
0.0
  0
VERTEX
  8
0
 62
     7
  5
5F0
 10
304.298517
 20
689.166177
 30
0.0
  0
VERTEX
  8
0
 62
     7
  5
5F1
 10
304.251841
 20
689.269172
 30
0.0
  0
VERTEX
  8
0
 62
     7
  5
5F2
 10
304.204666
 20
689.370425
 30
0.0
  0
VERTEX
  8
0
 62
     7
  5
5F3
 10
304.157284
 20
689.469312
 30
0.0
  0
VERTEX
  8
0
 62
     7
  5
5F4
 10
304.109986
 20
689.565224
 30
0.0
  0
VERTEX
  8
0
 62
     7
  5
5F5
 10
304.063064
 20
689.657569
 30
0.0
  0
VERTEX
  8
0
 62
     7
  5
5F6
 10
304.016807
 20
689.745777
 30
0.0
  0
VERTEX
  8
0
 62
     7
  5
5F7
 10
303.9715
 20
689.829305
 30
0.0
  0
VERTEX
  8
0
 62
     7
  5
5F8
 10
303.927423
 20
689.907638
 30
0.0
  0
VERTEX
  8
0
 62
     7
  5
5F9
 10
303.884848
 20
689.980294
 30
0.0
  0
VERTEX
  8
0
 62
     7
  5
5FA
 10
303.844036
 20
690.046823
 30
0.0
  0
VERTEX
  8
0
 62
     7
  5
5FB
 10
303.80524
 20
690.106816
 30
0.0
  0
VERTEX
  8
0
 62
     7
  5
5FC
 10
303.768699
 20
690.159903
 30
0.0
  0
VERTEX
  8
0
 62
     7
  5
5FD
 10
303.734638
 20
690.205756
 30
0.0
  0
VERTEX
  8
0
 62
     7
  5
5FE
 10
303.703267
 20
690.244094
 30
0.0
  0
VERTEX
  8
0
 62
     7
  5
5FF
 10
303.674779
 20
690.274679
 30
0.0
  0
VERTEX
  8
0
 62
     7
  5
600
 10
303.649351
 20
690.297323
 30
0.0
  0
VERTEX
  8
0
 62
     7
  5
601
 10
303.627138
 20
690.311887
 30
0.0
  0
VERTEX
  8
0
 62
     7
  5
602
 10
303.608278
 20
690.31828
 30
0.0
  0
VERTEX
  8
0
 62
     7
  5
603
 10
303.592887
 20
690.316464
 30
0.0
  0
SEQEND
  8
0
  5
604
  0
LINE
  8
0
  6
CONTINUOUS
 62
     7
  5
605
 10
312.65
 20
505.8
 30
0.0
 11
316.75
 21
505.8
 31
0.0
  0
LINE
  8
0
  6
CONTINUOUS
 62
     7
  5
606
 10
277.35
 20
682.2
 30
0.0
 11
273.25
 21
682.2
 31
0.0
  0
LINE
  8
0
  6
CONTINUOUS
 62
     7
  5
607
 10
390.25
 20
505.8
 30
0.0
 11
394.35
 21
505.8
 31
0.0
  0
LINE
  8
0
  6
CONTINUOUS
 62
     7
  5
608
 10
277.35
 20
505.8
 30
0.0
 11
273.25
 21
505.8
 31
0.0
  0
LINE
  8
0
  6
CONTINUOUS
 62
     7
  5
609
 10
199.75
 20
682.2
 30
0.0
 11
195.65
 21
682.2
 31
0.0
  0
LINE
  8
0
  6
CONTINUOUS
 62
     7
  5
60A
 10
390.25
 20
682.2
 30
0.0
 11
394.35
 21
682.2
 31
0.0
  0
LINE
  8
0
  6
CONTINUOUS
 62
     7
  5
60B
 10
199.75
 20
505.8
 30
0.0
 11
195.65
 21
505.8
 31
0.0
  0
LINE
  8
0
  6
CONTINUOUS
 62
     7
  5
60C
 10
312.65
 20
682.2
 30
0.0
 11
316.75
 21
682.2
 31
0.0
  0
LINE
  8
0
  6
CONTINUOUS
 62
     7
  5
60D
 10
395.0
 20
683.0
 30
0.0
 11
383.85
 21
683.0
 31
0.0
  0
LINE
  8
0
  6
CONTINUOUS
 62
     7
  5
60E
 10
323.15
 20
683.0
 30
0.0
 11
304.0
 21
683.0
 31
0.0
  0
LINE
  8
0
  6
CONTINUOUS
 62
     7
  5
60F
 10
286.0
 20
683.0
 30
0.0
 11
266.85
 21
683.0
 31
0.0
  0
LINE
  8
0
  6
CONTINUOUS
 62
     7
  5
610
 10
206.15
 20
683.0
 30
0.0
 11
195.0
 21
683.0
 31
0.0
  0
LINE
  8
0
  6
CONTINUOUS
 62
     7
  5
611
 10
195.0
 20
683.0
 30
0.0
 11
195.0
 21
677.0
 31
0.0
  0
LINE
  8
0
  6
CONTINUOUS
 62
     7
  5
612
 10
395.0
 20
677.0
 30
0.0
 11
395.0
 21
683.0
 31
0.0
  0
LINE
  8
0
  6
CONTINUOUS
 62
     7
  5
613
 10
195.0
 20
505.0
 30
0.0
 11
206.15
 21
505.0
 31
0.0
  0
LINE
  8
0
  6
CONTINUOUS
 62
     7
  5
614
 10
266.85
 20
505.0
 30
0.0
 11
323.15
 21
505.0
 31
0.0
  0
LINE
  8
0
  6
CONTINUOUS
 62
     7
  5
615
 10
383.85
 20
505.0
 30
0.0
 11
395.0
 21
505.0
 31
0.0
  0
LINE
  8
0
  6
CONTINUOUS
 62
     7
  5
616
 10
195.0
 20
511.0
 30
0.0
 11
195.0
 21
505.0
 31
0.0
  0
LINE
  8
0
  6
CONTINUOUS
 62
     7
  5
617
 10
395.0
 20
505.0
 30
0.0
 11
395.0
 21
511.0
 31
0.0
  0
LINE
  8
0
  6
CONTINUOUS
 62
     7
  5
618
 10
286.5
 20
688.5
 30
0.0
 11
303.5
 21
688.5
 31
0.0
  0
LINE
  8
0
  6
CONTINUOUS
 62
     7
  5
619
 10
292.75
 20
691.25
 30
0.0
 11
297.25
 21
691.25
 31
0.0
  0
CIRCLE
  8
0
  6
CONTINUOUS
 62
     7
  5
61A
 10
533.75
 20
687.0
 30
0.0
 40
3.375
210
0.0
220
0.0
230
1.0
  0
CIRCLE
  8
0
  6
CONTINUOUS
 62
     7
  5
61B
 10
533.75
 20
687.0
 30
0.0
 40
4.0
210
0.0
220
0.0
230
1.0
  0
LINE
  8
0
  6
CONTINUOUS
 62
     7
  5
61C
 10
514.75
 20
693.5
 30
0.0
 11
552.75
 21
693.5
 31
0.0
  0
LINE
  8
0
  6
CONTINUOUS
 62
     7
  5
61D
 10
552.75
 20
697.5
 30
0.0
 11
552.75
 21
693.5
 31
0.0
  0
LINE
  8
0
  6
CONTINUOUS
 62
     7
  5
61E
 10
514.75
 20
697.5
 30
0.0
 11
552.75
 21
697.5
 31
0.0
  0
LINE
  8
0
  6
CONTINUOUS
 62
     7
  5
61F
 10
514.75
 20
697.5
 30
0.0
 11
514.75
 21
693.5
 31
0.0
  0
CIRCLE
  8
0
  6
CONTINUOUS
 62
     7
  5
620
 10
533.75
 20
687.0
 30
0.0
 40
4.5
210
0.0
220
0.0
230
1.0
  0
LINE
  8
0
  6
CONTINUOUS
 62
     7
  5
621
 10
514.75
 20
677.0
 30
0.0
 11
552.75
 21
677.0
 31
0.0
  0
LINE
  8
0
  6
CONTINUOUS
 62
     7
  5
622
 10
552.75
 20
693.5
 30
0.0
 11
552.75
 21
677.0
 31
0.0
  0
LINE
  8
0
  6
CONTINUOUS
 62
     7
  5
623
 10
514.75
 20
693.5
 30
0.0
 11
514.75
 21
677.0
 31
0.0
  0
CIRCLE
  8
0
  6
CONTINUOUS
 62
     7
  5
624
 10
533.75
 20
687.0
 30
0.0
 40
4.125
210
0.0
220
0.0
230
1.0
  0
CIRCLE
  8
0
  6
CONTINUOUS
 62
     7
  5
625
 10
493.75
 20
687.0
 30
0.0
 40
3.375
210
0.0
220
0.0
230
1.0
  0
CIRCLE
  8
0
  6
CONTINUOUS
 62
     7
  5
626
 10
493.75
 20
687.0
 30
0.0
 40
4.0
210
0.0
220
0.0
230
1.0
  0
LINE
  8
0
  6
CONTINUOUS
 62
     7
  5
627
 10
474.75
 20
693.5
 30
0.0
 11
512.75
 21
693.5
 31
0.0
  0
LINE
  8
0
  6
CONTINUOUS
 62
     7
  5
628
 10
474.75
 20
697.5
 30
0.0
 11
474.75
 21
693.5
 31
0.0
  0
LINE
  8
0
  6
CONTINUOUS
 62
     7
  5
629
 10
512.75
 20
697.5
 30
0.0
 11
512.75
 21
693.5
 31
0.0
  0
LINE
  8
0
  6
CONTINUOUS
 62
     7
  5
62A
 10
474.75
 20
697.5
 30
0.0
 11
512.75
 21
697.5
 31
0.0
  0
CIRCLE
  8
0
  6
CONTINUOUS
 62
     7
  5
62B
 10
493.75
 20
687.0
 30
0.0
 40
4.5
210
0.0
220
0.0
230
1.0
  0
LINE
  8
0
  6
CONTINUOUS
 62
     7
  5
62C
 10
474.75
 20
677.0
 30
0.0
 11
512.75
 21
677.0
 31
0.0
  0
LINE
  8
0
  6
CONTINUOUS
 62
     7
  5
62D
 10
512.75
 20
693.5
 30
0.0
 11
512.75
 21
677.0
 31
0.0
  0
LINE
  8
0
  6
CONTINUOUS
 62
     7
  5
62E
 10
474.75
 20
693.5
 30
0.0
 11
474.75
 21
677.0
 31
0.0
  0
CIRCLE
  8
0
  6
CONTINUOUS
 62
     7
  5
62F
 10
493.75
 20
687.0
 30
0.0
 40
4.125
210
0.0
220
0.0
230
1.0
  0
CIRCLE
  8
0
  6
CONTINUOUS
 62
     7
  5
630
 10
96.25
 20
687.0
 30
0.0
 40
3.375
210
0.0
220
0.0
230
1.0
  0
CIRCLE
  8
0
  6
CONTINUOUS
 62
     7
  5
631
 10
96.25
 20
687.0
 30
0.0
 40
4.0
210
0.0
220
0.0
230
1.0
  0
LINE
  8
0
  6
CONTINUOUS
 62
     7
  5
632
 10
115.25
 20
693.5
 30
0.0
 11
77.25
 21
693.5
 31
0.0
  0
LINE
  8
0
  6
CONTINUOUS
 62
     7
  5
633
 10
77.25
 20
697.5
 30
0.0
 11
77.25
 21
693.5
 31
0.0
  0
LINE
  8
0
  6
CONTINUOUS
 62
     7
  5
634
 10
115.25
 20
697.5
 30
0.0
 11
115.25
 21
693.5
 31
0.0
  0
LINE
  8
0
  6
CONTINUOUS
 62
     7
  5
635
 10
115.25
 20
697.5
 30
0.0
 11
77.25
 21
697.5
 31
0.0
  0
CIRCLE
  8
0
  6
CONTINUOUS
 62
     7
  5
636
 10
96.25
 20
687.0
 30
0.0
 40
4.5
210
0.0
220
0.0
230
1.0
  0
LINE
  8
0
  6
CONTINUOUS
 62
     7
  5
637
 10
115.25
 20
677.0
 30
0.0
 11
77.25
 21
677.0
 31
0.0
  0
LINE
  8
0
  6
CONTINUOUS
 62
     7
  5
638
 10
77.25
 20
693.5
 30
0.0
 11
77.25
 21
677.0
 31
0.0
  0
LINE
  8
0
  6
CONTINUOUS
 62
     7
  5
639
 10
115.25
 20
693.5
 30
0.0
 11
115.25
 21
677.0
 31
0.0
  0
CIRCLE
  8
0
  6
CONTINUOUS
 62
     7
  5
63A
 10
96.25
 20
687.0
 30
0.0
 40
4.125
210
0.0
220
0.0
230
1.0
  0
CIRCLE
  8
0
  6
CONTINUOUS
 62
     7
  5
63B
 10
56.25
 20
687.0
 30
0.0
 40
3.375
210
0.0
220
0.0
230
1.0
  0
CIRCLE
  8
0
  6
CONTINUOUS
 62
     7
  5
63C
 10
56.25
 20
687.0
 30
0.0
 40
4.0
210
0.0
220
0.0
230
1.0
  0
LINE
  8
0
  6
CONTINUOUS
 62
     7
  5
63D
 10
75.25
 20
693.5
 30
0.0
 11
37.25
 21
693.5
 31
0.0
  0
LINE
  8
0
  6
CONTINUOUS
 62
     7
  5
63E
 10
37.25
 20
697.5
 30
0.0
 11
37.25
 21
693.5
 31
0.0
  0
LINE
  8
0
  6
CONTINUOUS
 62
     7
  5
63F
 10
75.25
 20
697.5
 30
0.0
 11
37.25
 21
697.5
 31
0.0
  0
LINE
  8
0
  6
CONTINUOUS
 62
     7
  5
640
 10
75.25
 20
697.5
 30
0.0
 11
75.25
 21
693.5
 31
0.0
  0
CIRCLE
  8
0
  6
CONTINUOUS
 62
     7
  5
641
 10
56.25
 20
687.0
 30
0.0
 40
4.5
210
0.0
220
0.0
230
1.0
  0
LINE
  8
0
  6
CONTINUOUS
 62
     7
  5
642
 10
75.25
 20
677.0
 30
0.0
 11
37.25
 21
677.0
 31
0.0
  0
LINE
  8
0
  6
CONTINUOUS
 62
     7
  5
643
 10
37.25
 20
693.5
 30
0.0
 11
37.25
 21
677.0
 31
0.0
  0
LINE
  8
0
  6
CONTINUOUS
 62
     7
  5
644
 10
75.25
 20
693.5
 30
0.0
 11
75.25
 21
677.0
 31
0.0
  0
CIRCLE
  8
0
  6
CONTINUOUS
 62
     7
  5
645
 10
56.25
 20
687.0
 30
0.0
 40
4.125
210
0.0
220
0.0
230
1.0
  0
CIRCLE
  8
0
  6
CONTINUOUS
 62
     7
  5
646
 10
96.25
 20
501.0
 30
0.0
 40
3.375
210
0.0
220
0.0
230
1.0
  0
CIRCLE
  8
0
  6
CONTINUOUS
 62
     7
  5
647
 10
96.25
 20
501.0
 30
0.0
 40
4.0
210
0.0
220
0.0
230
1.0
  0
LINE
  8
0
  6
CONTINUOUS
 62
     7
  5
648
 10
115.25
 20
494.5
 30
0.0
 11
77.25
 21
494.5
 31
0.0
  0
LINE
  8
0
  6
CONTINUOUS
 62
     7
  5
649
 10
115.25
 20
490.5
 30
0.0
 11
77.25
 21
490.5
 31
0.0
  0
LINE
  8
0
  6
CONTINUOUS
 62
     7
  5
64A
 10
77.25
 20
490.5
 30
0.0
 11
77.25
 21
494.5
 31
0.0
  0
LINE
  8
0
  6
CONTINUOUS
 62
     7
  5
64B
 10
115.25
 20
490.5
 30
0.0
 11
115.25
 21
494.5
 31
0.0
  0
CIRCLE
  8
0
  6
CONTINUOUS
 62
     7
  5
64C
 10
96.25
 20
501.0
 30
0.0
 40
4.5
210
0.0
220
0.0
230
1.0
  0
LINE
  8
0
  6
CONTINUOUS
 62
     7
  5
64D
 10
115.25
 20
511.0
 30
0.0
 11
77.25
 21
511.0
 31
0.0
  0
LINE
  8
0
  6
CONTINUOUS
 62
     7
  5
64E
 10
77.25
 20
494.5
 30
0.0
 11
77.25
 21
511.0
 31
0.0
  0
LINE
  8
0
  6
CONTINUOUS
 62
     7
  5
64F
 10
115.25
 20
494.5
 30
0.0
 11
115.25
 21
511.0
 31
0.0
  0
CIRCLE
  8
0
  6
CONTINUOUS
 62
     7
  5
650
 10
96.25
 20
501.0
 30
0.0
 40
4.125
210
0.0
220
0.0
230
1.0
  0
CIRCLE
  8
0
  6
CONTINUOUS
 62
     7
  5
651
 10
56.25
 20
501.0
 30
0.0
 40
3.375
210
0.0
220
0.0
230
1.0
  0
CIRCLE
  8
0
  6
CONTINUOUS
 62
     7
  5
652
 10
56.25
 20
501.0
 30
0.0
 40
4.0
210
0.0
220
0.0
230
1.0
  0
LINE
  8
0
  6
CONTINUOUS
 62
     7
  5
653
 10
75.25
 20
494.5
 30
0.0
 11
37.25
 21
494.5
 31
0.0
  0
LINE
  8
0
  6
CONTINUOUS
 62
     7
  5
654
 10
75.25
 20
490.5
 30
0.0
 11
37.25
 21
490.5
 31
0.0
  0
LINE
  8
0
  6
CONTINUOUS
 62
     7
  5
655
 10
37.25
 20
490.5
 30
0.0
 11
37.25
 21
494.5
 31
0.0
  0
LINE
  8
0
  6
CONTINUOUS
 62
     7
  5
656
 10
75.25
 20
490.5
 30
0.0
 11
75.25
 21
494.5
 31
0.0
  0
CIRCLE
  8
0
  6
CONTINUOUS
 62
     7
  5
657
 10
56.25
 20
501.0
 30
0.0
 40
4.5
210
0.0
220
0.0
230
1.0
  0
LINE
  8
0
  6
CONTINUOUS
 62
     7
  5
658
 10
75.25
 20
511.0
 30
0.0
 11
37.25
 21
511.0
 31
0.0
  0
LINE
  8
0
  6
CONTINUOUS
 62
     7
  5
659
 10
37.25
 20
494.5
 30
0.0
 11
37.25
 21
511.0
 31
0.0
  0
LINE
  8
0
  6
CONTINUOUS
 62
     7
  5
65A
 10
75.25
 20
494.5
 30
0.0
 11
75.25
 21
511.0
 31
0.0
  0
CIRCLE
  8
0
  6
CONTINUOUS
 62
     7
  5
65B
 10
56.25
 20
501.0
 30
0.0
 40
4.125
210
0.0
220
0.0
230
1.0
  0
CIRCLE
  8
0
  6
CONTINUOUS
 62
     7
  5
65C
 10
493.75
 20
501.0
 30
0.0
 40
3.375
210
0.0
220
0.0
230
1.0
  0
CIRCLE
  8
0
  6
CONTINUOUS
 62
     7
  5
65D
 10
493.75
 20
501.0
 30
0.0
 40
4.0
210
0.0
220
0.0
230
1.0
  0
LINE
  8
0
  6
CONTINUOUS
 62
     7
  5
65E
 10
474.75
 20
490.5
 30
0.0
 11
512.75
 21
490.5
 31
0.0
  0
LINE
  8
0
  6
CONTINUOUS
 62
     7
  5
65F
 10
474.75
 20
494.5
 30
0.0
 11
512.75
 21
494.5
 31
0.0
  0
LINE
  8
0
  6
CONTINUOUS
 62
     7
  5
660
 10
512.75
 20
490.5
 30
0.0
 11
512.75
 21
494.5
 31
0.0
  0
LINE
  8
0
  6
CONTINUOUS
 62
     7
  5
661
 10
474.75
 20
490.5
 30
0.0
 11
474.75
 21
494.5
 31
0.0
  0
CIRCLE
  8
0
  6
CONTINUOUS
 62
     7
  5
662
 10
493.75
 20
501.0
 30
0.0
 40
4.5
210
0.0
220
0.0
230
1.0
  0
LINE
  8
0
  6
CONTINUOUS
 62
     7
  5
663
 10
474.75
 20
511.0
 30
0.0
 11
512.75
 21
511.0
 31
0.0
  0
LINE
  8
0
  6
CONTINUOUS
 62
     7
  5
664
 10
512.75
 20
494.5
 30
0.0
 11
512.75
 21
511.0
 31
0.0
  0
LINE
  8
0
  6
CONTINUOUS
 62
     7
  5
665
 10
474.75
 20
494.5
 30
0.0
 11
474.75
 21
511.0
 31
0.0
  0
CIRCLE
  8
0
  6
CONTINUOUS
 62
     7
  5
666
 10
493.75
 20
501.0
 30
0.0
 40
4.125
210
0.0
220
0.0
230
1.0
  0
CIRCLE
  8
0
  6
CONTINUOUS
 62
     7
  5
667
 10
533.75
 20
501.0
 30
0.0
 40
3.375
210
0.0
220
0.0
230
1.0
  0
CIRCLE
  8
0
  6
CONTINUOUS
 62
     7
  5
668
 10
533.75
 20
501.0
 30
0.0
 40
4.0
210
0.0
220
0.0
230
1.0
  0
LINE
  8
0
  6
CONTINUOUS
 62
     7
  5
669
 10
514.75
 20
490.5
 30
0.0
 11
552.75
 21
490.5
 31
0.0
  0
LINE
  8
0
  6
CONTINUOUS
 62
     7
  5
66A
 10
514.75
 20
494.5
 30
0.0
 11
552.75
 21
494.5
 31
0.0
  0
LINE
  8
0
  6
CONTINUOUS
 62
     7
  5
66B
 10
552.75
 20
490.5
 30
0.0
 11
552.75
 21
494.5
 31
0.0
  0
LINE
  8
0
  6
CONTINUOUS
 62
     7
  5
66C
 10
514.75
 20
490.5
 30
0.0
 11
514.75
 21
494.5
 31
0.0
  0
CIRCLE
  8
0
  6
CONTINUOUS
 62
     7
  5
66D
 10
533.75
 20
501.0
 30
0.0
 40
4.5
210
0.0
220
0.0
230
1.0
  0
LINE
  8
0
  6
CONTINUOUS
 62
     7
  5
66E
 10
514.75
 20
511.0
 30
0.0
 11
552.75
 21
511.0
 31
0.0
  0
LINE
  8
0
  6
CONTINUOUS
 62
     7
  5
66F
 10
552.75
 20
494.5
 30
0.0
 11
552.75
 21
511.0
 31
0.0
  0
LINE
  8
0
  6
CONTINUOUS
 62
     7
  5
670
 10
514.75
 20
494.5
 30
0.0
 11
514.75
 21
511.0
 31
0.0
  0
CIRCLE
  8
0
  6
CONTINUOUS
 62
     7
  5
671
 10
533.75
 20
501.0
 30
0.0
 40
4.125
210
0.0
220
0.0
230
1.0
  0
LINE
  8
0
  6
CONTINUOUS
 62
     7
  5
672
 10
-39.0
 20
677.0
 30
0.0
 11
-39.0
 21
676.0
 31
0.0
  0
LINE
  8
0
  6
CONTINUOUS
 62
     7
  5
673
 10
-39.0
 20
677.0
 30
0.0
 11
37.25
 21
677.0
 31
0.0
  0
LINE
  8
0
  6
CONTINUOUS
 62
     7
  5
674
 10
37.25
 20
677.0
 30
0.0
 11
75.25
 21
677.0
 31
0.0
  0
LINE
  8
0
  6
CONTINUOUS
 62
     7
  5
675
 10
75.25
 20
677.0
 30
0.0
 11
77.25
 21
677.0
 31
0.0
  0
LINE
  8
0
  6
CONTINUOUS
 62
     7
  5
676
 10
77.25
 20
677.0
 30
0.0
 11
115.25
 21
677.0
 31
0.0
  0
LINE
  8
0
  6
CONTINUOUS
 62
     7
  5
677
 10
115.25
 20
677.0
 30
0.0
 11
474.75
 21
677.0
 31
0.0
  0
LINE
  8
0
  6
CONTINUOUS
 62
     7
  5
678
 10
474.75
 20
677.0
 30
0.0
 11
512.75
 21
677.0
 31
0.0
  0
LINE
  8
0
  6
CONTINUOUS
 62
     7
  5
679
 10
512.75
 20
677.0
 30
0.0
 11
514.75
 21
677.0
 31
0.0
  0
LINE
  8
0
  6
CONTINUOUS
 62
     7
  5
67A
 10
514.75
 20
677.0
 30
0.0
 11
552.75
 21
677.0
 31
0.0
  0
LINE
  8
0
  6
CONTINUOUS
 62
     7
  5
67B
 10
552.75
 20
677.0
 30
0.0
 11
629.0
 21
677.0
 31
0.0
  0
LINE
  8
0
  6
CONTINUOUS
 62
     7
  5
67C
 10
629.0
 20
677.0
 30
0.0
 11
629.0
 21
676.0
 31
0.0
  0
LINE
  8
0
  6
CONTINUOUS
 62
     7
  5
67D
 10
629.0
 20
676.0
 30
0.0
 11
629.0
 21
649.528981
 31
0.0
  0
LINE
  8
0
  6
CONTINUOUS
 62
     7
  5
67E
 10
-39.0
 20
676.0
 30
0.0
 11
-39.0
 21
649.528981
 31
0.0
  0
LINE
  8
0
  6
CONTINUOUS
 62
     7
  5
67F
 10
629.0
 20
649.528981
 30
0.0
 11
629.0
 21
648.502921
 31
0.0
  0
LINE
  8
0
  6
CONTINUOUS
 62
     7
  5
680
 10
-39.0
 20
649.528981
 30
0.0
 11
-39.0
 21
648.502921
 31
0.0
  0
LINE
  8
0
  6
CONTINUOUS
 62
     7
  5
681
 10
629.0
 20
539.497079
 30
0.0
 11
629.0
 21
538.471019
 31
0.0
  0
LINE
  8
0
  6
CONTINUOUS
 62
     7
  5
682
 10
-39.0
 20
539.497079
 30
0.0
 11
-39.0
 21
538.471019
 31
0.0
  0
LINE
  8
0
  6
CONTINUOUS
 62
     7
  5
683
 10
629.0
 20
538.471019
 30
0.0
 11
629.0
 21
512.0
 31
0.0
  0
LINE
  8
0
  6
CONTINUOUS
 62
     7
  5
684
 10
-39.0
 20
538.471019
 30
0.0
 11
-39.0
 21
512.0
 31
0.0
  0
LINE
  8
0
  6
CONTINUOUS
 62
     7
  5
685
 10
-39.0
 20
511.0
 30
0.0
 11
37.25
 21
511.0
 31
0.0
  0
LINE
  8
0
  6
CONTINUOUS
 62
     7
  5
686
 10
37.25
 20
511.0
 30
0.0
 11
75.25
 21
511.0
 31
0.0
  0
LINE
  8
0
  6
CONTINUOUS
 62
     7
  5
687
 10
75.25
 20
511.0
 30
0.0
 11
77.25
 21
511.0
 31
0.0
  0
LINE
  8
0
  6
CONTINUOUS
 62
     7
  5
688
 10
77.25
 20
511.0
 30
0.0
 11
115.25
 21
511.0
 31
0.0
  0
LINE
  8
0
  6
CONTINUOUS
 62
     7
  5
689
 10
115.25
 20
511.0
 30
0.0
 11
474.75
 21
511.0
 31
0.0
  0
LINE
  8
0
  6
CONTINUOUS
 62
     7
  5
68A
 10
474.75
 20
511.0
 30
0.0
 11
512.75
 21
511.0
 31
0.0
  0
LINE
  8
0
  6
CONTINUOUS
 62
     7
  5
68B
 10
512.75
 20
511.0
 30
0.0
 11
514.75
 21
511.0
 31
0.0
  0
LINE
  8
0
  6
CONTINUOUS
 62
     7
  5
68C
 10
514.75
 20
511.0
 30
0.0
 11
552.75
 21
511.0
 31
0.0
  0
LINE
  8
0
  6
CONTINUOUS
 62
     7
  5
68D
 10
552.75
 20
511.0
 30
0.0
 11
629.0
 21
511.0
 31
0.0
  0
LINE
  8
0
  6
CONTINUOUS
 62
     7
  5
68E
 10
629.0
 20
512.0
 30
0.0
 11
629.0
 21
511.0
 31
0.0
  0
LINE
  8
0
  6
CONTINUOUS
 62
     7
  5
68F
 10
-39.0
 20
512.0
 30
0.0
 11
-39.0
 21
511.0
 31
0.0
  0
LINE
  8
0
  6
CONTINUOUS
 62
     7
  5
690
 10
629.0
 20
540.373739
 30
0.0
 11
629.0
 21
539.497079
 31
0.0
  0
LINE
  8
0
  6
CONTINUOUS
 62
     7
  5
691
 10
-39.0
 20
540.373739
 30
0.0
 11
-39.0
 21
539.497079
 31
0.0
  0
LINE
  8
0
  6
CONTINUOUS
 62
     7
  5
692
 10
629.0
 20
648.502921
 30
0.0
 11
629.000002
 21
647.626261
 31
0.0
  0
LINE
  8
0
  6
CONTINUOUS
 62
     7
  5
693
 10
-39.0
 20
648.502921
 30
0.0
 11
-39.000001
 21
647.626261
 31
0.0
  0
LINE
  8
0
  6
CONTINUOUS
 62
     7
  5
694
 10
-39.0
 20
676.899993
 30
0.0
 11
-42.000003
 21
676.899993
 31
0.0
  0
LINE
  8
0
  6
CONTINUOUS
 62
     7
  5
695
 10
-42.000003
 20
675.899993
 30
0.0
 11
-42.000003
 21
676.899993
 31
0.0
  0
LINE
  8
0
  6
CONTINUOUS
 62
     7
  5
696
 10
629.0
 20
676.899993
 30
0.0
 11
632.000003
 21
676.899993
 31
0.0
  0
LINE
  8
0
  6
CONTINUOUS
 62
     7
  5
697
 10
632.000003
 20
675.899993
 30
0.0
 11
632.000003
 21
676.899993
 31
0.0
  0
LINE
  8
0
  6
CONTINUOUS
 62
     7
  5
698
 10
-39.0
 20
540.373739
 30
0.0
 11
-39.000001
 21
647.626261
 31
0.0
  0
LINE
  8
0
  6
CONTINUOUS
 62
     7
  5
699
 10
-42.0
 20
512.099993
 30
0.0
 11
-42.000003
 21
675.899993
 31
0.0
  0
LINE
  8
0
  6
CONTINUOUS
 62
     7
  5
69A
 10
629.0
 20
540.373739
 30
0.0
 11
629.000002
 21
647.626261
 31
0.0
  0
LINE
  8
0
  6
CONTINUOUS
 62
     7
  5
69B
 10
632.0
 20
512.099993
 30
0.0
 11
632.000003
 21
675.899993
 31
0.0
  0
LINE
  8
0
  6
CONTINUOUS
 62
     7
  5
69C
 10
-39.0
 20
511.099993
 30
0.0
 11
-42.0
 21
511.099993
 31
0.0
  0
LINE
  8
0
  6
CONTINUOUS
 62
     7
  5
69D
 10
-42.0
 20
511.099993
 30
0.0
 11
-42.0
 21
512.099993
 31
0.0
  0
LINE
  8
0
  6
CONTINUOUS
 62
     7
  5
69E
 10
629.0
 20
511.099993
 30
0.0
 11
632.0
 21
511.099993
 31
0.0
  0
LINE
  8
0
  6
CONTINUOUS
 62
     7
  5
69F
 10
632.0
 20
511.099993
 30
0.0
 11
632.0
 21
512.099993
 31
0.0
  0
LINE
  8
0
  6
CONTINUOUS
 62
     7
  5
6A0
 10
638.6
 20
538.099993
 30
0.0
 11
638.6
 21
526.099993
 31
0.0
  0
LINE
  8
0
  6
CONTINUOUS
 62
     7
  5
6A1
 10
-48.6
 20
538.099993
 30
0.0
 11
-48.6
 21
526.099993
 31
0.0
  0
LINE
  8
0
  6
CONTINUOUS
 62
     7
  5
6A2
 10
-48.6
 20
649.900007
 30
0.0
 11
-48.6
 21
661.900007
 31
0.0
  0
LINE
  8
0
  6
CONTINUOUS
 62
     7
  5
6A3
 10
638.6
 20
649.900007
 30
0.0
 11
638.6
 21
661.900007
 31
0.0
  0
LINE
  8
0
  6
CONTINUOUS
 62
     7
  5
6A4
 10
304.749023
 20
687.656887
 30
0.0
 11
303.559993
 21
687.140007
 31
0.0
  0
LINE
  8
0
  6
CONTINUOUS
 62
     7
  5
6A5
 10
301.355949
 20
689.344051
 30
0.0
 11
303.592887
 21
690.316464
 31
0.0
  0
LINE
  8
0
  6
CONTINUOUS
 62
     7
  5
6A6
 10
286.5
 20
688.5
 30
0.0
 11
286.5
 21
677.0
 31
0.0
  0
LINE
  8
0
  6
CONTINUOUS
 62
     7
  5
6A7
 10
303.5
 20
677.0
 30
0.0
 11
303.5
 21
688.5
 31
0.0
  0
ARC
  8
0
  6
CONTINUOUS
 62
     7
  5
6A8
 10
295.0
 20
686.693182
 30
0.0
 40
5.082036
 50
116.278575
 51
159.174047
210
0.0
220
0.0
230
1.0
  0
ARC
  8
0
  6
CONTINUOUS
 62
     7
  5
6A9
 10
295.0
 20
686.693182
 30
0.0
 40
5.082036
 50
20.825953
 51
63.721425
210
0.0
220
0.0
230
1.0
  0
ARC
  8
0
  6
CONTINUOUS
 62
     7
  5
6AA
 10
629.675
 20
532.099993
 30
0.0
 40
10.754331
 50
33.911714
 51
77.514531
210
0.0
220
0.0
230
1.0
  0
ARC
  8
0
  6
CONTINUOUS
 62
     7
  5
6AB
 10
629.675
 20
532.099993
 30
0.0
 40
10.754331
 50
282.485466
 51
326.088286
210
0.0
220
0.0
230
1.0
  0
ARC
  8
0
  6
CONTINUOUS
 62
     7
  5
6AC
 10
-39.675
 20
532.099993
 30
0.0
 40
10.754331
 50
213.911714
 51
257.514534
210
0.0
220
0.0
230
1.0
  0
ARC
  8
0
  6
CONTINUOUS
 62
     7
  5
6AD
 10
-39.675
 20
532.099993
 30
0.0
 40
10.754331
 50
102.485469
 51
146.088286
210
0.0
220
0.0
230
1.0
  0
ARC
  8
0
  6
CONTINUOUS
 62
     7
  5
6AE
 10
-39.675
 20
655.900007
 30
0.0
 40
10.754331
 50
213.911714
 51
257.51452
210
0.0
220
0.0
230
1.0
  0
ARC
  8
0
  6
CONTINUOUS
 62
     7
  5
6AF
 10
-39.675
 20
655.900007
 30
0.0
 40
10.754331
 50
102.485483
 51
146.088286
210
0.0
220
0.0
230
0.9999999999999999
  0
ARC
  8
0
  6
CONTINUOUS
 62
     7
  5
6B0
 10
629.675
 20
655.900007
 30
0.0
 40
10.754331
 50
33.911714
 51
77.514517
210
0.0
220
0.0
230
1.0
  0
ARC
  8
0
  6
CONTINUOUS
 62
     7
  5
6B1
 10
629.675
 20
655.900007
 30
0.0
 40
10.754331
 50
282.48548
 51
326.088286
210
0.0
220
0.0
230
0.9999999999999999
  0
ENDBLK
  8
0
  5
6B2
  0
BLOCK
  8
0
  5
6B5
  2
AID3081
 70
     0
 10
0.0
 20
0.0
 30
0.0
  3
#auxiliary draft view
  0
LINE
  8
0
  6
CONTINUOUS
 62
     7
  5
6B6
 10
-297.0
 20
236.25
 30
0.0
 11
-297.0
 21
236.15
 31
0.0
  0
LINE
  8
0
  6
CONTINUOUS
 62
     7
  5
6B7
 10
-370.0
 20
236.15
 30
0.0
 11
-370.0
 21
236.25
 31
0.0
  0
LINE
  8
0
  6
CONTINUOUS
 62
     7
  5
6B8
 10
-295.0
 20
236.15
 30
0.0
 11
-295.0
 21
236.25
 31
0.0
  0
LINE
  8
0
  6
CONTINUOUS
 62
     7
  5
6B9
 10
-372.0
 20
236.25
 30
0.0
 11
-372.0
 21
236.15
 31
0.0
  0
LINE
  8
0
  6
CONTINUOUS
 62
     7
  5
6BA
 10
-247.0
 20
276.25
 30
0.0
 11
-247.0
 21
289.25
 31
0.0
  0
LINE
  8
0
  6
CONTINUOUS
 62
     7
  5
6BB
 10
-247.0
 20
276.25
 30
0.0
 11
-295.0
 21
276.25
 31
0.0
  0
LINE
  8
0
  6
CONTINUOUS
 62
     7
  5
6BC
 10
-295.0
 20
274.75
 30
0.0
 11
-295.0
 21
276.25
 31
0.0
  0
LINE
  8
0
  6
CONTINUOUS
 62
     7
  5
6BD
 10
-377.0
 20
274.75
 30
0.0
 11
-377.0
 21
276.25
 31
0.0
  0
LINE
  8
0
  6
CONTINUOUS
 62
     7
  5
6BE
 10
-377.0
 20
276.25
 30
0.0
 11
-425.0
 21
276.25
 31
0.0
  0
LINE
  8
0
  6
CONTINUOUS
 62
     7
  5
6BF
 10
-425.0
 20
276.25
 30
0.0
 11
-425.0
 21
284.25
 31
0.0
  0
LINE
  8
0
  6
CONTINUOUS
 62
     7
  5
6C0
 10
-425.0
 20
284.25
 30
0.0
 11
-393.0
 21
284.25
 31
0.0
  0
LINE
  8
0
  6
CONTINUOUS
 62
     7
  5
6C1
 10
-393.0
 20
289.25
 30
0.0
 11
-393.0
 21
284.25
 31
0.0
  0
LINE
  8
0
  6
CONTINUOUS
 62
     7
  5
6C2
 10
-247.0
 20
289.25
 30
0.0
 11
-393.0
 21
289.25
 31
0.0
  0
LINE
  8
0
  6
CONTINUOUS
 62
     7
  5
6C3
 10
-248.3
 20
271.75
 30
0.0
 11
-260.5
 21
271.75
 31
0.0
  0
ARC
  8
0
  6
CONTINUOUS
 62
     7
  5
6C4
 10
-248.3
 20
271.25
 30
0.0
 40
0.5
 50
360.0
 51
90.0
210
0.0
220
0.0
230
1.0
  0
LINE
  8
0
  6
CONTINUOUS
 62
     7
  5
6C5
 10
-247.8
 20
262.15
 30
0.0
 11
-247.8
 21
271.25
 31
0.0
  0
LINE
  8
0
  6
CONTINUOUS
 62
     7
  5
6C6
 10
-247.8
 20
262.15
 30
0.0
 11
-252.2
 21
262.15
 31
0.0
  0
ARC
  8
0
  6
CONTINUOUS
 62
     7
  5
6C7
 10
-252.2
 20
258.25
 30
0.0
 40
3.9
 50
90.0
 51
270.0
210
0.0
220
0.0
230
1.0
  0
LINE
  8
0
  6
CONTINUOUS
 62
     7
  5
6C8
 10
-252.2
 20
254.35
 30
0.0
 11
-247.8
 21
254.35
 31
0.0
  0
LINE
  8
0
  6
CONTINUOUS
 62
     7
  5
6C9
 10
-247.8
 20
242.65
 30
0.0
 11
-247.8
 21
254.35
 31
0.0
  0
ARC
  8
0
  6
CONTINUOUS
 62
     7
  5
6CA
 10
-248.3
 20
242.65
 30
0.0
 40
0.5
 50
270.0
 51
360.0
210
0.0
220
0.0
230
1.0
  0
LINE
  8
0
  6
CONTINUOUS
 62
     7
  5
6CB
 10
-255.25
 20
242.15
 30
0.0
 11
-248.3
 21
242.15
 31
0.0
  0
LINE
  8
0
  6
CONTINUOUS
 62
     7
  5
6CC
 10
-255.25
 20
241.65
 30
0.0
 11
-255.25
 21
242.15
 31
0.0
  0
LINE
  8
0
  6
CONTINUOUS
 62
     7
  5
6CD
 10
-259.5
 20
241.65
 30
0.0
 11
-255.25
 21
241.65
 31
0.0
  0
LINE
  8
0
  6
CONTINUOUS
 62
     7
  5
6CE
 10
-416.75
 20
242.15
 30
0.0
 11
-423.7
 21
242.15
 31
0.0
  0
LINE
  8
0
  6
CONTINUOUS
 62
     7
  5
6CF
 10
-419.8
 20
254.35
 30
0.0
 11
-424.2
 21
254.35
 31
0.0
  0
LINE
  8
0
  6
CONTINUOUS
 62
     7
  5
6D0
 10
-424.2
 20
262.15
 30
0.0
 11
-419.8
 21
262.15
 31
0.0
  0
ARC
  8
0
  6
CONTINUOUS
 62
     7
  5
6D1
 10
-423.7
 20
242.65
 30
0.0
 40
0.5
 50
180.0
 51
270.0
210
0.0
220
0.0
230
1.0
  0
LINE
  8
0
  6
CONTINUOUS
 62
     7
  5
6D2
 10
-416.75
 20
241.65
 30
0.0
 11
-416.75
 21
242.15
 31
0.0
  0
LINE
  8
0
  6
CONTINUOUS
 62
     7
  5
6D3
 10
-424.2
 20
242.65
 30
0.0
 11
-424.2
 21
254.35
 31
0.0
  0
LINE
  8
0
  6
CONTINUOUS
 62
     7
  5
6D4
 10
-424.2
 20
262.15
 30
0.0
 11
-424.2
 21
271.25
 31
0.0
  0
LINE
  8
0
  6
CONTINUOUS
 62
     7
  5
6D5
 10
-412.5
 20
241.65
 30
0.0
 11
-416.75
 21
241.65
 31
0.0
  0
ARC
  8
0
  6
CONTINUOUS
 62
     7
  5
6D6
 10
-423.7
 20
271.25
 30
0.0
 40
0.5
 50
90.0
 51
180.0
210
0.0
220
0.0
230
1.0
  0
LINE
  8
0
  6
CONTINUOUS
 62
     7
  5
6D7
 10
-423.7
 20
271.75
 30
0.0
 11
-411.5
 21
271.75
 31
0.0
  0
ARC
  8
0
  6
CONTINUOUS
 62
     7
  5
6D8
 10
-419.8
 20
258.25
 30
0.0
 40
3.9
 50
270.0
 51
90.0
210
0.0
220
0.0
230
1.0
  0
CIRCLE
  8
0
  6
CONTINUOUS
 62
     7
  5
6D9
 10
-252.2
 20
258.25
 30
0.0
 40
1.5
210
0.0
220
0.0
230
1.0
  0
ARC
  8
0
  6
CONTINUOUS
 62
     7
  5
6DA
 10
-252.2
 20
258.25
 30
0.0
 40
2.5
 50
120.0
 51
180.0
210
0.0
220
0.0
230
1.0
  0
ARC
  8
0
  6
CONTINUOUS
 62
     7
  5
6DB
 10
-252.2
 20
258.25
 30
0.0
 40
2.5
 50
60.0
 51
120.0
210
0.0
220
0.0
230
1.0
  0
ARC
  8
0
  6
CONTINUOUS
 62
     7
  5
6DC
 10
-252.2
 20
258.25
 30
0.0
 40
2.5
 50
0.0
 51
60.0
210
0.0
220
0.0
230
1.0
  0
ARC
  8
0
  6
CONTINUOUS
 62
     7
  5
6DD
 10
-252.2
 20
258.25
 30
0.0
 40
2.5
 50
300.0
 51
0.0
210
0.0
220
0.0
230
1.0
  0
ARC
  8
0
  6
CONTINUOUS
 62
     7
  5
6DE
 10
-252.2
 20
258.25
 30
0.0
 40
2.5
 50
240.0
 51
300.0
210
0.0
220
0.0
230
1.0
  0
ARC
  8
0
  6
CONTINUOUS
 62
     7
  5
6DF
 10
-252.2
 20
258.25
 30
0.0
 40
2.5
 50
180.0
 51
240.0
210
0.0
220
0.0
230
1.0
  0
ARC
  8
0
  6
CONTINUOUS
 62
     7
  5
6E0
 10
-419.8
 20
258.25
 30
0.0
 40
2.885
 50
29.939702
 51
30.060298
210
0.0
220
0.0
230
1.0
  0
LINE
  8
0
  6
CONTINUOUS
 62
     7
  5
6E1
 10
-417.3
 20
258.25
 30
0.0
 11
-417.3
 21
259.68987
 31
0.0
  0
ARC
  8
0
  6
CONTINUOUS
 62
     7
  5
6E2
 10
-419.8
 20
258.25
 30
0.0
 40
2.5
 50
360.0
 51
60.0
210
0.0
220
0.0
230
1.0
  0
LINE
  8
0
  6
CONTINUOUS
 62
     7
  5
6E3
 10
-417.303036
 20
259.695129
 30
0.0
 11
-418.55
 21
260.415064
 31
0.0
  0
ARC
  8
0
  6
CONTINUOUS
 62
     7
  5
6E4
 10
-419.8
 20
258.25
 30
0.0
 40
2.5
 50
300.0
 51
360.0
210
0.0
220
0.0
230
1.0
  0
LINE
  8
0
  6
CONTINUOUS
 62
     7
  5
6E5
 10
-417.3
 20
256.81013
 30
0.0
 11
-417.3
 21
258.25
 31
0.0
  0
ARC
  8
0
  6
CONTINUOUS
 62
     7
  5
6E6
 10
-419.8
 20
258.25
 30
0.0
 40
2.885
 50
329.939702
 51
330.060298
210
0.0
220
0.0
230
1.0
  0
LINE
  8
0
  6
CONTINUOUS
 62
     7
  5
6E7
 10
-418.55
 20
256.084936
 30
0.0
 11
-417.303036
 21
256.804871
 31
0.0
  0
ARC
  8
0
  6
CONTINUOUS
 62
     7
  5
6E8
 10
-419.8
 20
258.25
 30
0.0
 40
2.5
 50
240.0
 51
300.0
210
0.0
220
0.0
230
1.0
  0
LINE
  8
0
  6
CONTINUOUS
 62
     7
  5
6E9
 10
-419.796964
 20
255.365002
 30
0.0
 11
-418.55
 21
256.084936
 31
0.0
  0
ARC
  8
0
  6
CONTINUOUS
 62
     7
  5
6EA
 10
-419.8
 20
258.25
 30
0.0
 40
2.885
 50
269.939702
 51
270.060298
210
0.0
220
0.0
230
1.0
  0
LINE
  8
0
  6
CONTINUOUS
 62
     7
  5
6EB
 10
-421.05
 20
256.084936
 30
0.0
 11
-419.803036
 21
255.365002
 31
0.0
  0
ARC
  8
0
  6
CONTINUOUS
 62
     7
  5
6EC
 10
-419.8
 20
258.25
 30
0.0
 40
2.5
 50
120.0
 51
180.0
210
0.0
220
0.0
230
1.0
  0
LINE
  8
0
  6
CONTINUOUS
 62
     7
  5
6ED
 10
-422.3
 20
259.68987
 30
0.0
 11
-422.3
 21
258.25
 31
0.0
  0
ARC
  8
0
  6
CONTINUOUS
 62
     7
  5
6EE
 10
-419.8
 20
258.25
 30
0.0
 40
2.885
 50
149.939702
 51
150.060298
210
0.0
220
0.0
230
1.0
  0
LINE
  8
0
  6
CONTINUOUS
 62
     7
  5
6EF
 10
-421.05
 20
260.415064
 30
0.0
 11
-422.296964
 21
259.695129
 31
0.0
  0
CIRCLE
  8
0
  6
CONTINUOUS
 62
     7
  5
6F0
 10
-419.8
 20
258.25
 30
0.0
 40
1.5
210
0.0
220
0.0
230
1.0
  0
ARC
  8
0
  6
CONTINUOUS
 62
     7
  5
6F1
 10
-419.8
 20
258.25
 30
0.0
 40
2.5
 50
180.0
 51
240.0
210
0.0
220
0.0
230
1.0
  0
ARC
  8
0
  6
CONTINUOUS
 62
     7
  5
6F2
 10
-419.8
 20
258.25
 30
0.0
 40
2.5
 50
60.0
 51
120.0
210
0.0
220
0.0
230
1.0
  0
LINE
  8
0
  6
CONTINUOUS
 62
     7
  5
6F3
 10
-422.296964
 20
256.804871
 30
0.0
 11
-421.05
 21
256.084936
 31
0.0
  0
ARC
  8
0
  6
CONTINUOUS
 62
     7
  5
6F4
 10
-419.8
 20
258.25
 30
0.0
 40
2.885
 50
209.939702
 51
210.060298
210
0.0
220
0.0
230
1.0
  0
LINE
  8
0
  6
CONTINUOUS
 62
     7
  5
6F5
 10
-422.3
 20
258.25
 30
0.0
 11
-422.3
 21
256.81013
 31
0.0
  0
LINE
  8
0
  6
CONTINUOUS
 62
     7
  5
6F6
 10
-419.803036
 20
261.134998
 30
0.0
 11
-421.05
 21
260.415064
 31
0.0
  0
ARC
  8
0
  6
CONTINUOUS
 62
     7
  5
6F7
 10
-419.8
 20
258.25
 30
0.0
 40
2.885
 50
89.939702
 51
90.060298
210
0.0
220
0.0
230
1.0
  0
LINE
  8
0
  6
CONTINUOUS
 62
     7
  5
6F8
 10
-418.55
 20
260.415064
 30
0.0
 11
-419.796964
 21
261.134998
 31
0.0
  0
ARC
  8
0
  6
CONTINUOUS
 62
     7
  5
6F9
 10
-252.2
 20
258.25
 30
0.0
 40
2.885
 50
209.939702
 51
210.060298
210
0.0
220
0.0
230
1.0
  0
LINE
  8
0
  6
CONTINUOUS
 62
     7
  5
6FA
 10
-254.7
 20
256.81013
 30
0.0
 11
-254.7
 21
258.25
 31
0.0
  0
LINE
  8
0
  6
CONTINUOUS
 62
     7
  5
6FB
 10
-253.45
 20
256.084936
 30
0.0
 11
-254.696964
 21
256.804871
 31
0.0
  0
LINE
  8
0
  6
CONTINUOUS
 62
     7
  5
6FC
 10
-254.7
 20
258.25
 30
0.0
 11
-254.7
 21
259.68987
 31
0.0
  0
ARC
  8
0
  6
CONTINUOUS
 62
     7
  5
6FD
 10
-252.2
 20
258.25
 30
0.0
 40
2.885
 50
149.939702
 51
150.060298
210
0.0
220
0.0
230
1.0
  0
LINE
  8
0
  6
CONTINUOUS
 62
     7
  5
6FE
 10
-254.696964
 20
259.695129
 30
0.0
 11
-253.45
 21
260.415064
 31
0.0
  0
ARC
  8
0
  6
CONTINUOUS
 62
     7
  5
6FF
 10
-252.2
 20
258.25
 30
0.0
 40
2.885
 50
269.939702
 51
270.060298
210
0.0
220
0.0
230
1.0
  0
LINE
  8
0
  6
CONTINUOUS
 62
     7
  5
700
 10
-252.203036
 20
255.365002
 30
0.0
 11
-253.45
 21
256.084936
 31
0.0
  0
LINE
  8
0
  6
CONTINUOUS
 62
     7
  5
701
 10
-250.95
 20
256.084936
 30
0.0
 11
-252.196964
 21
255.365002
 31
0.0
  0
ARC
  8
0
  6
CONTINUOUS
 62
     7
  5
702
 10
-252.2
 20
258.25
 30
0.0
 40
2.885
 50
329.939702
 51
330.060298
210
0.0
220
0.0
230
1.0
  0
LINE
  8
0
  6
CONTINUOUS
 62
     7
  5
703
 10
-249.703036
 20
256.804871
 30
0.0
 11
-250.95
 21
256.084936
 31
0.0
  0
LINE
  8
0
  6
CONTINUOUS
 62
     7
  5
704
 10
-249.7
 20
258.25
 30
0.0
 11
-249.7
 21
256.81013
 31
0.0
  0
ARC
  8
0
  6
CONTINUOUS
 62
     7
  5
705
 10
-252.2
 20
258.25
 30
0.0
 40
2.885
 50
29.939702
 51
30.060298
210
0.0
220
0.0
230
1.0
  0
LINE
  8
0
  6
CONTINUOUS
 62
     7
  5
706
 10
-249.7
 20
259.68987
 30
0.0
 11
-249.7
 21
258.25
 31
0.0
  0
LINE
  8
0
  6
CONTINUOUS
 62
     7
  5
707
 10
-250.95
 20
260.415064
 30
0.0
 11
-249.703036
 21
259.695129
 31
0.0
  0
ARC
  8
0
  6
CONTINUOUS
 62
     7
  5
708
 10
-252.2
 20
258.25
 30
0.0
 40
2.885
 50
89.939702
 51
90.060298
210
0.0
220
0.0
230
1.0
  0
LINE
  8
0
  6
CONTINUOUS
 62
     7
  5
709
 10
-252.196964
 20
261.134998
 30
0.0
 11
-250.95
 21
260.415064
 31
0.0
  0
LINE
  8
0
  6
CONTINUOUS
 62
     7
  5
70A
 10
-253.45
 20
260.415064
 30
0.0
 11
-252.203036
 21
261.134998
 31
0.0
  0
CIRCLE
  8
0
  6
CONTINUOUS
 62
     7
  5
70B
 10
-419.8
 20
258.25
 30
0.0
 40
3.4
210
0.0
220
0.0
230
1.0
  0
CIRCLE
  8
0
  6
CONTINUOUS
 62
     7
  5
70C
 10
-252.2
 20
258.25
 30
0.0
 40
1.225
210
0.0
220
0.0
230
1.0
  0
CIRCLE
  8
0
  6
CONTINUOUS
 62
     7
  5
70D
 10
-252.2
 20
258.25
 30
0.0
 40
3.4
210
0.0
220
0.0
230
1.0
  0
CIRCLE
  8
0
  6
CONTINUOUS
 62
     7
  5
70E
 10
-252.2
 20
258.25
 30
0.0
 40
3.5
210
0.0
220
0.0
230
1.0
  0
CIRCLE
  8
0
  6
CONTINUOUS
 62
     7
  5
70F
 10
-419.8
 20
258.25
 30
0.0
 40
1.225
210
0.0
220
0.0
230
1.0
  0
CIRCLE
  8
0
  6
CONTINUOUS
 62
     7
  5
710
 10
-419.8
 20
258.25
 30
0.0
 40
3.5
210
0.0
220
0.0
230
1.0
  0
LINE
  8
0
  6
CONTINUOUS
 62
     7
  5
711
 10
-247.8
 20
254.35
 30
0.0
 11
-247.8
 21
262.15
 31
0.0
  0
LINE
  8
0
  6
CONTINUOUS
 62
     7
  5
712
 10
-424.2
 20
254.35
 30
0.0
 11
-424.2
 21
262.15
 31
0.0
  0
LINE
  8
0
  6
CONTINUOUS
 62
     7
  5
713
 10
-401.0
 20
289.25
 30
0.0
 11
-393.0
 21
289.25
 31
0.0
  0
LINE
  8
0
  6
CONTINUOUS
 62
     7
  5
714
 10
-425.0
 20
275.0
 30
0.0
 11
-423.75
 21
276.25
 31
0.0
  0
LINE
  8
0
  6
CONTINUOUS
 62
     7
  5
715
 10
-413.0
 20
276.25
 30
0.0
 11
-413.0
 21
275.75
 31
0.0
  0
LINE
  8
0
  6
CONTINUOUS
 62
     7
  5
716
 10
-413.0
 20
275.75
 30
0.0
 11
-405.0
 21
275.75
 31
0.0
  0
LINE
  8
0
  6
CONTINUOUS
 62
     7
  5
717
 10
-405.0
 20
275.75
 30
0.0
 11
-405.0
 21
276.25
 31
0.0
  0
LINE
  8
0
  6
CONTINUOUS
 62
     7
  5
718
 10
-397.0
 20
276.25
 30
0.0
 11
-397.0
 21
275.75
 31
0.0
  0
LINE
  8
0
  6
CONTINUOUS
 62
     7
  5
719
 10
-397.0
 20
275.75
 30
0.0
 11
-389.0
 21
275.75
 31
0.0
  0
LINE
  8
0
  6
CONTINUOUS
 62
     7
  5
71A
 10
-389.0
 20
275.75
 30
0.0
 11
-389.0
 21
276.25
 31
0.0
  0
LINE
  8
0
  6
CONTINUOUS
 62
     7
  5
71B
 10
-378.25
 20
276.25
 30
0.0
 11
-377.0
 21
275.0
 31
0.0
  0
ARC
  8
0
  6
CONTINUOUS
 62
     7
  5
71C
 10
-424.5
 20
242.65
 30
0.0
 40
0.5
 50
180.0
 51
270.0
210
0.0
220
0.0
230
1.0
  0
LINE
  8
0
  6
CONTINUOUS
 62
     7
  5
71D
 10
-425.0
 20
242.65
 30
0.0
 11
-425.0
 21
275.0
 31
0.0
  0
LINE
  8
0
  6
CONTINUOUS
 62
     7
  5
71E
 10
-423.7
 20
242.15
 30
0.0
 11
-424.5
 21
242.15
 31
0.0
  0
LINE
  8
0
  6
CONTINUOUS
 62
     7
  5
71F
 10
-293.75
 20
276.25
 30
0.0
 11
-295.0
 21
275.0
 31
0.0
  0
LINE
  8
0
  6
CONTINUOUS
 62
     7
  5
720
 10
-283.0
 20
275.75
 30
0.0
 11
-283.0
 21
276.25
 31
0.0
  0
LINE
  8
0
  6
CONTINUOUS
 62
     7
  5
721
 10
-275.0
 20
275.75
 30
0.0
 11
-283.0
 21
275.75
 31
0.0
  0
LINE
  8
0
  6
CONTINUOUS
 62
     7
  5
722
 10
-275.0
 20
276.25
 30
0.0
 11
-275.0
 21
275.75
 31
0.0
  0
LINE
  8
0
  6
CONTINUOUS
 62
     7
  5
723
 10
-267.0
 20
275.75
 30
0.0
 11
-267.0
 21
276.25
 31
0.0
  0
LINE
  8
0
  6
CONTINUOUS
 62
     7
  5
724
 10
-259.0
 20
275.75
 30
0.0
 11
-267.0
 21
275.75
 31
0.0
  0
LINE
  8
0
  6
CONTINUOUS
 62
     7
  5
725
 10
-259.0
 20
276.25
 30
0.0
 11
-259.0
 21
275.75
 31
0.0
  0
LINE
  8
0
  6
CONTINUOUS
 62
     7
  5
726
 10
-247.0
 20
275.0
 30
0.0
 11
-248.25
 21
276.25
 31
0.0
  0
ARC
  8
0
  6
CONTINUOUS
 62
     7
  5
727
 10
-247.5
 20
242.65
 30
0.0
 40
0.5
 50
270.0
 51
360.0
210
0.0
220
0.0
230
1.0
  0
LINE
  8
0
  6
CONTINUOUS
 62
     7
  5
728
 10
-247.0
 20
242.65
 30
0.0
 11
-247.0
 21
275.0
 31
0.0
  0
LINE
  8
0
  6
CONTINUOUS
 62
     7
  5
729
 10
-248.3
 20
242.15
 30
0.0
 11
-247.5
 21
242.15
 31
0.0
  0
LINE
  8
0
  6
CONTINUOUS
 62
     7
  5
72A
 10
-401.0
 20
289.25
 30
0.0
 11
-425.0
 21
289.25
 31
0.0
  0
LINE
  8
0
  6
CONTINUOUS
 62
     7
  5
72B
 10
-425.0
 20
289.25
 30
0.0
 11
-425.0
 21
284.25
 31
0.0
  0
POLYLINE
  8
0
  6
CONTINUOUS
 62
     7
  5
72C
 66
     1
 10
0.0
 20
0.0
 30
0.0
 40
0.5
 41
0.5
  0
VERTEX
  8
0
 62
     7
  5
72D
 10
-432.316464
 20
268.651754
 30
0.0
  0
VERTEX
  8
0
 62
     7
  5
72E
 10
-432.306617
 20
268.763195
 30
0.0
  0
VERTEX
  8
0
 62
     7
  5
72F
 10
-432.288828
 20
268.873966
 30
0.0
  0
VERTEX
  8
0
 62
     7
  5
730
 10
-432.263201
 20
268.983399
 30
0.0
  0
VERTEX
  8
0
 62
     7
  5
731
 10
-432.229893
 20
269.090836
 30
0.0
  0
VERTEX
  8
0
 62
     7
  5
732
 10
-432.189102
 20
269.19563
 30
0.0
  0
VERTEX
  8
0
 62
     7
  5
733
 10
-432.141075
 20
269.297152
 30
0.0
  0
VERTEX
  8
0
 62
     7
  5
734
 10
-432.086101
 20
269.39479
 30
0.0
  0
VERTEX
  8
0
 62
     7
  5
735
 10
-432.024511
 20
269.487956
 30
0.0
  0
VERTEX
  8
0
 62
     7
  5
736
 10
-431.956674
 20
269.576089
 30
0.0
  0
VERTEX
  8
0
 62
     7
  5
737
 10
-431.883
 20
269.65866
 30
0.0
  0
VERTEX
  8
0
 62
     7
  5
738
 10
-431.803932
 20
269.735171
 30
0.0
  0
VERTEX
  8
0
 62
     7
  5
739
 10
-431.719946
 20
269.805162
 30
0.0
  0
VERTEX
  8
0
 62
     7
  5
73A
 10
-431.631547
 20
269.868212
 30
0.0
  0
VERTEX
  8
0
 62
     7
  5
73B
 10
-431.539266
 20
269.92394
 30
0.0
  0
VERTEX
  8
0
 62
     7
  5
73C
 10
-431.44366
 20
269.972013
 30
0.0
  0
VERTEX
  8
0
 62
     7
  5
73D
 10
-431.345304
 20
270.01214
 30
0.0
  0
VERTEX
  8
0
 62
     7
  5
73E
 10
-431.24479
 20
270.044081
 30
0.0
  0
VERTEX
  8
0
 62
     7
  5
73F
 10
-431.142723
 20
270.067642
 30
0.0
  0
VERTEX
  8
0
 62
     7
  5
740
 10
-431.039716
 20
270.082682
 30
0.0
  0
VERTEX
  8
0
 62
     7
  5
741
 10
-430.93639
 20
270.089111
 30
0.0
  0
VERTEX
  8
0
 62
     7
  5
742
 10
-430.833367
 20
270.086889
 30
0.0
  0
VERTEX
  8
0
 62
     7
  5
743
 10
-430.731266
 20
270.076031
 30
0.0
  0
VERTEX
  8
0
 62
     7
  5
744
 10
-430.630702
 20
270.056601
 30
0.0
  0
VERTEX
  8
0
 62
     7
  5
745
 10
-430.532281
 20
270.028717
 30
0.0
  0
SEQEND
  8
0
  5
746
  0
POLYLINE
  8
0
  6
CONTINUOUS
 62
     7
  5
747
 66
     1
 10
0.0
 20
0.0
 30
0.0
 40
0.5
 41
0.5
  0
VERTEX
  8
0
 62
     7
  5
748
 10
-431.446157
 20
267.276483
 30
0.0
  0
VERTEX
  8
0
 62
     7
  5
749
 10
-431.544232
 20
267.314189
 30
0.0
  0
VERTEX
  8
0
 62
     7
  5
74A
 10
-431.638768
 20
267.360388
 30
0.0
  0
VERTEX
  8
0
 62
     7
  5
74B
 10
-431.729163
 20
267.414785
 30
0.0
  0
VERTEX
  8
0
 62
     7
  5
74C
 10
-431.814845
 20
267.477035
 30
0.0
  0
VERTEX
  8
0
 62
     7
  5
74D
 10
-431.895268
 20
267.546744
 30
0.0
  0
VERTEX
  8
0
 62
     7
  5
74E
 10
-431.969923
 20
267.623469
 30
0.0
  0
VERTEX
  8
0
 62
     7
  5
74F
 10
-432.038335
 20
267.706722
 30
0.0
  0
VERTEX
  8
0
 62
     7
  5
750
 10
-432.100071
 20
267.795975
 30
0.0
  0
VERTEX
  8
0
 62
     7
  5
751
 10
-432.154737
 20
267.890661
 30
0.0
  0
VERTEX
  8
0
 62
     7
  5
752
 10
-432.201987
 20
267.99018
 30
0.0
  0
VERTEX
  8
0
 62
     7
  5
753
 10
-432.241522
 20
268.093899
 30
0.0
  0
VERTEX
  8
0
 62
     7
  5
754
 10
-432.273089
 20
268.201159
 30
0.0
  0
VERTEX
  8
0
 62
     7
  5
755
 10
-432.296489
 20
268.311281
 30
0.0
  0
VERTEX
  8
0
 62
     7
  5
756
 10
-432.311573
 20
268.423564
 30
0.0
  0
VERTEX
  8
0
 62
     7
  5
757
 10
-432.318245
 20
268.537296
 30
0.0
  0
VERTEX
  8
0
 62
     7
  5
758
 10
-432.316464
 20
268.651754
 30
0.0
  0
SEQEND
  8
0
  5
759
  0
POLYLINE
  8
0
  6
CONTINUOUS
 62
     7
  5
75A
 66
     1
 10
0.0
 20
0.0
 30
0.0
 40
0.5
 41
0.5
  0
VERTEX
  8
0
 62
     7
  5
75B
 10
-430.532281
 20
270.028717
 30
0.0
  0
VERTEX
  8
0
 62
     7
  5
75C
 10
-430.435326
 20
269.992003
 30
0.0
  0
VERTEX
  8
0
 62
     7
  5
75D
 10
-430.341779
 20
269.947004
 30
0.0
  0
VERTEX
  8
0
 62
     7
  5
75E
 10
-430.252219
 20
269.894
 30
0.0
  0
VERTEX
  8
0
 62
     7
  5
75F
 10
-430.167199
 20
269.833316
 30
0.0
  0
VERTEX
  8
0
 62
     7
  5
760
 10
-430.087244
 20
269.765329
 30
0.0
  0
VERTEX
  8
0
 62
     7
  5
761
 10
-430.012848
 20
269.690459
 30
0.0
  0
VERTEX
  8
0
 62
     7
  5
762
 10
-429.944472
 20
269.609168
 30
0.0
  0
VERTEX
  8
0
 62
     7
  5
763
 10
-429.882539
 20
269.521959
 30
0.0
  0
VERTEX
  8
0
 62
     7
  5
764
 10
-429.82743
 20
269.429371
 30
0.0
  0
VERTEX
  8
0
 62
     7
  5
765
 10
-429.779487
 20
269.331976
 30
0.0
  0
VERTEX
  8
0
 62
     7
  5
766
 10
-429.739006
 20
269.230377
 30
0.0
  0
VERTEX
  8
0
 62
     7
  5
767
 10
-429.706237
 20
269.125201
 30
0.0
  0
VERTEX
  8
0
 62
     7
  5
768
 10
-429.681383
 20
269.017098
 30
0.0
  0
VERTEX
  8
0
 62
     7
  5
769
 10
-429.664597
 20
268.906738
 30
0.0
  0
VERTEX
  8
0
 62
     7
  5
76A
 10
-429.655983
 20
268.794801
 30
0.0
  0
VERTEX
  8
0
 62
     7
  5
76B
 10
-429.655595
 20
268.68198
 30
0.0
  0
VERTEX
  8
0
 62
     7
  5
76C
 10
-429.663435
 20
268.568972
 30
0.0
  0
VERTEX
  8
0
 62
     7
  5
76D
 10
-429.679454
 20
268.456476
 30
0.0
  0
VERTEX
  8
0
 62
     7
  5
76E
 10
-429.703553
 20
268.345186
 30
0.0
  0
VERTEX
  8
0
 62
     7
  5
76F
 10
-429.735584
 20
268.235792
 30
0.0
  0
VERTEX
  8
0
 62
     7
  5
770
 10
-429.775348
 20
268.128969
 30
0.0
  0
VERTEX
  8
0
 62
     7
  5
771
 10
-429.822599
 20
268.025378
 30
0.0
  0
VERTEX
  8
0
 62
     7
  5
772
 10
-429.877047
 20
267.925658
 30
0.0
  0
VERTEX
  8
0
 62
     7
  5
773
 10
-429.938353
 20
267.830427
 30
0.0
  0
VERTEX
  8
0
 62
     7
  5
774
 10
-430.006139
 20
267.740272
 30
0.0
  0
VERTEX
  8
0
 62
     7
  5
775
 10
-430.079986
 20
267.655752
 30
0.0
  0
VERTEX
  8
0
 62
     7
  5
776
 10
-430.159437
 20
267.577388
 30
0.0
  0
VERTEX
  8
0
 62
     7
  5
777
 10
-430.244002
 20
267.505665
 30
0.0
  0
VERTEX
  8
0
 62
     7
  5
778
 10
-430.333158
 20
267.441026
 30
0.0
  0
VERTEX
  8
0
 62
     7
  5
779
 10
-430.426353
 20
267.383872
 30
0.0
  0
VERTEX
  8
0
 62
     7
  5
77A
 10
-430.523011
 20
267.334554
 30
0.0
  0
VERTEX
  8
0
 62
     7
  5
77B
 10
-430.622536
 20
267.293379
 30
0.0
  0
VERTEX
  8
0
 62
     7
  5
77C
 10
-430.724312
 20
267.2606
 30
0.0
  0
VERTEX
  8
0
 62
     7
  5
77D
 10
-430.827709
 20
267.23642
 30
0.0
  0
VERTEX
  8
0
 62
     7
  5
77E
 10
-430.932089
 20
267.220988
 30
0.0
  0
VERTEX
  8
0
 62
     7
  5
77F
 10
-431.036806
 20
267.214401
 30
0.0
  0
VERTEX
  8
0
 62
     7
  5
780
 10
-431.141214
 20
267.216698
 30
0.0
  0
VERTEX
  8
0
 62
     7
  5
781
 10
-431.244666
 20
267.227866
 30
0.0
  0
VERTEX
  8
0
 62
     7
  5
782
 10
-431.346524
 20
267.247836
 30
0.0
  0
VERTEX
  8
0
 62
     7
  5
783
 10
-431.446157
 20
267.276483
 30
0.0
  0
SEQEND
  8
0
  5
784
  0
LINE
  8
0
  6
CONTINUOUS
 62
     7
  5
785
 10
-410.5
 20
275.75
 30
0.0
 11
-410.5
 21
276.25
 31
0.0
  0
LINE
  8
0
  6
CONTINUOUS
 62
     7
  5
786
 10
-428.7
 20
246.25
 30
0.0
 11
-425.0
 21
246.25
 31
0.0
  0
LINE
  8
0
  6
CONTINUOUS
 62
     7
  5
787
 10
-428.7
 20
252.25
 30
0.0
 11
-428.7
 21
246.25
 31
0.0
  0
LINE
  8
0
  6
CONTINUOUS
 62
     7
  5
788
 10
-425.0
 20
252.25
 30
0.0
 11
-428.7
 21
252.25
 31
0.0
  0
LINE
  8
0
  6
CONTINUOUS
 62
     7
  5
789
 10
-428.7
 20
246.25
 30
0.0
 11
-433.7
 21
246.25
 31
0.0
  0
LINE
  8
0
  6
CONTINUOUS
 62
     7
  5
78A
 10
-433.7
 20
246.25
 30
0.0
 11
-433.7
 21
252.25
 31
0.0
  0
LINE
  8
0
  6
CONTINUOUS
 62
     7
  5
78B
 10
-433.7
 20
252.25
 30
0.0
 11
-428.7
 21
252.25
 31
0.0
  0
LINE
  8
0
  6
CONTINUOUS
 62
     7
  5
78C
 10
-427.0
 20
242.25
 30
0.0
 11
-424.8
 21
242.25
 31
0.0
  0
LINE
  8
0
  6
CONTINUOUS
 62
     7
  5
78D
 10
-427.0
 20
242.25
 30
0.0
 11
-424.957174
 21
242.446829
 31
0.0
  0
ARC
  8
0
  6
CONTINUOUS
 62
     7
  5
78E
 10
-426.861023
 20
254.51693
 30
0.0
 40
12.267717
 50
253.061146
 51
269.3509
210
0.0
220
0.0
230
1.0
  0
LINE
  8
0
  6
CONTINUOUS
 62
     7
  5
78F
 10
-427.0
 20
242.25
 30
0.0
 11
-432.152851
 21
242.25
 31
0.0
  0
ARC
  8
0
  6
CONTINUOUS
 62
     7
  5
790
 10
-432.271264
 20
245.674146
 30
0.0
 40
3.426193
 50
271.980599
 51
302.403649
210
0.0
220
0.0
230
1.0
  0
LINE
  8
0
  6
CONTINUOUS
 62
     7
  5
791
 10
-430.435234
 20
242.781433
 30
0.0
 11
-430.435234
 21
245.718567
 31
0.0
  0
ARC
  8
0
  6
CONTINUOUS
 62
     7
  5
792
 10
-426.864671
 20
234.006652
 30
0.0
 40
12.244096
 50
90.63328
 51
106.954674
210
0.0
220
0.0
230
1.0
  0
LINE
  8
0
  6
CONTINUOUS
 62
     7
  5
793
 10
-424.999674
 20
246.061065
 30
0.0
 11
-427.0
 21
246.25
 31
0.0
  0
LINE
  8
0
  6
CONTINUOUS
 62
     7
  5
794
 10
-427.0
 20
252.25
 30
0.0
 11
-424.999685
 21
252.438933
 31
0.0
  0
ARC
  8
0
  6
CONTINUOUS
 62
     7
  5
795
 10
-426.861023
 20
264.51693
 30
0.0
 40
12.267717
 50
253.061146
 51
269.3509
210
0.0
220
0.0
230
1.0
  0
LINE
  8
0
  6
CONTINUOUS
 62
     7
  5
796
 10
-430.435234
 20
252.781433
 30
0.0
 11
-430.435234
 21
255.718567
 31
0.0
  0
ARC
  8
0
  6
CONTINUOUS
 62
     7
  5
797
 10
-426.864671
 20
244.006652
 30
0.0
 40
12.244096
 50
90.63328
 51
106.954674
210
0.0
220
0.0
230
1.0
  0
LINE
  8
0
  6
CONTINUOUS
 62
     7
  5
798
 10
-424.999674
 20
256.061065
 30
0.0
 11
-427.0
 21
256.25
 31
0.0
  0
LINE
  8
0
  6
CONTINUOUS
 62
     7
  5
799
 10
-427.0
 20
256.25
 30
0.0
 11
-425.0
 21
256.25
 31
0.0
  0
ARC
  8
0
  6
CONTINUOUS
 62
     7
  5
79A
 10
-432.271264
 20
255.674146
 30
0.0
 40
3.426193
 50
271.980599
 51
302.403649
210
0.0
220
0.0
230
1.0
  0
ARC
  8
0
  6
CONTINUOUS
 62
     7
  5
79B
 10
-432.274456
 20
242.815537
 30
0.0
 40
3.436615
 50
57.643593
 51
87.97216
210
0.0
220
0.0
230
1.0
  0
ARC
  8
0
  6
CONTINUOUS
 62
     7
  5
79C
 10
-432.274456
 20
252.815537
 30
0.0
 40
3.436615
 50
57.643593
 51
87.97216
210
0.0
220
0.0
230
1.0
  0
LINE
  8
0
  6
CONTINUOUS
 62
     7
  5
79D
 10
-427.0
 20
256.25
 30
0.0
 11
-432.152851
 21
256.25
 31
0.0
  0
ARC
  8
0
  6
CONTINUOUS
 62
     7
  5
79E
 10
-432.031246
 20
255.684463
 30
0.0
 40
3.436615
 50
237.643593
 51
267.97216
210
0.0
220
0.0
230
1.0
  0
LINE
  8
0
  6
CONTINUOUS
 62
     7
  5
79F
 10
-433.870468
 20
252.781433
 30
0.0
 11
-433.870468
 21
255.718567
 31
0.0
  0
ARC
  8
0
  6
CONTINUOUS
 62
     7
  5
7A0
 10
-432.034438
 20
252.825854
 30
0.0
 40
3.426193
 50
91.980599
 51
122.403649
210
0.0
220
0.0
230
1.0
  0
ARC
  8
0
  6
CONTINUOUS
 62
     7
  5
7A1
 10
-432.031246
 20
245.684463
 30
0.0
 40
3.436615
 50
237.643593
 51
267.97216
210
0.0
220
0.0
230
1.0
  0
LINE
  8
0
  6
CONTINUOUS
 62
     7
  5
7A2
 10
-433.870468
 20
242.781433
 30
0.0
 11
-433.870468
 21
245.718567
 31
0.0
  0
ARC
  8
0
  6
CONTINUOUS
 62
     7
  5
7A3
 10
-432.034438
 20
242.825854
 30
0.0
 40
3.426193
 50
91.980599
 51
122.403649
210
0.0
220
0.0
230
1.0
  0
LINE
  8
0
  6
CONTINUOUS
 62
     7
  5
7A4
 10
-425.0
 20
256.709
 30
0.0
 11
-431.0
 21
256.709
 31
0.0
  0
LINE
  8
0
  6
CONTINUOUS
 62
     7
  5
7A5
 10
-423.541
 20
227.25
 30
0.0
 11
-430.459
 21
227.25
 31
0.0
  0
LINE
  8
0
  6
CONTINUOUS
 62
     7
  5
7A6
 10
-431.0
 20
227.791
 30
0.0
 11
-423.0
 21
227.791
 31
0.0
  0
LINE
  8
0
  6
CONTINUOUS
 62
     7
  5
7A7
 10
-430.459
 20
257.25
 30
0.0
 11
-425.0
 21
257.25
 31
0.0
  0
LINE
  8
0
  6
CONTINUOUS
 62
     7
  5
7A8
 10
-432.95
 20
242.25
 30
0.0
 11
-432.152851
 21
242.25
 31
0.0
  0
LINE
  8
0
  6
CONTINUOUS
 62
     7
  5
7A9
 10
-432.95
 20
256.25
 30
0.0
 11
-432.152851
 21
256.25
 31
0.0
  0
LINE
  8
0
  6
CONTINUOUS
 62
     7
  5
7AA
 10
-430.5
 20
209.75
 30
0.0
 11
-430.5
 21
218.25
 31
0.0
  0
LINE
  8
0
  6
CONTINUOUS
 62
     7
  5
7AB
 10
-419.0
 20
213.149973
 30
0.0
 11
-419.0
 21
218.25
 31
0.0
  0
LINE
  8
0
  6
CONTINUOUS
 62
     7
  5
7AC
 10
-430.5
 20
218.25
 30
0.0
 11
-430.5
 21
226.75
 31
0.0
  0
LINE
  8
0
  6
CONTINUOUS
 62
     7
  5
7AD
 10
-419.0
 20
218.25
 30
0.0
 11
-419.0
 21
223.349973
 31
0.0
  0
LINE
  8
0
  6
CONTINUOUS
 62
     7
  5
7AE
 10
-433.25
 20
216.0
 30
0.0
 11
-433.25
 21
220.5
 31
0.0
  0
LINE
  8
0
  6
CONTINUOUS
 62
     7
  5
7AF
 10
-418.899993
 20
194.25
 30
0.0
 11
-439.5
 21
194.25
 31
0.0
  0
LINE
  8
0
  6
CONTINUOUS
 62
     7
  5
7B0
 10
-419.0
 20
187.25
 30
0.0
 11
-418.899993
 21
187.25
 31
0.0
  0
LINE
  8
0
  6
CONTINUOUS
 62
     7
  5
7B1
 10
-419.0
 20
186.25
 30
0.0
 11
-419.0
 21
187.25
 31
0.0
  0
LINE
  8
0
  6
CONTINUOUS
 62
     7
  5
7B2
 10
-435.5
 20
184.25
 30
0.0
 11
-419.0
 21
184.25
 31
0.0
  0
LINE
  8
0
  6
CONTINUOUS
 62
     7
  5
7B3
 10
-439.5
 20
183.25
 30
0.0
 11
-435.5
 21
183.25
 31
0.0
  0
LINE
  8
0
  6
CONTINUOUS
 62
     7
  5
7B4
 10
-435.5
 20
183.25
 30
0.0
 11
-435.5
 21
184.25
 31
0.0
  0
LINE
  8
0
  6
CONTINUOUS
 62
     7
  5
7B5
 10
-439.5
 20
194.25
 30
0.0
 11
-439.5
 21
183.25
 31
0.0
  0
LINE
  8
0
  6
CONTINUOUS
 62
     7
  5
7B6
 10
-438.0
 20
195.75
 30
0.0
 11
-429.0
 21
195.75
 31
0.0
  0
LINE
  8
0
  6
CONTINUOUS
 62
     7
  5
7B7
 10
-429.0
 20
195.75
 30
0.0
 11
-420.0
 21
195.75
 31
0.0
  0
LINE
  8
0
  6
CONTINUOUS
 62
     7
  5
7B8
 10
-436.505553
 20
201.05
 30
0.0
 11
-436.505553
 21
195.75
 31
0.0
  0
LINE
  8
0
  6
CONTINUOUS
 62
     7
  5
7B9
 10
-436.505553
 20
201.05
 30
0.0
 11
-432.752777
 21
201.05
 31
0.0
  0
LINE
  8
0
  6
CONTINUOUS
 62
     7
  5
7BA
 10
-432.752777
 20
201.05
 30
0.0
 11
-432.752777
 21
195.75
 31
0.0
  0
LINE
  8
0
  6
CONTINUOUS
 62
     7
  5
7BB
 10
-425.247223
 20
201.05
 30
0.0
 11
-425.247223
 21
195.75
 31
0.0
  0
LINE
  8
0
  6
CONTINUOUS
 62
     7
  5
7BC
 10
-421.494447
 20
201.05
 30
0.0
 11
-421.494447
 21
195.75
 31
0.0
  0
LINE
  8
0
  6
CONTINUOUS
 62
     7
  5
7BD
 10
-425.247223
 20
201.05
 30
0.0
 11
-421.494447
 21
201.05
 31
0.0
  0
LINE
  8
0
  6
CONTINUOUS
 62
     7
  5
7BE
 10
-432.752777
 20
201.05
 30
0.0
 11
-425.247223
 21
201.05
 31
0.0
  0
LINE
  8
0
  6
CONTINUOUS
 62
     7
  5
7BF
 10
-425.625
 20
170.75
 30
0.0
 11
-429.0
 21
170.75
 31
0.0
  0
LINE
  8
0
  6
CONTINUOUS
 62
     7
  5
7C0
 10
-429.0
 20
170.75
 30
0.0
 11
-432.375
 21
170.75
 31
0.0
  0
LINE
  8
0
  6
CONTINUOUS
 62
     7
  5
7C1
 10
-433.0
 20
171.375
 30
0.0
 11
-425.0
 21
171.375
 31
0.0
  0
LINE
  8
0
  6
CONTINUOUS
 62
     7
  5
7C2
 10
-253.099993
 20
194.25
 30
0.0
 11
-232.5
 21
194.25
 31
0.0
  0
LINE
  8
0
  6
CONTINUOUS
 62
     7
  5
7C3
 10
-232.5
 20
194.25
 30
0.0
 11
-232.5
 21
183.25
 31
0.0
  0
LINE
  8
0
  6
CONTINUOUS
 62
     7
  5
7C4
 10
-236.5
 20
183.25
 30
0.0
 11
-236.5
 21
184.25
 31
0.0
  0
LINE
  8
0
  6
CONTINUOUS
 62
     7
  5
7C5
 10
-236.5
 20
184.25
 30
0.0
 11
-253.0
 21
184.25
 31
0.0
  0
LINE
  8
0
  6
CONTINUOUS
 62
     7
  5
7C6
 10
-253.0
 20
187.25
 30
0.0
 11
-253.099993
 21
187.25
 31
0.0
  0
LINE
  8
0
  6
CONTINUOUS
 62
     7
  5
7C7
 10
-232.5
 20
183.25
 30
0.0
 11
-236.5
 21
183.25
 31
0.0
  0
LINE
  8
0
  6
CONTINUOUS
 62
     7
  5
7C8
 10
-253.0
 20
186.25
 30
0.0
 11
-253.0
 21
187.25
 31
0.0
  0
LINE
  8
0
  6
CONTINUOUS
 62
     7
  5
7C9
 10
-234.0
 20
195.75
 30
0.0
 11
-243.0
 21
195.75
 31
0.0
  0
LINE
  8
0
  6
CONTINUOUS
 62
     7
  5
7CA
 10
-243.0
 20
195.75
 30
0.0
 11
-252.0
 21
195.75
 31
0.0
  0
LINE
  8
0
  6
CONTINUOUS
 62
     7
  5
7CB
 10
-246.752777
 20
201.05
 30
0.0
 11
-246.752777
 21
195.75
 31
0.0
  0
LINE
  8
0
  6
CONTINUOUS
 62
     7
  5
7CC
 10
-239.247223
 20
201.05
 30
0.0
 11
-246.752777
 21
201.05
 31
0.0
  0
LINE
  8
0
  6
CONTINUOUS
 62
     7
  5
7CD
 10
-239.247223
 20
201.05
 30
0.0
 11
-239.247223
 21
195.75
 31
0.0
  0
LINE
  8
0
  6
CONTINUOUS
 62
     7
  5
7CE
 10
-235.494447
 20
201.05
 30
0.0
 11
-239.247223
 21
201.05
 31
0.0
  0
LINE
  8
0
  6
CONTINUOUS
 62
     7
  5
7CF
 10
-235.494447
 20
201.05
 30
0.0
 11
-235.494447
 21
195.75
 31
0.0
  0
LINE
  8
0
  6
CONTINUOUS
 62
     7
  5
7D0
 10
-250.505553
 20
201.05
 30
0.0
 11
-250.505553
 21
195.75
 31
0.0
  0
LINE
  8
0
  6
CONTINUOUS
 62
     7
  5
7D1
 10
-246.752777
 20
201.05
 30
0.0
 11
-250.505553
 21
201.05
 31
0.0
  0
LINE
  8
0
  6
CONTINUOUS
 62
     7
  5
7D2
 10
-239.0
 20
171.375
 30
0.0
 11
-247.0
 21
171.375
 31
0.0
  0
LINE
  8
0
  6
CONTINUOUS
 62
     7
  5
7D3
 10
-246.375
 20
170.75
 30
0.0
 11
-243.0
 21
170.75
 31
0.0
  0
LINE
  8
0
  6
CONTINUOUS
 62
     7
  5
7D4
 10
-243.0
 20
170.75
 30
0.0
 11
-239.625
 21
170.75
 31
0.0
  0
CIRCLE
  8
0
  6
CONTINUOUS
 62
     7
  5
7D5
 10
-397.900007
 20
215.15
 30
0.0
 40
6.0
210
0.0
220
0.0
230
1.0
  0
CIRCLE
  8
0
  6
CONTINUOUS
 62
     7
  5
7D6
 10
-397.900007
 20
215.15
 30
0.0
 40
10.499999
210
0.0
220
0.0
230
1.0
  0
CIRCLE
  8
0
  6
CONTINUOUS
 62
     7
  5
7D7
 10
-274.099993
 20
215.15
 30
0.0
 40
6.0
210
0.0
220
0.0
230
1.0
  0
CIRCLE
  8
0
  6
CONTINUOUS
 62
     7
  5
7D8
 10
-274.099993
 20
215.15
 30
0.0
 40
10.5
210
0.0
220
0.0
230
1.0
  0
LINE
  8
0
  6
CONTINUOUS
 62
     7
  5
7D9
 10
-274.099993
 20
210.531198
 30
0.0
 11
-270.099993
 21
212.840599
 31
0.0
  0
LINE
  8
0
  6
CONTINUOUS
 62
     7
  5
7DA
 10
-270.099993
 20
217.459401
 30
0.0
 11
-274.099993
 21
219.768802
 31
0.0
  0
LINE
  8
0
  6
CONTINUOUS
 62
     7
  5
7DB
 10
-274.099993
 20
219.768802
 30
0.0
 11
-278.099993
 21
217.459401
 31
0.0
  0
LINE
  8
0
  6
CONTINUOUS
 62
     7
  5
7DC
 10
-278.099993
 20
217.459401
 30
0.0
 11
-278.099993
 21
212.840599
 31
0.0
  0
LINE
  8
0
  6
CONTINUOUS
 62
     7
  5
7DD
 10
-278.099993
 20
212.840599
 30
0.0
 11
-274.099993
 21
210.531198
 31
0.0
  0
LINE
  8
0
  6
CONTINUOUS
 62
     7
  5
7DE
 10
-270.099993
 20
212.840599
 30
0.0
 11
-270.099993
 21
217.459401
 31
0.0
  0
LINE
  8
0
  6
CONTINUOUS
 62
     7
  5
7DF
 10
-397.900007
 20
210.531198
 30
0.0
 11
-401.900007
 21
212.840599
 31
0.0
  0
LINE
  8
0
  6
CONTINUOUS
 62
     7
  5
7E0
 10
-401.900007
 20
212.840599
 30
0.0
 11
-401.900007
 21
217.459401
 31
0.0
  0
LINE
  8
0
  6
CONTINUOUS
 62
     7
  5
7E1
 10
-393.900007
 20
212.840599
 30
0.0
 11
-397.900007
 21
210.531198
 31
0.0
  0
LINE
  8
0
  6
CONTINUOUS
 62
     7
  5
7E2
 10
-401.900007
 20
217.459401
 30
0.0
 11
-397.900007
 21
219.768802
 31
0.0
  0
LINE
  8
0
  6
CONTINUOUS
 62
     7
  5
7E3
 10
-397.900007
 20
219.768802
 30
0.0
 11
-393.900007
 21
217.459401
 31
0.0
  0
LINE
  8
0
  6
CONTINUOUS
 62
     7
  5
7E4
 10
-393.900007
 20
217.459401
 30
0.0
 11
-393.900007
 21
212.840599
 31
0.0
  0
LINE
  8
0
  6
CONTINUOUS
 62
     7
  5
7E5
 10
-410.899993
 20
236.15
 30
0.0
 11
-261.099993
 21
236.15
 31
0.0
  0
ARC
  8
0
  6
CONTINUOUS
 62
     7
  5
7E6
 10
-261.099993
 20
228.15
 30
0.0
 40
8.0
 50
0.0
 51
90.0
210
0.0
220
0.0
230
1.0
  0
LINE
  8
0
  6
CONTINUOUS
 62
     7
  5
7E7
 10
-253.099993
 20
228.15
 30
0.0
 11
-253.099993
 21
184.75
 31
0.0
  0
ARC
  8
0
  6
CONTINUOUS
 62
     7
  5
7E8
 10
-254.099993
 20
184.75
 30
0.0
 40
1.0
 50
270.0
 51
360.0
210
0.0
220
0.0
230
1.0
  0
LINE
  8
0
  6
CONTINUOUS
 62
     7
  5
7E9
 10
-254.099993
 20
183.75
 30
0.0
 11
-417.899993
 21
183.75
 31
0.0
  0
ARC
  8
0
  6
CONTINUOUS
 62
     7
  5
7EA
 10
-417.899993
 20
184.75
 30
0.0
 40
1.0
 50
180.0
 51
270.0
210
0.0
220
0.0
230
1.0
  0
LINE
  8
0
  6
CONTINUOUS
 62
     7
  5
7EB
 10
-418.899993
 20
184.75
 30
0.0
 11
-418.899993
 21
228.15
 31
0.0
  0
ARC
  8
0
  6
CONTINUOUS
 62
     7
  5
7EC
 10
-410.899993
 20
228.15
 30
0.0
 40
8.0
 50
90.0
 51
180.0
210
0.0
220
0.0
230
1.0
  0
ARC
  8
0
  6
CONTINUOUS
 62
     7
  5
7ED
 10
-417.899993
 20
184.75
 30
0.0
 40
1.0
 50
180.0
 51
270.0
210
0.0
220
0.0
230
1.0
  0
ARC
  8
0
  6
CONTINUOUS
 62
     7
  5
7EE
 10
-410.899993
 20
228.15
 30
0.0
 40
8.0
 50
90.0
 51
180.0
210
0.0
220
0.0
230
1.0
  0
LINE
  8
0
  6
CONTINUOUS
 62
     7
  5
7EF
 10
-418.899993
 20
184.75
 30
0.0
 11
-418.899993
 21
186.685904
 31
0.0
  0
LINE
  8
0
  6
CONTINUOUS
 62
     7
  5
7F0
 10
-418.899993
 20
186.685904
 30
0.0
 11
-418.899993
 21
205.98186
 31
0.0
  0
LINE
  8
0
  6
CONTINUOUS
 62
     7
  5
7F1
 10
-418.899993
 20
205.98186
 30
0.0
 11
-418.899993
 21
213.585876
 31
0.0
  0
LINE
  8
0
  6
CONTINUOUS
 62
     7
  5
7F2
 10
-418.899993
 20
213.585876
 30
0.0
 11
-418.899993
 21
222.914069
 31
0.0
  0
LINE
  8
0
  6
CONTINUOUS
 62
     7
  5
7F3
 10
-418.899993
 20
222.914069
 30
0.0
 11
-418.899993
 21
228.15
 31
0.0
  0
LINE
  8
0
  6
CONTINUOUS
 62
     7
  5
7F4
 10
-419.0
 20
228.25
 30
0.0
 11
-419.0
 21
223.349973
 31
0.0
  0
ARC
  8
0
  6
CONTINUOUS
 62
     7
  5
7F5
 10
-411.0
 20
228.25
 30
0.0
 40
8.0
 50
90.0
 51
180.0
210
0.0
220
0.0
230
1.0
  0
LINE
  8
0
  6
CONTINUOUS
 62
     7
  5
7F6
 10
-411.0
 20
236.25
 30
0.0
 11
-412.5
 21
236.25
 31
0.0
  0
LINE
  8
0
  6
CONTINUOUS
 62
     7
  5
7F7
 10
-412.5
 20
236.25
 30
0.0
 11
-412.5
 21
270.75
 31
0.0
  0
LINE
  8
0
  6
CONTINUOUS
 62
     7
  5
7F8
 10
-408.5
 20
274.75
 30
0.0
 11
-412.5
 21
270.75
 31
0.0
  0
LINE
  8
0
  6
CONTINUOUS
 62
     7
  5
7F9
 10
-408.5
 20
274.75
 30
0.0
 11
-263.5
 21
274.75
 31
0.0
  0
LINE
  8
0
  6
CONTINUOUS
 62
     7
  5
7FA
 10
-259.5
 20
270.75
 30
0.0
 11
-263.5
 21
274.75
 31
0.0
  0
LINE
  8
0
  6
CONTINUOUS
 62
     7
  5
7FB
 10
-259.5
 20
270.75
 30
0.0
 11
-259.5
 21
236.25
 31
0.0
  0
LINE
  8
0
  6
CONTINUOUS
 62
     7
  5
7FC
 10
-259.5
 20
236.25
 30
0.0
 11
-261.0
 21
236.25
 31
0.0
  0
ARC
  8
0
  6
CONTINUOUS
 62
     7
  5
7FD
 10
-261.0
 20
228.25
 30
0.0
 40
8.0
 50
0.0
 51
90.0
210
0.0
220
0.0
230
1.0
  0
LINE
  8
0
  6
CONTINUOUS
 62
     7
  5
7FE
 10
-253.0
 20
223.349973
 30
0.0
 11
-253.0
 21
228.25
 31
0.0
  0
ARC
  8
0
  6
CONTINUOUS
 62
     7
  5
7FF
 10
-254.0
 20
223.349973
 30
0.0
 40
1.0
 50
334.158941
 51
0.0
210
0.0
220
0.0
230
1.0
  0
ARC
  8
0
  6
CONTINUOUS
 62
     7
  5
800
 10
-418.0
 20
223.349973
 30
0.0
 40
1.0
 50
180.0
 51
205.842807
210
0.0
220
0.0
230
1.0
  0
ARC
  8
0
  6
CONTINUOUS
 62
     7
  5
801
 10
-391.528981
 20
186.25
 30
0.0
 40
3.0
 50
270.0
 51
290.0
210
0.0
220
0.0
230
1.0
  0
LINE
  8
0
  6
CONTINUOUS
 62
     7
  5
802
 10
-418.0
 20
183.25
 30
0.0
 11
-391.528981
 21
183.25
 31
0.0
  0
ARC
  8
0
  6
CONTINUOUS
 62
     7
  5
803
 10
-418.0
 20
184.25
 30
0.0
 40
1.0
 50
180.0
 51
270.0
210
0.0
220
0.0
230
1.0
  0
LINE
  8
0
  6
CONTINUOUS
 62
     7
  5
804
 10
-419.0
 20
186.25
 30
0.0
 11
-419.0
 21
184.25
 31
0.0
  0
LINE
  8
0
  6
CONTINUOUS
 62
     7
  5
805
 10
-390.502921
 20
183.430922
 30
0.0
 11
-389.626261
 21
183.75
 31
0.0
  0
ARC
  8
0
  6
CONTINUOUS
 62
     7
  5
806
 10
-418.0
 20
186.25
 30
0.0
 40
1.0
 50
154.157193
 51
180.0
210
0.0
220
0.0
230
1.0
  0
LINE
  8
0
  6
CONTINUOUS
 62
     7
  5
807
 10
-419.0
 20
213.149973
 30
0.0
 11
-419.0
 21
206.75
 31
0.0
  0
ARC
  8
0
  6
CONTINUOUS
 62
     7
  5
808
 10
-416.0
 20
206.75
 30
0.0
 40
3.0
 50
180.0
 51
194.835608
210
0.0
220
0.0
230
1.0
  0
ARC
  8
0
  6
CONTINUOUS
 62
     7
  5
809
 10
-418.0
 20
213.149973
 30
0.0
 40
1.0
 50
154.157193
 51
180.0
210
0.0
220
0.0
230
1.0
  0
LINE
  8
0
  6
CONTINUOUS
 62
     7
  5
80A
 10
-253.0
 20
184.25
 30
0.0
 11
-253.0
 21
186.25
 31
0.0
  0
ARC
  8
0
  6
CONTINUOUS
 62
     7
  5
80B
 10
-254.0
 20
184.25
 30
0.0
 40
1.0
 50
270.0
 51
360.0
210
0.0
220
0.0
230
1.0
  0
LINE
  8
0
  6
CONTINUOUS
 62
     7
  5
80C
 10
-280.471019
 20
183.25
 30
0.0
 11
-254.0
 21
183.25
 31
0.0
  0
ARC
  8
0
  6
CONTINUOUS
 62
     7
  5
80D
 10
-280.471019
 20
186.25
 30
0.0
 40
3.0
 50
250.0
 51
270.0
210
0.0
220
0.0
230
1.0
  0
ARC
  8
0
  6
CONTINUOUS
 62
     7
  5
80E
 10
-254.0
 20
186.25
 30
0.0
 40
1.0
 50
0.0
 51
25.841059
210
0.0
220
0.0
230
1.0
  0
LINE
  8
0
  6
CONTINUOUS
 62
     7
  5
80F
 10
-282.373739
 20
183.75
 30
0.0
 11
-281.497079
 21
183.430922
 31
0.0
  0
ARC
  8
0
  6
CONTINUOUS
 62
     7
  5
810
 10
-254.0
 20
213.149973
 30
0.0
 40
1.0
 50
360.0
 51
25.841059
210
0.0
220
0.0
230
1.0
  0
LINE
  8
0
  6
CONTINUOUS
 62
     7
  5
811
 10
-253.0
 20
206.75
 30
0.0
 11
-253.0
 21
213.149973
 31
0.0
  0
ARC
  8
0
  6
CONTINUOUS
 62
     7
  5
812
 10
-256.0
 20
206.75
 30
0.0
 40
3.0
 50
345.165384
 51
0.0
210
0.0
220
0.0
230
1.0
  0
POLYLINE
  8
0
  6
CONTINUOUS
 62
     7
  5
813
 66
     1
 10
0.0
 20
0.0
 30
0.0
 40
0.5
 41
0.5
  0
VERTEX
  8
0
 62
     7
  5
814
 10
-431.441068
 20
267.274791
 30
0.0
 42
-0.199197
  0
VERTEX
  8
0
 62
     7
  5
815
 10
-429.254319
 20
263.557395
 30
0.0
 42
-0.067633
  0
VERTEX
  8
0
 62
     7
  5
816
 10
-428.45
 20
257.25
 30
0.0
  0
SEQEND
  8
0
  5
817
  0
POLYLINE
  8
0
  6
CONTINUOUS
 62
     7
  5
818
 66
     1
 10
0.0
 20
0.0
 30
0.0
 40
0.5
 41
0.5
  0
VERTEX
  8
0
 62
     7
  5
819
 10
-425.55
 20
257.25
 30
0.0
 42
0.140825
  0
VERTEX
  8
0
 62
     7
  5
81A
 10
-428.157053
 20
268.115898
 30
0.0
 42
0.161784
  0
VERTEX
  8
0
 62
     7
  5
81B
 10
-430.532283
 20
270.028717
 30
0.0
  0
SEQEND
  8
0
  5
81C
  0
LINE
  8
0
  6
CONTINUOUS
 62
     7
  5
81D
 10
-431.0
 20
256.709
 30
0.0
 11
-431.0
 21
256.25
 31
0.0
  0
LINE
  8
0
  6
CONTINUOUS
 62
     7
  5
81E
 10
-431.0
 20
227.791
 30
0.0
 11
-430.459
 21
227.25
 31
0.0
  0
LINE
  8
0
  6
CONTINUOUS
 62
     7
  5
81F
 10
-423.541
 20
227.25
 30
0.0
 11
-423.0
 21
227.791
 31
0.0
  0
LINE
  8
0
  6
CONTINUOUS
 62
     7
  5
820
 10
-431.0
 20
242.25
 30
0.0
 11
-431.0
 21
227.791
 31
0.0
  0
LINE
  8
0
  6
CONTINUOUS
 62
     7
  5
821
 10
-423.0
 20
227.791
 30
0.0
 11
-423.0
 21
242.15
 31
0.0
  0
LINE
  8
0
  6
CONTINUOUS
 62
     7
  5
822
 10
-430.459
 20
257.25
 30
0.0
 11
-431.0
 21
256.709
 31
0.0
  0
LINE
  8
0
  6
CONTINUOUS
 62
     7
  5
823
 10
-433.870468
 20
242.781433
 30
0.0
 11
-432.95
 21
242.25
 31
0.0
  0
LINE
  8
0
  6
CONTINUOUS
 62
     7
  5
824
 10
-433.870468
 20
252.781433
 30
0.0
 11
-432.95
 21
252.25
 31
0.0
  0
LINE
  8
0
  6
CONTINUOUS
 62
     7
  5
825
 10
-432.95
 20
256.25
 30
0.0
 11
-433.870468
 21
255.718567
 31
0.0
  0
LINE
  8
0
  6
CONTINUOUS
 62
     7
  5
826
 10
-432.95
 20
246.25
 30
0.0
 11
-433.870468
 21
245.718567
 31
0.0
  0
LINE
  8
0
  6
CONTINUOUS
 62
     7
  5
827
 10
-430.5
 20
209.75
 30
0.0
 11
-419.0
 21
209.75
 31
0.0
  0
LINE
  8
0
  6
CONTINUOUS
 62
     7
  5
828
 10
-419.0
 20
226.75
 30
0.0
 11
-430.5
 21
226.75
 31
0.0
  0
ARC
  8
0
  6
CONTINUOUS
 62
     7
  5
829
 10
-428.693182
 20
218.25
 30
0.0
 40
5.082036
 50
206.278575
 51
249.174047
210
0.0
220
0.0
230
1.0
  0
ARC
  8
0
  6
CONTINUOUS
 62
     7
  5
82A
 10
-428.693182
 20
218.25
 30
0.0
 40
5.082036
 50
110.825953
 51
153.721425
210
0.0
220
0.0
230
1.0
  0
LINE
  8
0
  6
CONTINUOUS
 62
     7
  5
82B
 10
-419.0
 20
214.225
 30
0.0
 11
-418.899993
 21
214.225
 31
0.0
  0
LINE
  8
0
  6
CONTINUOUS
 62
     7
  5
82C
 10
-418.899993
 20
222.275
 30
0.0
 11
-419.0
 21
222.275
 31
0.0
  0
LINE
  8
0
  6
CONTINUOUS
 62
     7
  5
82D
 10
-438.0
 20
195.75
 30
0.0
 11
-438.0
 21
194.25
 31
0.0
  0
LINE
  8
0
  6
CONTINUOUS
 62
     7
  5
82E
 10
-420.0
 20
194.25
 30
0.0
 11
-420.0
 21
195.75
 31
0.0
  0
LINE
  8
0
  6
CONTINUOUS
 62
     7
  5
82F
 10
-433.0
 20
171.375
 30
0.0
 11
-432.375
 21
170.75
 31
0.0
  0
LINE
  8
0
  6
CONTINUOUS
 62
     7
  5
830
 10
-425.625
 20
170.75
 30
0.0
 11
-425.0
 21
171.375
 31
0.0
  0
LINE
  8
0
  6
CONTINUOUS
 62
     7
  5
831
 10
-433.0
 20
184.25
 30
0.0
 11
-433.0
 21
171.375
 31
0.0
  0
LINE
  8
0
  6
CONTINUOUS
 62
     7
  5
832
 10
-425.0
 20
171.375
 30
0.0
 11
-425.0
 21
184.25
 31
0.0
  0
LINE
  8
0
  6
CONTINUOUS
 62
     7
  5
833
 10
-252.0
 20
195.75
 30
0.0
 11
-252.0
 21
194.25
 31
0.0
  0
LINE
  8
0
  6
CONTINUOUS
 62
     7
  5
834
 10
-234.0
 20
194.25
 30
0.0
 11
-234.0
 21
195.75
 31
0.0
  0
LINE
  8
0
  6
CONTINUOUS
 62
     7
  5
835
 10
-247.0
 20
184.25
 30
0.0
 11
-247.0
 21
171.375
 31
0.0
  0
LINE
  8
0
  6
CONTINUOUS
 62
     7
  5
836
 10
-239.0
 20
171.375
 30
0.0
 11
-239.0
 21
184.25
 31
0.0
  0
LINE
  8
0
  6
CONTINUOUS
 62
     7
  5
837
 10
-247.0
 20
171.375
 30
0.0
 11
-246.375
 21
170.75
 31
0.0
  0
LINE
  8
0
  6
CONTINUOUS
 62
     7
  5
838
 10
-239.625
 20
170.75
 30
0.0
 11
-239.0
 21
171.375
 31
0.0
  0
ENDBLK
  8
0
  5
839
  0
BLOCK
  8
0
  5
83C
  2
AID3733
 70
     0
 10
0.0
 20
0.0
 30
0.0
  3
#auxiliary draft view
  0
LINE
  8
0
  6
CONTINUOUS
 62
     7
  5
83D
 10
935.0
 20
236.25
 30
0.0
 11
935.0
 21
236.15
 31
0.0
  0
LINE
  8
0
  6
CONTINUOUS
 62
     7
  5
83E
 10
933.0
 20
236.15
 30
0.0
 11
933.0
 21
236.25
 31
0.0
  0
LINE
  8
0
  6
CONTINUOUS
 62
     7
  5
83F
 10
961.12
 20
236.15
 30
0.0
 11
961.12
 21
236.25
 31
0.0
  0
ARC
  8
0
  6
CONTINUOUS
 62
     7
  5
840
 10
988.0
 20
233.52
 30
0.0
 40
4.6
 50
143.595773
 51
145.12841
210
0.0
220
0.0
230
1.0
  0
ARC
  8
0
  6
CONTINUOUS
 62
     7
  5
841
 10
988.0
 20
233.52
 30
0.0
 40
4.6
 50
34.87159
 51
36.404227
210
0.0
220
0.0
230
1.0
  0
LINE
  8
0
  6
CONTINUOUS
 62
     7
  5
842
 10
1063.0
 20
276.25
 30
0.0
 11
1063.0
 21
284.25
 31
0.0
  0
LINE
  8
0
  6
CONTINUOUS
 62
     7
  5
843
 10
1015.0
 20
274.75
 30
0.0
 11
1015.0
 21
276.25
 31
0.0
  0
LINE
  8
0
  6
CONTINUOUS
 62
     7
  5
844
 10
933.0
 20
274.75
 30
0.0
 11
933.0
 21
276.25
 31
0.0
  0
LINE
  8
0
  6
CONTINUOUS
 62
     7
  5
845
 10
933.0
 20
276.25
 30
0.0
 11
885.0
 21
276.25
 31
0.0
  0
LINE
  8
0
  6
CONTINUOUS
 62
     7
  5
846
 10
885.0
 20
276.25
 30
0.0
 11
885.0
 21
289.25
 31
0.0
  0
LINE
  8
0
  6
CONTINUOUS
 62
     7
  5
847
 10
1031.0
 20
289.25
 30
0.0
 11
885.0
 21
289.25
 31
0.0
  0
LINE
  8
0
  6
CONTINUOUS
 62
     7
  5
848
 10
1031.0
 20
289.25
 30
0.0
 11
1031.0
 21
284.25
 31
0.0
  0
LINE
  8
0
  6
CONTINUOUS
 62
     7
  5
849
 10
1063.0
 20
284.25
 30
0.0
 11
1031.0
 21
284.25
 31
0.0
  0
LINE
  8
0
  6
CONTINUOUS
 62
     7
  5
84A
 10
1063.0
 20
276.25
 30
0.0
 11
1015.0
 21
276.25
 31
0.0
  0
LINE
  8
0
  6
CONTINUOUS
 62
     7
  5
84B
 10
1050.5
 20
241.65
 30
0.0
 11
1054.75
 21
241.65
 31
0.0
  0
LINE
  8
0
  6
CONTINUOUS
 62
     7
  5
84C
 10
1062.2
 20
262.15
 30
0.0
 11
1062.2
 21
271.25
 31
0.0
  0
LINE
  8
0
  6
CONTINUOUS
 62
     7
  5
84D
 10
1062.2
 20
242.65
 30
0.0
 11
1062.2
 21
254.35
 31
0.0
  0
ARC
  8
0
  6
CONTINUOUS
 62
     7
  5
84E
 10
1061.7
 20
242.65
 30
0.0
 40
0.5
 50
270.0
 51
360.0
210
0.0
220
0.0
230
1.0
  0
ARC
  8
0
  6
CONTINUOUS
 62
     7
  5
84F
 10
1057.8
 20
258.25
 30
0.0
 40
3.9
 50
90.0
 51
270.0
210
0.0
220
0.0
230
1.0
  0
LINE
  8
0
  6
CONTINUOUS
 62
     7
  5
850
 10
1054.75
 20
242.15
 30
0.0
 11
1061.7
 21
242.15
 31
0.0
  0
LINE
  8
0
  6
CONTINUOUS
 62
     7
  5
851
 10
1062.2
 20
262.15
 30
0.0
 11
1057.8
 21
262.15
 31
0.0
  0
LINE
  8
0
  6
CONTINUOUS
 62
     7
  5
852
 10
1057.8
 20
254.35
 30
0.0
 11
1062.2
 21
254.35
 31
0.0
  0
ARC
  8
0
  6
CONTINUOUS
 62
     7
  5
853
 10
1061.7
 20
271.25
 30
0.0
 40
0.5
 50
360.0
 51
90.0
210
0.0
220
0.0
230
1.0
  0
LINE
  8
0
  6
CONTINUOUS
 62
     7
  5
854
 10
1061.7
 20
271.75
 30
0.0
 11
1049.5
 21
271.75
 31
0.0
  0
LINE
  8
0
  6
CONTINUOUS
 62
     7
  5
855
 10
1054.75
 20
241.65
 30
0.0
 11
1054.75
 21
242.15
 31
0.0
  0
LINE
  8
0
  6
CONTINUOUS
 62
     7
  5
856
 10
897.5
 20
241.65
 30
0.0
 11
893.25
 21
241.65
 31
0.0
  0
LINE
  8
0
  6
CONTINUOUS
 62
     7
  5
857
 10
893.25
 20
241.65
 30
0.0
 11
893.25
 21
242.15
 31
0.0
  0
LINE
  8
0
  6
CONTINUOUS
 62
     7
  5
858
 10
893.25
 20
242.15
 30
0.0
 11
886.3
 21
242.15
 31
0.0
  0
ARC
  8
0
  6
CONTINUOUS
 62
     7
  5
859
 10
886.3
 20
242.65
 30
0.0
 40
0.5
 50
180.0
 51
270.0
210
0.0
220
0.0
230
1.0
  0
LINE
  8
0
  6
CONTINUOUS
 62
     7
  5
85A
 10
885.8
 20
242.65
 30
0.0
 11
885.8
 21
254.35
 31
0.0
  0
LINE
  8
0
  6
CONTINUOUS
 62
     7
  5
85B
 10
890.2
 20
254.35
 30
0.0
 11
885.8
 21
254.35
 31
0.0
  0
ARC
  8
0
  6
CONTINUOUS
 62
     7
  5
85C
 10
890.2
 20
258.25
 30
0.0
 40
3.9
 50
270.0
 51
90.0
210
0.0
220
0.0
230
1.0
  0
LINE
  8
0
  6
CONTINUOUS
 62
     7
  5
85D
 10
885.8
 20
262.15
 30
0.0
 11
890.2
 21
262.15
 31
0.0
  0
LINE
  8
0
  6
CONTINUOUS
 62
     7
  5
85E
 10
885.8
 20
262.15
 30
0.0
 11
885.8
 21
271.25
 31
0.0
  0
ARC
  8
0
  6
CONTINUOUS
 62
     7
  5
85F
 10
886.3
 20
271.25
 30
0.0
 40
0.5
 50
90.0
 51
180.0
210
0.0
220
0.0
230
1.0
  0
LINE
  8
0
  6
CONTINUOUS
 62
     7
  5
860
 10
886.3
 20
271.75
 30
0.0
 11
898.5
 21
271.75
 31
0.0
  0
ARC
  8
0
  6
CONTINUOUS
 62
     7
  5
861
 10
1057.8
 20
258.25
 30
0.0
 40
2.5
 50
120.0
 51
180.0
210
0.0
220
0.0
230
1.0
  0
ARC
  8
0
  6
CONTINUOUS
 62
     7
  5
862
 10
1057.8
 20
258.25
 30
0.0
 40
2.5
 50
60.0
 51
120.0
210
0.0
220
0.0
230
1.0
  0
ARC
  8
0
  6
CONTINUOUS
 62
     7
  5
863
 10
1057.8
 20
258.25
 30
0.0
 40
2.5
 50
0.0
 51
60.0
210
0.0
220
0.0
230
1.0
  0
ARC
  8
0
  6
CONTINUOUS
 62
     7
  5
864
 10
1057.8
 20
258.25
 30
0.0
 40
2.5
 50
300.0
 51
360.0
210
0.0
220
0.0
230
1.0
  0
ARC
  8
0
  6
CONTINUOUS
 62
     7
  5
865
 10
1057.8
 20
258.25
 30
0.0
 40
2.5
 50
240.0
 51
300.0
210
0.0
220
0.0
230
1.0
  0
ARC
  8
0
  6
CONTINUOUS
 62
     7
  5
866
 10
1057.8
 20
258.25
 30
0.0
 40
2.5
 50
180.0
 51
240.0
210
0.0
220
0.0
230
1.0
  0
CIRCLE
  8
0
  6
CONTINUOUS
 62
     7
  5
867
 10
1057.8
 20
258.25
 30
0.0
 40
1.5
210
0.0
220
0.0
230
1.0
  0
LINE
  8
0
  6
CONTINUOUS
 62
     7
  5
868
 10
1055.3
 20
258.25
 30
0.0
 11
1055.3
 21
259.68987
 31
0.0
  0
ARC
  8
0
  6
CONTINUOUS
 62
     7
  5
869
 10
1057.8
 20
258.25
 30
0.0
 40
2.885
 50
149.939702
 51
150.060298
210
0.0
220
0.0
230
1.0
  0
LINE
  8
0
  6
CONTINUOUS
 62
     7
  5
86A
 10
1055.303036
 20
259.695129
 30
0.0
 11
1056.55
 21
260.415064
 31
0.0
  0
ARC
  8
0
  6
CONTINUOUS
 62
     7
  5
86B
 10
1057.8
 20
258.25
 30
0.0
 40
2.885
 50
29.939702
 51
30.060298
210
0.0
220
0.0
230
1.0
  0
LINE
  8
0
  6
CONTINUOUS
 62
     7
  5
86C
 10
1060.3
 20
259.68987
 30
0.0
 11
1060.3
 21
258.25
 31
0.0
  0
LINE
  8
0
  6
CONTINUOUS
 62
     7
  5
86D
 10
1059.05
 20
260.415064
 30
0.0
 11
1060.296964
 21
259.695129
 31
0.0
  0
ARC
  8
0
  6
CONTINUOUS
 62
     7
  5
86E
 10
1057.8
 20
258.25
 30
0.0
 40
2.885
 50
209.939702
 51
210.060298
210
0.0
220
0.0
230
1.0
  0
LINE
  8
0
  6
CONTINUOUS
 62
     7
  5
86F
 10
1055.3
 20
256.81013
 30
0.0
 11
1055.3
 21
258.25
 31
0.0
  0
LINE
  8
0
  6
CONTINUOUS
 62
     7
  5
870
 10
1056.55
 20
256.084936
 30
0.0
 11
1055.303036
 21
256.804871
 31
0.0
  0
ARC
  8
0
  6
CONTINUOUS
 62
     7
  5
871
 10
1057.8
 20
258.25
 30
0.0
 40
2.885
 50
329.939702
 51
330.060298
210
0.0
220
0.0
230
1.0
  0
LINE
  8
0
  6
CONTINUOUS
 62
     7
  5
872
 10
1060.296964
 20
256.804871
 30
0.0
 11
1059.05
 21
256.084936
 31
0.0
  0
LINE
  8
0
  6
CONTINUOUS
 62
     7
  5
873
 10
1060.3
 20
258.25
 30
0.0
 11
1060.3
 21
256.81013
 31
0.0
  0
ARC
  8
0
  6
CONTINUOUS
 62
     7
  5
874
 10
1057.8
 20
258.25
 30
0.0
 40
2.885
 50
269.939702
 51
270.060298
210
0.0
220
0.0
230
1.0
  0
LINE
  8
0
  6
CONTINUOUS
 62
     7
  5
875
 10
1057.796964
 20
255.365002
 30
0.0
 11
1056.55
 21
256.084936
 31
0.0
  0
LINE
  8
0
  6
CONTINUOUS
 62
     7
  5
876
 10
1059.05
 20
256.084936
 30
0.0
 11
1057.803036
 21
255.365002
 31
0.0
  0
CIRCLE
  8
0
  6
CONTINUOUS
 62
     7
  5
877
 10
890.2
 20
258.25
 30
0.0
 40
1.5
210
0.0
220
0.0
230
1.0
  0
ARC
  8
0
  6
CONTINUOUS
 62
     7
  5
878
 10
890.2
 20
258.25
 30
0.0
 40
2.5
 50
240.0
 51
300.0
210
0.0
220
0.0
230
1.0
  0
ARC
  8
0
  6
CONTINUOUS
 62
     7
  5
879
 10
890.2
 20
258.25
 30
0.0
 40
2.5
 50
180.0
 51
240.0
210
0.0
220
0.0
230
1.0
  0
ARC
  8
0
  6
CONTINUOUS
 62
     7
  5
87A
 10
890.2
 20
258.25
 30
0.0
 40
2.5
 50
120.0
 51
180.0
210
0.0
220
0.0
230
1.0
  0
ARC
  8
0
  6
CONTINUOUS
 62
     7
  5
87B
 10
890.2
 20
258.25
 30
0.0
 40
2.5
 50
60.0
 51
120.0
210
0.0
220
0.0
230
1.0
  0
ARC
  8
0
  6
CONTINUOUS
 62
     7
  5
87C
 10
890.2
 20
258.25
 30
0.0
 40
2.5
 50
360.0
 51
60.0
210
0.0
220
0.0
230
1.0
  0
ARC
  8
0
  6
CONTINUOUS
 62
     7
  5
87D
 10
890.2
 20
258.25
 30
0.0
 40
2.5
 50
300.0
 51
360.0
210
0.0
220
0.0
230
1.0
  0
LINE
  8
0
  6
CONTINUOUS
 62
     7
  5
87E
 10
892.7
 20
256.81013
 30
0.0
 11
892.7
 21
258.25
 31
0.0
  0
ARC
  8
0
  6
CONTINUOUS
 62
     7
  5
87F
 10
890.2
 20
258.25
 30
0.0
 40
2.885
 50
329.939702
 51
330.060298
210
0.0
220
0.0
230
1.0
  0
LINE
  8
0
  6
CONTINUOUS
 62
     7
  5
880
 10
891.45
 20
256.084936
 30
0.0
 11
892.696964
 21
256.804871
 31
0.0
  0
LINE
  8
0
  6
CONTINUOUS
 62
     7
  5
881
 10
887.7
 20
259.68987
 30
0.0
 11
887.7
 21
258.25
 31
0.0
  0
ARC
  8
0
  6
CONTINUOUS
 62
     7
  5
882
 10
890.2
 20
258.25
 30
0.0
 40
2.885
 50
149.939702
 51
150.060298
210
0.0
220
0.0
230
1.0
  0
LINE
  8
0
  6
CONTINUOUS
 62
     7
  5
883
 10
888.95
 20
260.415064
 30
0.0
 11
887.703036
 21
259.695129
 31
0.0
  0
LINE
  8
0
  6
CONTINUOUS
 62
     7
  5
884
 10
890.203036
 20
255.365002
 30
0.0
 11
891.45
 21
256.084936
 31
0.0
  0
ARC
  8
0
  6
CONTINUOUS
 62
     7
  5
885
 10
890.2
 20
258.25
 30
0.0
 40
2.885
 50
269.939702
 51
270.060298
210
0.0
220
0.0
230
1.0
  0
LINE
  8
0
  6
CONTINUOUS
 62
     7
  5
886
 10
888.95
 20
256.084936
 30
0.0
 11
890.196964
 21
255.365002
 31
0.0
  0
LINE
  8
0
  6
CONTINUOUS
 62
     7
  5
887
 10
890.196964
 20
261.134998
 30
0.0
 11
888.95
 21
260.415064
 31
0.0
  0
ARC
  8
0
  6
CONTINUOUS
 62
     7
  5
888
 10
890.2
 20
258.25
 30
0.0
 40
2.885
 50
89.939702
 51
90.060298
210
0.0
220
0.0
230
1.0
  0
LINE
  8
0
  6
CONTINUOUS
 62
     7
  5
889
 10
891.45
 20
260.415064
 30
0.0
 11
890.203036
 21
261.134998
 31
0.0
  0
ARC
  8
0
  6
CONTINUOUS
 62
     7
  5
88A
 10
890.2
 20
258.25
 30
0.0
 40
2.885
 50
29.939702
 51
30.060298
210
0.0
220
0.0
230
1.0
  0
LINE
  8
0
  6
CONTINUOUS
 62
     7
  5
88B
 10
892.7
 20
258.25
 30
0.0
 11
892.7
 21
259.68987
 31
0.0
  0
LINE
  8
0
  6
CONTINUOUS
 62
     7
  5
88C
 10
892.696964
 20
259.695129
 30
0.0
 11
891.45
 21
260.415064
 31
0.0
  0
LINE
  8
0
  6
CONTINUOUS
 62
     7
  5
88D
 10
887.703036
 20
256.804871
 30
0.0
 11
888.95
 21
256.084936
 31
0.0
  0
ARC
  8
0
  6
CONTINUOUS
 62
     7
  5
88E
 10
890.2
 20
258.25
 30
0.0
 40
2.885
 50
209.939702
 51
210.060298
210
0.0
220
0.0
230
1.0
  0
LINE
  8
0
  6
CONTINUOUS
 62
     7
  5
88F
 10
887.7
 20
258.25
 30
0.0
 11
887.7
 21
256.81013
 31
0.0
  0
ARC
  8
0
  6
CONTINUOUS
 62
     7
  5
890
 10
1057.8
 20
258.25
 30
0.0
 40
2.885
 50
89.939702
 51
90.060298
210
0.0
220
0.0
230
1.0
  0
LINE
  8
0
  6
CONTINUOUS
 62
     7
  5
891
 10
1057.803036
 20
261.134998
 30
0.0
 11
1059.05
 21
260.415064
 31
0.0
  0
LINE
  8
0
  6
CONTINUOUS
 62
     7
  5
892
 10
1056.55
 20
260.415064
 30
0.0
 11
1057.796964
 21
261.134998
 31
0.0
  0
CIRCLE
  8
0
  6
CONTINUOUS
 62
     7
  5
893
 10
1057.8
 20
258.25
 30
0.0
 40
3.4
210
0.0
220
0.0
230
1.0
  0
CIRCLE
  8
0
  6
CONTINUOUS
 62
     7
  5
894
 10
1057.8
 20
258.25
 30
0.0
 40
3.5
210
0.0
220
0.0
230
1.0
  0
CIRCLE
  8
0
  6
CONTINUOUS
 62
     7
  5
895
 10
1057.8
 20
258.25
 30
0.0
 40
1.225
210
0.0
220
0.0
230
1.0
  0
CIRCLE
  8
0
  6
CONTINUOUS
 62
     7
  5
896
 10
890.2
 20
258.25
 30
0.0
 40
3.4
210
0.0
220
0.0
230
1.0
  0
CIRCLE
  8
0
  6
CONTINUOUS
 62
     7
  5
897
 10
890.2
 20
258.25
 30
0.0
 40
1.225
210
0.0
220
0.0
230
1.0
  0
CIRCLE
  8
0
  6
CONTINUOUS
 62
     7
  5
898
 10
890.2
 20
258.25
 30
0.0
 40
3.5
210
0.0
220
0.0
230
1.0
  0
LINE
  8
0
  6
CONTINUOUS
 62
     7
  5
899
 10
1062.2
 20
254.35
 30
0.0
 11
1062.2
 21
262.15
 31
0.0
  0
LINE
  8
0
  6
CONTINUOUS
 62
     7
  5
89A
 10
885.8
 20
254.35
 30
0.0
 11
885.8
 21
262.15
 31
0.0
  0
LINE
  8
0
  6
CONTINUOUS
 62
     7
  5
89B
 10
1010.0
 20
236.15
 30
0.0
 11
1010.0
 21
236.25
 31
0.0
  0
LINE
  8
0
  6
CONTINUOUS
 62
     7
  5
89C
 10
1007.0
 20
236.25
 30
0.0
 11
1007.0
 21
236.15
 31
0.0
  0
LINE
  8
0
  6
CONTINUOUS
 62
     7
  5
89D
 10
1039.0
 20
289.25
 30
0.0
 11
1031.0
 21
289.25
 31
0.0
  0
LINE
  8
0
  6
CONTINUOUS
 62
     7
  5
89E
 10
1016.25
 20
276.25
 30
0.0
 11
1015.0
 21
275.0
 31
0.0
  0
LINE
  8
0
  6
CONTINUOUS
 62
     7
  5
89F
 10
1027.0
 20
275.75
 30
0.0
 11
1027.0
 21
276.25
 31
0.0
  0
LINE
  8
0
  6
CONTINUOUS
 62
     7
  5
8A0
 10
1035.0
 20
275.75
 30
0.0
 11
1027.0
 21
275.75
 31
0.0
  0
LINE
  8
0
  6
CONTINUOUS
 62
     7
  5
8A1
 10
1043.0
 20
275.75
 30
0.0
 11
1043.0
 21
276.25
 31
0.0
  0
LINE
  8
0
  6
CONTINUOUS
 62
     7
  5
8A2
 10
1051.0
 20
275.75
 30
0.0
 11
1043.0
 21
275.75
 31
0.0
  0
LINE
  8
0
  6
CONTINUOUS
 62
     7
  5
8A3
 10
1063.0
 20
275.0
 30
0.0
 11
1061.75
 21
276.25
 31
0.0
  0
ARC
  8
0
  6
CONTINUOUS
 62
     7
  5
8A4
 10
1062.5
 20
242.65
 30
0.0
 40
0.5
 50
270.0
 51
360.0
210
0.0
220
0.0
230
1.0
  0
LINE
  8
0
  6
CONTINUOUS
 62
     7
  5
8A5
 10
1051.0
 20
276.25
 30
0.0
 11
1051.0
 21
275.75
 31
0.0
  0
LINE
  8
0
  6
CONTINUOUS
 62
     7
  5
8A6
 10
1035.0
 20
276.25
 30
0.0
 11
1035.0
 21
275.75
 31
0.0
  0
LINE
  8
0
  6
CONTINUOUS
 62
     7
  5
8A7
 10
1063.0
 20
242.65
 30
0.0
 11
1063.0
 21
275.0
 31
0.0
  0
LINE
  8
0
  6
CONTINUOUS
 62
     7
  5
8A8
 10
1061.7
 20
242.15
 30
0.0
 11
1062.5
 21
242.15
 31
0.0
  0
ARC
  8
0
  6
CONTINUOUS
 62
     7
  5
8A9
 10
885.5
 20
242.65
 30
0.0
 40
0.5
 50
180.0
 51
270.0
210
0.0
220
0.0
230
1.0
  0
LINE
  8
0
  6
CONTINUOUS
 62
     7
  5
8AA
 10
885.0
 20
242.65
 30
0.0
 11
885.0
 21
275.0
 31
0.0
  0
LINE
  8
0
  6
CONTINUOUS
 62
     7
  5
8AB
 10
885.0
 20
275.0
 30
0.0
 11
886.25
 21
276.25
 31
0.0
  0
LINE
  8
0
  6
CONTINUOUS
 62
     7
  5
8AC
 10
897.0
 20
276.25
 30
0.0
 11
897.0
 21
275.75
 31
0.0
  0
LINE
  8
0
  6
CONTINUOUS
 62
     7
  5
8AD
 10
897.0
 20
275.75
 30
0.0
 11
905.0
 21
275.75
 31
0.0
  0
LINE
  8
0
  6
CONTINUOUS
 62
     7
  5
8AE
 10
905.0
 20
275.75
 30
0.0
 11
905.0
 21
276.25
 31
0.0
  0
LINE
  8
0
  6
CONTINUOUS
 62
     7
  5
8AF
 10
913.0
 20
276.25
 30
0.0
 11
913.0
 21
275.75
 31
0.0
  0
LINE
  8
0
  6
CONTINUOUS
 62
     7
  5
8B0
 10
913.0
 20
275.75
 30
0.0
 11
921.0
 21
275.75
 31
0.0
  0
LINE
  8
0
  6
CONTINUOUS
 62
     7
  5
8B1
 10
931.75
 20
276.25
 30
0.0
 11
933.0
 21
275.0
 31
0.0
  0
LINE
  8
0
  6
CONTINUOUS
 62
     7
  5
8B2
 10
921.0
 20
275.75
 30
0.0
 11
921.0
 21
276.25
 31
0.0
  0
LINE
  8
0
  6
CONTINUOUS
 62
     7
  5
8B3
 10
886.3
 20
242.15
 30
0.0
 11
885.5
 21
242.15
 31
0.0
  0
LINE
  8
0
  6
CONTINUOUS
 62
     7
  5
8B4
 10
1063.0
 20
289.25
 30
0.0
 11
1063.0
 21
284.25
 31
0.0
  0
LINE
  8
0
  6
CONTINUOUS
 62
     7
  5
8B5
 10
1039.0
 20
289.25
 30
0.0
 11
1063.0
 21
289.25
 31
0.0
  0
LINE
  8
0
  6
CONTINUOUS
 62
     7
  5
8B6
 10
1066.7
 20
246.25
 30
0.0
 11
1066.7
 21
252.25
 31
0.0
  0
LINE
  8
0
  6
CONTINUOUS
 62
     7
  5
8B7
 10
1066.7
 20
252.25
 30
0.0
 11
1071.7
 21
252.25
 31
0.0
  0
LINE
  8
0
  6
CONTINUOUS
 62
     7
  5
8B8
 10
1071.7
 20
252.25
 30
0.0
 11
1071.7
 21
246.25
 31
0.0
  0
LINE
  8
0
  6
CONTINUOUS
 62
     7
  5
8B9
 10
1071.7
 20
246.25
 30
0.0
 11
1066.7
 21
246.25
 31
0.0
  0
LINE
  8
0
  6
CONTINUOUS
 62
     7
  5
8BA
 10
1048.5
 20
275.75
 30
0.0
 11
1048.5
 21
276.25
 31
0.0
  0
LINE
  8
0
  6
CONTINUOUS
 62
     7
  5
8BB
 10
1063.0
 20
252.25
 30
0.0
 11
1066.7
 21
252.25
 31
0.0
  0
LINE
  8
0
  6
CONTINUOUS
 62
     7
  5
8BC
 10
1063.0
 20
246.25
 30
0.0
 11
1066.7
 21
246.25
 31
0.0
  0
LINE
  8
0
  6
CONTINUOUS
 62
     7
  5
8BD
 10
1065.0
 20
242.25
 30
0.0
 11
1070.152851
 21
242.25
 31
0.0
  0
ARC
  8
0
  6
CONTINUOUS
 62
     7
  5
8BE
 10
1064.864671
 20
254.493348
 30
0.0
 40
12.244096
 50
270.63328
 51
286.954674
210
0.0
220
0.0
230
1.0
  0
ARC
  8
0
  6
CONTINUOUS
 62
     7
  5
8BF
 10
1070.274456
 20
245.684463
 30
0.0
 40
3.436615
 50
237.643593
 51
267.97216
210
0.0
220
0.0
230
1.0
  0
LINE
  8
0
  6
CONTINUOUS
 62
     7
  5
8C0
 10
1062.957208
 20
242.446822
 30
0.0
 11
1065.0
 21
242.25
 31
0.0
  0
LINE
  8
0
  6
CONTINUOUS
 62
     7
  5
8C1
 10
1062.8
 20
242.25
 30
0.0
 11
1065.0
 21
242.25
 31
0.0
  0
ARC
  8
0
  6
CONTINUOUS
 62
     7
  5
8C2
 10
1064.864671
 20
264.493348
 30
0.0
 40
12.244096
 50
270.63328
 51
286.954674
210
0.0
220
0.0
230
1.0
  0
ARC
  8
0
  6
CONTINUOUS
 62
     7
  5
8C3
 10
1070.274456
 20
255.684463
 30
0.0
 40
3.436615
 50
237.643593
 51
267.97216
210
0.0
220
0.0
230
1.0
  0
LINE
  8
0
  6
CONTINUOUS
 62
     7
  5
8C4
 10
1062.999674
 20
252.438935
 30
0.0
 11
1065.0
 21
252.25
 31
0.0
  0
ARC
  8
0
  6
CONTINUOUS
 62
     7
  5
8C5
 10
1064.861023
 20
243.98307
 30
0.0
 40
12.267717
 50
73.061146
 51
89.3509
210
0.0
220
0.0
230
1.0
  0
ARC
  8
0
  6
CONTINUOUS
 62
     7
  5
8C6
 10
1070.271264
 20
252.825854
 30
0.0
 40
3.426193
 50
91.980599
 51
122.403649
210
0.0
220
0.0
230
1.0
  0
LINE
  8
0
  6
CONTINUOUS
 62
     7
  5
8C7
 10
1065.0
 20
256.25
 30
0.0
 11
1070.152851
 21
256.25
 31
0.0
  0
LINE
  8
0
  6
CONTINUOUS
 62
     7
  5
8C8
 10
1065.0
 20
256.25
 30
0.0
 11
1062.999685
 21
256.061067
 31
0.0
  0
LINE
  8
0
  6
CONTINUOUS
 62
     7
  5
8C9
 10
1063.0
 20
256.25
 30
0.0
 11
1065.0
 21
256.25
 31
0.0
  0
ARC
  8
0
  6
CONTINUOUS
 62
     7
  5
8CA
 10
1070.034072
 20
245.675328
 30
0.0
 40
3.427387
 50
271.986028
 51
302.398219
210
0.0
220
0.0
230
1.0
  0
LINE
  8
0
  6
CONTINUOUS
 62
     7
  5
8CB
 10
1068.435234
 20
242.781433
 30
0.0
 11
1068.435234
 21
245.718567
 31
0.0
  0
ARC
  8
0
  6
CONTINUOUS
 62
     7
  5
8CC
 10
1070.271264
 20
242.825854
 30
0.0
 40
3.426193
 50
91.980599
 51
122.403649
210
0.0
220
0.0
230
1.0
  0
ARC
  8
0
  6
CONTINUOUS
 62
     7
  5
8CD
 10
1070.031429
 20
242.816127
 30
0.0
 40
3.436019
 50
57.640902
 51
87.974851
210
0.0
220
0.0
230
0.9999999999999999
  0
LINE
  8
0
  6
CONTINUOUS
 62
     7
  5
8CE
 10
1071.870468
 20
242.781433
 30
0.0
 11
1071.870468
 21
245.718567
 31
0.0
  0
ARC
  8
0
  6
CONTINUOUS
 62
     7
  5
8CF
 10
1070.034072
 20
255.675328
 30
0.0
 40
3.427387
 50
271.986028
 51
302.398219
210
0.0
220
0.0
230
1.0
  0
LINE
  8
0
  6
CONTINUOUS
 62
     7
  5
8D0
 10
1068.435234
 20
252.781433
 30
0.0
 11
1068.435234
 21
255.718567
 31
0.0
  0
ARC
  8
0
  6
CONTINUOUS
 62
     7
  5
8D1
 10
1070.031429
 20
252.816127
 30
0.0
 40
3.436019
 50
57.640902
 51
87.974851
210
0.0
220
0.0
230
1.0
  0
LINE
  8
0
  6
CONTINUOUS
 62
     7
  5
8D2
 10
1071.870468
 20
252.781433
 30
0.0
 11
1071.870468
 21
255.718567
 31
0.0
  0
ARC
  8
0
  6
CONTINUOUS
 62
     7
  5
8D3
 10
1064.861023
 20
233.98307
 30
0.0
 40
12.267717
 50
73.061146
 51
89.3509
210
0.0
220
0.0
230
1.0
  0
LINE
  8
0
  6
CONTINUOUS
 62
     7
  5
8D4
 10
1065.0
 20
246.25
 30
0.0
 11
1062.999685
 21
246.061067
 31
0.0
  0
LINE
  8
0
  6
CONTINUOUS
 62
     7
  5
8D5
 10
1061.0
 20
227.791
 30
0.0
 11
1069.0
 21
227.791
 31
0.0
  0
LINE
  8
0
  6
CONTINUOUS
 62
     7
  5
8D6
 10
1069.0
 20
256.709
 30
0.0
 11
1063.0
 21
256.709
 31
0.0
  0
LINE
  8
0
  6
CONTINUOUS
 62
     7
  5
8D7
 10
1068.459
 20
227.25
 30
0.0
 11
1061.541
 21
227.25
 31
0.0
  0
LINE
  8
0
  6
CONTINUOUS
 62
     7
  5
8D8
 10
1063.0
 20
257.25
 30
0.0
 11
1068.459
 21
257.25
 31
0.0
  0
LINE
  8
0
  6
CONTINUOUS
 62
     7
  5
8D9
 10
1070.152851
 20
242.25
 30
0.0
 11
1070.95
 21
242.25
 31
0.0
  0
LINE
  8
0
  6
CONTINUOUS
 62
     7
  5
8DA
 10
1070.152851
 20
256.25
 30
0.0
 11
1070.95
 21
256.25
 31
0.0
  0
POLYLINE
  8
0
  6
CONTINUOUS
 62
     7
  5
8DB
 66
     1
 10
0.0
 20
0.0
 30
0.0
 40
0.5
 41
0.5
  0
VERTEX
  8
0
 62
     7
  5
8DC
 10
1069.446139
 20
267.276477
 30
0.0
  0
VERTEX
  8
0
 62
     7
  5
8DD
 10
1069.544217
 20
267.314182
 30
0.0
  0
VERTEX
  8
0
 62
     7
  5
8DE
 10
1069.638754
 20
267.36038
 30
0.0
  0
VERTEX
  8
0
 62
     7
  5
8DF
 10
1069.729151
 20
267.414777
 30
0.0
  0
VERTEX
  8
0
 62
     7
  5
8E0
 10
1069.814834
 20
267.477027
 30
0.0
  0
VERTEX
  8
0
 62
     7
  5
8E1
 10
1069.895259
 20
267.546735
 30
0.0
  0
VERTEX
  8
0
 62
     7
  5
8E2
 10
1069.969915
 20
267.62346
 30
0.0
  0
VERTEX
  8
0
 62
     7
  5
8E3
 10
1070.038329
 20
267.706713
 30
0.0
  0
VERTEX
  8
0
 62
     7
  5
8E4
 10
1070.100065
 20
267.795967
 30
0.0
  0
VERTEX
  8
0
 62
     7
  5
8E5
 10
1070.154733
 20
267.890654
 30
0.0
  0
VERTEX
  8
0
 62
     7
  5
8E6
 10
1070.201984
 20
267.990173
 30
0.0
  0
VERTEX
  8
0
 62
     7
  5
8E7
 10
1070.24152
 20
268.093893
 30
0.0
  0
VERTEX
  8
0
 62
     7
  5
8E8
 10
1070.273088
 20
268.201155
 30
0.0
  0
VERTEX
  8
0
 62
     7
  5
8E9
 10
1070.296488
 20
268.311277
 30
0.0
  0
VERTEX
  8
0
 62
     7
  5
8EA
 10
1070.311573
 20
268.423561
 30
0.0
  0
VERTEX
  8
0
 62
     7
  5
8EB
 10
1070.318245
 20
268.537294
 30
0.0
  0
VERTEX
  8
0
 62
     7
  5
8EC
 10
1070.316464
 20
268.651754
 30
0.0
  0
SEQEND
  8
0
  5
8ED
  0
POLYLINE
  8
0
  6
CONTINUOUS
 62
     7
  5
8EE
 66
     1
 10
0.0
 20
0.0
 30
0.0
 40
0.5
 41
0.5
  0
VERTEX
  8
0
 62
     7
  5
8EF
 10
1070.316464
 20
268.651754
 30
0.0
  0
VERTEX
  8
0
 62
     7
  5
8F0
 10
1070.306617
 20
268.763195
 30
0.0
  0
VERTEX
  8
0
 62
     7
  5
8F1
 10
1070.288828
 20
268.873966
 30
0.0
  0
VERTEX
  8
0
 62
     7
  5
8F2
 10
1070.263201
 20
268.983399
 30
0.0
  0
VERTEX
  8
0
 62
     7
  5
8F3
 10
1070.229893
 20
269.090836
 30
0.0
  0
VERTEX
  8
0
 62
     7
  5
8F4
 10
1070.189102
 20
269.195631
 30
0.0
  0
VERTEX
  8
0
 62
     7
  5
8F5
 10
1070.141075
 20
269.297152
 30
0.0
  0
VERTEX
  8
0
 62
     7
  5
8F6
 10
1070.086101
 20
269.39479
 30
0.0
  0
VERTEX
  8
0
 62
     7
  5
8F7
 10
1070.024511
 20
269.487956
 30
0.0
  0
VERTEX
  8
0
 62
     7
  5
8F8
 10
1069.956674
 20
269.576089
 30
0.0
  0
VERTEX
  8
0
 62
     7
  5
8F9
 10
1069.883
 20
269.65866
 30
0.0
  0
VERTEX
  8
0
 62
     7
  5
8FA
 10
1069.803932
 20
269.735171
 30
0.0
  0
VERTEX
  8
0
 62
     7
  5
8FB
 10
1069.719945
 20
269.805162
 30
0.0
  0
VERTEX
  8
0
 62
     7
  5
8FC
 10
1069.631546
 20
269.868212
 30
0.0
  0
VERTEX
  8
0
 62
     7
  5
8FD
 10
1069.539266
 20
269.923941
 30
0.0
  0
VERTEX
  8
0
 62
     7
  5
8FE
 10
1069.44366
 20
269.972013
 30
0.0
  0
VERTEX
  8
0
 62
     7
  5
8FF
 10
1069.345304
 20
270.012141
 30
0.0
  0
VERTEX
  8
0
 62
     7
  5
900
 10
1069.244789
 20
270.044081
 30
0.0
  0
VERTEX
  8
0
 62
     7
  5
901
 10
1069.142722
 20
270.067642
 30
0.0
  0
VERTEX
  8
0
 62
     7
  5
902
 10
1069.039715
 20
270.082682
 30
0.0
  0
VERTEX
  8
0
 62
     7
  5
903
 10
1068.936389
 20
270.089111
 30
0.0
  0
VERTEX
  8
0
 62
     7
  5
904
 10
1068.833366
 20
270.086889
 30
0.0
  0
VERTEX
  8
0
 62
     7
  5
905
 10
1068.731265
 20
270.076031
 30
0.0
  0
VERTEX
  8
0
 62
     7
  5
906
 10
1068.630701
 20
270.056601
 30
0.0
  0
VERTEX
  8
0
 62
     7
  5
907
 10
1068.53228
 20
270.028716
 30
0.0
  0
SEQEND
  8
0
  5
908
  0
LINE
  8
0
  6
CONTINUOUS
 62
     7
  5
909
 10
1068.5
 20
226.75
 30
0.0
 11
1068.5
 21
209.75
 31
0.0
  0
LINE
  8
0
  6
CONTINUOUS
 62
     7
  5
90A
 10
1057.0
 20
223.349973
 30
0.0
 11
1057.0
 21
213.149973
 31
0.0
  0
LINE
  8
0
  6
CONTINUOUS
 62
     7
  5
90B
 10
1071.25
 20
220.5
 30
0.0
 11
1071.25
 21
216.0
 31
0.0
  0
LINE
  8
0
  6
CONTINUOUS
 62
     7
  5
90C
 10
1056.899993
 20
194.25
 30
0.0
 11
1077.5
 21
194.25
 31
0.0
  0
LINE
  8
0
  6
CONTINUOUS
 62
     7
  5
90D
 10
1077.5
 20
194.25
 30
0.0
 11
1077.5
 21
183.25
 31
0.0
  0
LINE
  8
0
  6
CONTINUOUS
 62
     7
  5
90E
 10
1077.5
 20
183.25
 30
0.0
 11
1073.5
 21
183.25
 31
0.0
  0
LINE
  8
0
  6
CONTINUOUS
 62
     7
  5
90F
 10
1073.5
 20
183.25
 30
0.0
 11
1073.5
 21
184.25
 31
0.0
  0
LINE
  8
0
  6
CONTINUOUS
 62
     7
  5
910
 10
1073.5
 20
184.25
 30
0.0
 11
1057.0
 21
184.25
 31
0.0
  0
LINE
  8
0
  6
CONTINUOUS
 62
     7
  5
911
 10
1057.0
 20
186.25
 30
0.0
 11
1057.0
 21
187.25
 31
0.0
  0
LINE
  8
0
  6
CONTINUOUS
 62
     7
  5
912
 10
1057.0
 20
187.25
 30
0.0
 11
1056.899993
 21
187.25
 31
0.0
  0
LINE
  8
0
  6
CONTINUOUS
 62
     7
  5
913
 10
1076.0
 20
195.75
 30
0.0
 11
1058.0
 21
195.75
 31
0.0
  0
LINE
  8
0
  6
CONTINUOUS
 62
     7
  5
914
 10
1070.752777
 20
201.05
 30
0.0
 11
1070.752777
 21
195.75
 31
0.0
  0
LINE
  8
0
  6
CONTINUOUS
 62
     7
  5
915
 10
1074.505553
 20
201.05
 30
0.0
 11
1070.752777
 21
201.05
 31
0.0
  0
LINE
  8
0
  6
CONTINUOUS
 62
     7
  5
916
 10
1074.505553
 20
201.05
 30
0.0
 11
1074.505553
 21
195.75
 31
0.0
  0
LINE
  8
0
  6
CONTINUOUS
 62
     7
  5
917
 10
1063.247223
 20
201.05
 30
0.0
 11
1063.247223
 21
195.75
 31
0.0
  0
LINE
  8
0
  6
CONTINUOUS
 62
     7
  5
918
 10
1070.752777
 20
201.05
 30
0.0
 11
1063.247223
 21
201.05
 31
0.0
  0
LINE
  8
0
  6
CONTINUOUS
 62
     7
  5
919
 10
1059.494447
 20
201.05
 30
0.0
 11
1059.494447
 21
195.75
 31
0.0
  0
LINE
  8
0
  6
CONTINUOUS
 62
     7
  5
91A
 10
1063.247223
 20
201.05
 30
0.0
 11
1059.494447
 21
201.05
 31
0.0
  0
LINE
  8
0
  6
CONTINUOUS
 62
     7
  5
91B
 10
1063.625
 20
170.75
 30
0.0
 11
1070.375
 21
170.75
 31
0.0
  0
LINE
  8
0
  6
CONTINUOUS
 62
     7
  5
91C
 10
1071.0
 20
171.375
 30
0.0
 11
1063.0
 21
171.375
 31
0.0
  0
LINE
  8
0
  6
CONTINUOUS
 62
     7
  5
91D
 10
891.0
 20
186.25
 30
0.0
 11
891.0
 21
187.25
 31
0.0
  0
LINE
  8
0
  6
CONTINUOUS
 62
     7
  5
91E
 10
874.5
 20
184.25
 30
0.0
 11
891.0
 21
184.25
 31
0.0
  0
LINE
  8
0
  6
CONTINUOUS
 62
     7
  5
91F
 10
870.5
 20
183.25
 30
0.0
 11
874.5
 21
183.25
 31
0.0
  0
LINE
  8
0
  6
CONTINUOUS
 62
     7
  5
920
 10
891.099993
 20
194.25
 30
0.0
 11
870.5
 21
194.25
 31
0.0
  0
LINE
  8
0
  6
CONTINUOUS
 62
     7
  5
921
 10
891.0
 20
187.25
 30
0.0
 11
891.099993
 21
187.25
 31
0.0
  0
LINE
  8
0
  6
CONTINUOUS
 62
     7
  5
922
 10
870.5
 20
194.25
 30
0.0
 11
870.5
 21
183.25
 31
0.0
  0
LINE
  8
0
  6
CONTINUOUS
 62
     7
  5
923
 10
874.5
 20
183.25
 30
0.0
 11
874.5
 21
184.25
 31
0.0
  0
LINE
  8
0
  6
CONTINUOUS
 62
     7
  5
924
 10
872.0
 20
195.75
 30
0.0
 11
890.0
 21
195.75
 31
0.0
  0
LINE
  8
0
  6
CONTINUOUS
 62
     7
  5
925
 10
873.494447
 20
201.05
 30
0.0
 11
873.494447
 21
195.75
 31
0.0
  0
LINE
  8
0
  6
CONTINUOUS
 62
     7
  5
926
 10
873.494447
 20
201.05
 30
0.0
 11
877.247223
 21
201.05
 31
0.0
  0
LINE
  8
0
  6
CONTINUOUS
 62
     7
  5
927
 10
877.247223
 20
201.05
 30
0.0
 11
877.247223
 21
195.75
 31
0.0
  0
LINE
  8
0
  6
CONTINUOUS
 62
     7
  5
928
 10
877.247223
 20
201.05
 30
0.0
 11
884.752777
 21
201.05
 31
0.0
  0
LINE
  8
0
  6
CONTINUOUS
 62
     7
  5
929
 10
884.752777
 20
201.05
 30
0.0
 11
884.752777
 21
195.75
 31
0.0
  0
LINE
  8
0
  6
CONTINUOUS
 62
     7
  5
92A
 10
884.752777
 20
201.05
 30
0.0
 11
888.505553
 21
201.05
 31
0.0
  0
LINE
  8
0
  6
CONTINUOUS
 62
     7
  5
92B
 10
888.505553
 20
201.05
 30
0.0
 11
888.505553
 21
195.75
 31
0.0
  0
LINE
  8
0
  6
CONTINUOUS
 62
     7
  5
92C
 10
884.375
 20
170.75
 30
0.0
 11
877.625
 21
170.75
 31
0.0
  0
LINE
  8
0
  6
CONTINUOUS
 62
     7
  5
92D
 10
877.0
 20
171.375
 30
0.0
 11
885.0
 21
171.375
 31
0.0
  0
CIRCLE
  8
0
  6
CONTINUOUS
 62
     7
  5
92E
 10
912.099993
 20
215.15
 30
0.0
 40
6.0
210
0.0
220
0.0
230
1.0
  0
CIRCLE
  8
0
  6
CONTINUOUS
 62
     7
  5
92F
 10
912.099993
 20
215.15
 30
0.0
 40
10.5
210
0.0
220
0.0
230
1.0
  0
CIRCLE
  8
0
  6
CONTINUOUS
 62
     7
  5
930
 10
1035.900007
 20
215.15
 30
0.0
 40
6.0
210
0.0
220
0.0
230
1.0
  0
CIRCLE
  8
0
  6
CONTINUOUS
 62
     7
  5
931
 10
1035.900007
 20
215.15
 30
0.0
 40
10.499999
210
0.0
220
0.0
230
1.0
  0
LINE
  8
0
  6
CONTINUOUS
 62
     7
  5
932
 10
912.099993
 20
210.531198
 30
0.0
 11
908.099993
 21
212.840599
 31
0.0
  0
LINE
  8
0
  6
CONTINUOUS
 62
     7
  5
933
 10
908.099993
 20
217.459401
 30
0.0
 11
912.099993
 21
219.768802
 31
0.0
  0
LINE
  8
0
  6
CONTINUOUS
 62
     7
  5
934
 10
916.099993
 20
217.459401
 30
0.0
 11
916.099993
 21
212.840599
 31
0.0
  0
LINE
  8
0
  6
CONTINUOUS
 62
     7
  5
935
 10
912.099993
 20
219.768802
 30
0.0
 11
916.099993
 21
217.459401
 31
0.0
  0
LINE
  8
0
  6
CONTINUOUS
 62
     7
  5
936
 10
916.099993
 20
212.840599
 30
0.0
 11
912.099993
 21
210.531198
 31
0.0
  0
LINE
  8
0
  6
CONTINUOUS
 62
     7
  5
937
 10
908.099993
 20
212.840599
 30
0.0
 11
908.099993
 21
217.459401
 31
0.0
  0
LINE
  8
0
  6
CONTINUOUS
 62
     7
  5
938
 10
1031.900007
 20
212.840599
 30
0.0
 11
1035.900007
 21
210.531198
 31
0.0
  0
LINE
  8
0
  6
CONTINUOUS
 62
     7
  5
939
 10
1035.900007
 20
210.531198
 30
0.0
 11
1039.900007
 21
212.840599
 31
0.0
  0
LINE
  8
0
  6
CONTINUOUS
 62
     7
  5
93A
 10
1035.900007
 20
219.768802
 30
0.0
 11
1031.900007
 21
217.459401
 31
0.0
  0
LINE
  8
0
  6
CONTINUOUS
 62
     7
  5
93B
 10
1031.900007
 20
217.459401
 30
0.0
 11
1031.900007
 21
212.840599
 31
0.0
  0
LINE
  8
0
  6
CONTINUOUS
 62
     7
  5
93C
 10
1039.900007
 20
217.459401
 30
0.0
 11
1035.900007
 21
219.768802
 31
0.0
  0
LINE
  8
0
  6
CONTINUOUS
 62
     7
  5
93D
 10
1039.900007
 20
212.840599
 30
0.0
 11
1039.900007
 21
217.459401
 31
0.0
  0
LINE
  8
0
  6
CONTINUOUS
 62
     7
  5
93E
 10
1056.899993
 20
184.75
 30
0.0
 11
1056.899993
 21
228.15
 31
0.0
  0
ARC
  8
0
  6
CONTINUOUS
 62
     7
  5
93F
 10
1055.899993
 20
184.75
 30
0.0
 40
1.0
 50
270.0
 51
0.0
210
0.0
220
0.0
230
1.0
  0
LINE
  8
0
  6
CONTINUOUS
 62
     7
  5
940
 10
892.099993
 20
183.75
 30
0.0
 11
1055.899993
 21
183.75
 31
0.0
  0
ARC
  8
0
  6
CONTINUOUS
 62
     7
  5
941
 10
892.099993
 20
184.75
 30
0.0
 40
1.0
 50
180.0
 51
270.0
210
0.0
220
0.0
230
1.0
  0
LINE
  8
0
  6
CONTINUOUS
 62
     7
  5
942
 10
891.099993
 20
228.15
 30
0.0
 11
891.099993
 21
184.75
 31
0.0
  0
ARC
  8
0
  6
CONTINUOUS
 62
     7
  5
943
 10
899.099993
 20
228.15
 30
0.0
 40
8.0
 50
90.0
 51
180.0
210
0.0
220
0.0
230
1.0
  0
LINE
  8
0
  6
CONTINUOUS
 62
     7
  5
944
 10
1048.899993
 20
236.15
 30
0.0
 11
899.099993
 21
236.15
 31
0.0
  0
ARC
  8
0
  6
CONTINUOUS
 62
     7
  5
945
 10
1048.899993
 20
228.15
 30
0.0
 40
8.0
 50
0.0
 51
90.0
210
0.0
220
0.0
230
1.0
  0
LINE
  8
0
  6
CONTINUOUS
 62
     7
  5
946
 10
1056.899993
 20
228.15
 30
0.0
 11
1056.899993
 21
222.914069
 31
0.0
  0
LINE
  8
0
  6
CONTINUOUS
 62
     7
  5
947
 10
1056.899993
 20
213.585876
 30
0.0
 11
1056.899993
 21
222.914069
 31
0.0
  0
LINE
  8
0
  6
CONTINUOUS
 62
     7
  5
948
 10
1056.899993
 20
205.98186
 30
0.0
 11
1056.899993
 21
213.585876
 31
0.0
  0
LINE
  8
0
  6
CONTINUOUS
 62
     7
  5
949
 10
1056.899993
 20
186.685904
 30
0.0
 11
1056.899993
 21
205.98186
 31
0.0
  0
LINE
  8
0
  6
CONTINUOUS
 62
     7
  5
94A
 10
1056.899993
 20
184.75
 30
0.0
 11
1056.899993
 21
186.685904
 31
0.0
  0
ARC
  8
0
  6
CONTINUOUS
 62
     7
  5
94B
 10
1055.899993
 20
184.75
 30
0.0
 40
1.0
 50
270.0
 51
0.0
210
0.0
220
0.0
230
1.0
  0
ARC
  8
0
  6
CONTINUOUS
 62
     7
  5
94C
 10
1048.899993
 20
228.15
 30
0.0
 40
8.0
 50
0.0
 51
90.0
210
0.0
220
0.0
230
1.0
  0
ARC
  8
0
  6
CONTINUOUS
 62
     7
  5
94D
 10
892.0
 20
223.349973
 30
0.0
 40
1.0
 50
180.0
 51
205.841059
210
0.0
220
0.0
230
1.0
  0
LINE
  8
0
  6
CONTINUOUS
 62
     7
  5
94E
 10
891.0
 20
223.349973
 30
0.0
 11
891.0
 21
228.25
 31
0.0
  0
ARC
  8
0
  6
CONTINUOUS
 62
     7
  5
94F
 10
899.0
 20
228.25
 30
0.0
 40
8.0
 50
90.0
 51
180.0
210
0.0
220
0.0
230
1.0
  0
LINE
  8
0
  6
CONTINUOUS
 62
     7
  5
950
 10
897.5
 20
236.25
 30
0.0
 11
899.0
 21
236.25
 31
0.0
  0
LINE
  8
0
  6
CONTINUOUS
 62
     7
  5
951
 10
897.5
 20
270.75
 30
0.0
 11
897.5
 21
236.25
 31
0.0
  0
LINE
  8
0
  6
CONTINUOUS
 62
     7
  5
952
 10
897.5
 20
270.75
 30
0.0
 11
901.5
 21
274.75
 31
0.0
  0
LINE
  8
0
  6
CONTINUOUS
 62
     7
  5
953
 10
1046.5
 20
274.75
 30
0.0
 11
901.5
 21
274.75
 31
0.0
  0
LINE
  8
0
  6
CONTINUOUS
 62
     7
  5
954
 10
1046.5
 20
274.75
 30
0.0
 11
1050.5
 21
270.75
 31
0.0
  0
LINE
  8
0
  6
CONTINUOUS
 62
     7
  5
955
 10
1050.5
 20
236.25
 30
0.0
 11
1050.5
 21
270.75
 31
0.0
  0
LINE
  8
0
  6
CONTINUOUS
 62
     7
  5
956
 10
1049.0
 20
236.25
 30
0.0
 11
1050.5
 21
236.25
 31
0.0
  0
ARC
  8
0
  6
CONTINUOUS
 62
     7
  5
957
 10
1049.0
 20
228.25
 30
0.0
 40
8.0
 50
360.0
 51
90.0
210
0.0
220
0.0
230
1.0
  0
LINE
  8
0
  6
CONTINUOUS
 62
     7
  5
958
 10
1057.0
 20
228.25
 30
0.0
 11
1057.0
 21
223.349973
 31
0.0
  0
ARC
  8
0
  6
CONTINUOUS
 62
     7
  5
959
 10
1056.0
 20
223.349973
 30
0.0
 40
1.0
 50
334.157193
 51
360.0
210
0.0
220
0.0
230
1.0
  0
LINE
  8
0
  6
CONTINUOUS
 62
     7
  5
95A
 10
1057.0
 20
213.149973
 30
0.0
 11
1057.0
 21
206.75
 31
0.0
  0
ARC
  8
0
  6
CONTINUOUS
 62
     7
  5
95B
 10
1054.0
 20
206.75
 30
0.0
 40
3.0
 50
345.164392
 51
360.0
210
0.0
220
0.0
230
1.0
  0
ARC
  8
0
  6
CONTINUOUS
 62
     7
  5
95C
 10
1056.0
 20
213.149973
 30
0.0
 40
1.0
 50
360.0
 51
25.842807
210
0.0
220
0.0
230
1.0
  0
LINE
  8
0
  6
CONTINUOUS
 62
     7
  5
95D
 10
1057.0
 20
186.25
 30
0.0
 11
1057.0
 21
184.25
 31
0.0
  0
ARC
  8
0
  6
CONTINUOUS
 62
     7
  5
95E
 10
1056.0
 20
184.25
 30
0.0
 40
1.0
 50
270.0
 51
360.0
210
0.0
220
0.0
230
1.0
  0
LINE
  8
0
  6
CONTINUOUS
 62
     7
  5
95F
 10
1056.0
 20
183.25
 30
0.0
 11
1029.528981
 21
183.25
 31
0.0
  0
ARC
  8
0
  6
CONTINUOUS
 62
     7
  5
960
 10
1029.528981
 20
186.25
 30
0.0
 40
3.0
 50
250.0
 51
270.0
210
0.0
220
0.0
230
1.0
  0
LINE
  8
0
  6
CONTINUOUS
 62
     7
  5
961
 10
1028.502921
 20
183.430922
 30
0.0
 11
1027.626261
 21
183.75
 31
0.0
  0
ARC
  8
0
  6
CONTINUOUS
 62
     7
  5
962
 10
1056.0
 20
186.25
 30
0.0
 40
1.0
 50
360.0
 51
25.842807
210
0.0
220
0.0
230
1.0
  0
ARC
  8
0
  6
CONTINUOUS
 62
     7
  5
963
 10
918.471019
 20
186.25
 30
0.0
 40
3.0
 50
270.0
 51
290.0
210
0.0
220
0.0
230
1.0
  0
LINE
  8
0
  6
CONTINUOUS
 62
     7
  5
964
 10
918.471019
 20
183.25
 30
0.0
 11
892.0
 21
183.25
 31
0.0
  0
ARC
  8
0
  6
CONTINUOUS
 62
     7
  5
965
 10
892.0
 20
184.25
 30
0.0
 40
1.0
 50
180.0
 51
270.0
210
0.0
220
0.0
230
1.0
  0
LINE
  8
0
  6
CONTINUOUS
 62
     7
  5
966
 10
891.0
 20
184.25
 30
0.0
 11
891.0
 21
186.25
 31
0.0
  0
ARC
  8
0
  6
CONTINUOUS
 62
     7
  5
967
 10
892.0
 20
186.25
 30
0.0
 40
1.0
 50
154.158941
 51
180.0
210
0.0
220
0.0
230
1.0
  0
LINE
  8
0
  6
CONTINUOUS
 62
     7
  5
968
 10
920.373739
 20
183.75
 30
0.0
 11
919.497079
 21
183.430922
 31
0.0
  0
ARC
  8
0
  6
CONTINUOUS
 62
     7
  5
969
 10
892.0
 20
213.149973
 30
0.0
 40
1.0
 50
154.158941
 51
180.0
210
0.0
220
0.0
230
1.0
  0
LINE
  8
0
  6
CONTINUOUS
 62
     7
  5
96A
 10
891.0
 20
206.75
 30
0.0
 11
891.0
 21
213.149973
 31
0.0
  0
ARC
  8
0
  6
CONTINUOUS
 62
     7
  5
96B
 10
894.0
 20
206.75
 30
0.0
 40
3.0
 50
180.0
 51
194.834616
210
0.0
220
0.0
230
1.0
  0
LINE
  8
0
  6
CONTINUOUS
 62
     7
  5
96C
 10
1061.0
 20
242.15
 30
0.0
 11
1061.0
 21
227.791
 31
0.0
  0
LINE
  8
0
  6
CONTINUOUS
 62
     7
  5
96D
 10
1069.0
 20
227.791
 30
0.0
 11
1069.0
 21
242.25
 31
0.0
  0
LINE
  8
0
  6
CONTINUOUS
 62
     7
  5
96E
 10
1069.0
 20
256.25
 30
0.0
 11
1069.0
 21
256.709
 31
0.0
  0
LINE
  8
0
  6
CONTINUOUS
 62
     7
  5
96F
 10
1061.0
 20
227.791
 30
0.0
 11
1061.541
 21
227.25
 31
0.0
  0
LINE
  8
0
  6
CONTINUOUS
 62
     7
  5
970
 10
1068.459
 20
227.25
 30
0.0
 11
1069.0
 21
227.791
 31
0.0
  0
LINE
  8
0
  6
CONTINUOUS
 62
     7
  5
971
 10
1069.0
 20
256.709
 30
0.0
 11
1068.459
 21
257.25
 31
0.0
  0
LINE
  8
0
  6
CONTINUOUS
 62
     7
  5
972
 10
1070.95
 20
242.25
 30
0.0
 11
1071.870468
 21
242.781433
 31
0.0
  0
LINE
  8
0
  6
CONTINUOUS
 62
     7
  5
973
 10
1071.870468
 20
255.718567
 30
0.0
 11
1070.95
 21
256.25
 31
0.0
  0
LINE
  8
0
  6
CONTINUOUS
 62
     7
  5
974
 10
1071.870468
 20
245.718567
 30
0.0
 11
1070.95
 21
246.25
 31
0.0
  0
LINE
  8
0
  6
CONTINUOUS
 62
     7
  5
975
 10
1070.95
 20
252.25
 30
0.0
 11
1071.870468
 21
252.781433
 31
0.0
  0
POLYLINE
  8
0
  6
CONTINUOUS
 62
     7
  5
976
 66
     1
 10
0.0
 20
0.0
 30
0.0
 40
0.5
 41
0.5
  0
VERTEX
  8
0
 62
     7
  5
977
 10
1068.532283
 20
270.028717
 30
0.0
 42
0.238143
  0
VERTEX
  8
0
 62
     7
  5
978
 10
1064.756394
 20
265.274893
 30
0.0
 42
0.080564
  0
VERTEX
  8
0
 62
     7
  5
979
 10
1063.55
 20
257.25
 30
0.0
  0
SEQEND
  8
0
  5
97A
  0
POLYLINE
  8
0
  6
CONTINUOUS
 62
     7
  5
97B
 66
     1
 10
0.0
 20
0.0
 30
0.0
 40
0.5
 41
0.5
  0
VERTEX
  8
0
 62
     7
  5
97C
 10
1066.45
 20
257.25
 30
0.0
 42
-0.153239
  0
VERTEX
  8
0
 62
     7
  5
97D
 10
1068.760499
 20
266.743409
 30
0.0
 42
-0.079833
  0
VERTEX
  8
0
 62
     7
  5
97E
 10
1069.283551
 20
267.202522
 30
0.0
  0
VERTEX
  8
0
 62
     7
  5
97F
 10
1069.441068
 20
267.274791
 30
0.0
  0
SEQEND
  8
0
  5
980
  0
LINE
  8
0
  6
CONTINUOUS
 62
     7
  5
981
 10
1068.5
 20
226.75
 30
0.0
 11
1057.0
 21
226.75
 31
0.0
  0
LINE
  8
0
  6
CONTINUOUS
 62
     7
  5
982
 10
1057.0
 20
209.75
 30
0.0
 11
1068.5
 21
209.75
 31
0.0
  0
ARC
  8
0
  6
CONTINUOUS
 62
     7
  5
983
 10
1066.693182
 20
218.25
 30
0.0
 40
5.082036
 50
290.825953
 51
333.721425
210
0.0
220
0.0
230
1.0
  0
ARC
  8
0
  6
CONTINUOUS
 62
     7
  5
984
 10
1066.693182
 20
218.25
 30
0.0
 40
5.082036
 50
26.278575
 51
69.174047
210
0.0
220
0.0
230
1.0
  0
LINE
  8
0
  6
CONTINUOUS
 62
     7
  5
985
 10
1057.0
 20
222.275
 30
0.0
 11
1056.899993
 21
222.275
 31
0.0
  0
LINE
  8
0
  6
CONTINUOUS
 62
     7
  5
986
 10
1056.899993
 20
214.225
 30
0.0
 11
1057.0
 21
214.225
 31
0.0
  0
LINE
  8
0
  6
CONTINUOUS
 62
     7
  5
987
 10
1058.0
 20
195.75
 30
0.0
 11
1058.0
 21
194.25
 31
0.0
  0
LINE
  8
0
  6
CONTINUOUS
 62
     7
  5
988
 10
1076.0
 20
194.25
 30
0.0
 11
1076.0
 21
195.75
 31
0.0
  0
LINE
  8
0
  6
CONTINUOUS
 62
     7
  5
989
 10
1063.0
 20
171.375
 30
0.0
 11
1063.625
 21
170.75
 31
0.0
  0
LINE
  8
0
  6
CONTINUOUS
 62
     7
  5
98A
 10
1070.375
 20
170.75
 30
0.0
 11
1071.0
 21
171.375
 31
0.0
  0
LINE
  8
0
  6
CONTINUOUS
 62
     7
  5
98B
 10
1063.0
 20
184.25
 30
0.0
 11
1063.0
 21
171.375
 31
0.0
  0
LINE
  8
0
  6
CONTINUOUS
 62
     7
  5
98C
 10
1071.0
 20
171.375
 30
0.0
 11
1071.0
 21
184.25
 31
0.0
  0
LINE
  8
0
  6
CONTINUOUS
 62
     7
  5
98D
 10
872.0
 20
195.75
 30
0.0
 11
872.0
 21
194.25
 31
0.0
  0
LINE
  8
0
  6
CONTINUOUS
 62
     7
  5
98E
 10
890.0
 20
194.25
 30
0.0
 11
890.0
 21
195.75
 31
0.0
  0
LINE
  8
0
  6
CONTINUOUS
 62
     7
  5
98F
 10
877.0
 20
171.375
 30
0.0
 11
877.625
 21
170.75
 31
0.0
  0
LINE
  8
0
  6
CONTINUOUS
 62
     7
  5
990
 10
884.375
 20
170.75
 30
0.0
 11
885.0
 21
171.375
 31
0.0
  0
LINE
  8
0
  6
CONTINUOUS
 62
     7
  5
991
 10
877.0
 20
184.25
 30
0.0
 11
877.0
 21
171.375
 31
0.0
  0
LINE
  8
0
  6
CONTINUOUS
 62
     7
  5
992
 10
885.0
 20
171.375
 30
0.0
 11
885.0
 21
184.25
 31
0.0
  0
ENDBLK
  8
0
  5
993
  0
ENDSEC
  0
SECTION
  2
ENTITIES
  0
INSERT
  8
0
  5
290
  2
AID145
 10
0.0
 20
0.0
 30
0.0
  0
INSERT
  8
0
  5
59D
  2
AID1187
 10
0.0
 20
0.0
 30
0.0
  0
INSERT
  8
0
  5
6B3
  2
AID2613
 10
0.0
 20
0.0
 30
0.0
  0
INSERT
  8
0
  5
83A
  2
AID3081
 10
0.0
 20
0.0
 30
0.0
  0
INSERT
  8
0
  5
994
  2
AID3733
 10
0.0
 20
0.0
 30
0.0
  0
LINE
  8
0
  6
CENTER
 62
     1
  5
996
 10
48.75
 20
501.0
 30
0.0
 11
63.75
 21
501.0
 31
0.0
  0
LINE
  8
0
  6
CENTER
 62
     1
  5
997
 10
56.25
 20
493.5
 30
0.0
 11
56.25
 21
508.5
 31
0.0
  0
LINE
  8
0
  6
CENTER
 62
     1
  5
998
 10
48.75
 20
687.0
 30
0.0
 11
63.75
 21
687.0
 31
0.0
  0
LINE
  8
0
  6
CENTER
 62
     1
  5
999
 10
56.25
 20
679.5
 30
0.0
 11
56.25
 21
694.5
 31
0.0
  0
LINE
  8
0
  6
CENTER
 62
     1
  5
99A
 10
88.75
 20
501.0
 30
0.0
 11
103.75
 21
501.0
 31
0.0
  0
LINE
  8
0
  6
CENTER
 62
     1
  5
99B
 10
96.25
 20
493.5
 30
0.0
 11
96.25
 21
508.5
 31
0.0
  0
LINE
  8
0
  6
CENTER
 62
     1
  5
99C
 10
88.75
 20
687.0
 30
0.0
 11
103.75
 21
687.0
 31
0.0
  0
LINE
  8
0
  6
CENTER
 62
     1
  5
99D
 10
96.25
 20
679.5
 30
0.0
 11
96.25
 21
694.5
 31
0.0
  0
LINE
  8
0
  6
CENTER
 62
     1
  5
99E
 10
486.25
 20
501.0
 30
0.0
 11
501.25
 21
501.0
 31
0.0
  0
LINE
  8
0
  6
CENTER
 62
     1
  5
99F
 10
493.75
 20
493.5
 30
0.0
 11
493.75
 21
508.5
 31
0.0
  0
LINE
  8
0
  6
CENTER
 62
     1
  5
9A0
 10
486.25
 20
687.0
 30
0.0
 11
501.25
 21
687.0
 31
0.0
  0
LINE
  8
0
  6
CENTER
 62
     1
  5
9A1
 10
493.75
 20
679.5
 30
0.0
 11
493.75
 21
694.5
 31
0.0
  0
LINE
  8
0
  6
CENTER
 62
     1
  5
9A2
 10
526.25
 20
501.0
 30
0.0
 11
541.25
 21
501.0
 31
0.0
  0
LINE
  8
0
  6
CENTER
 62
     1
  5
9A3
 10
533.75
 20
493.5
 30
0.0
 11
533.75
 21
508.5
 31
0.0
  0
LINE
  8
0
  6
CENTER
 62
     1
  5
9A4
 10
526.25
 20
687.0
 30
0.0
 11
541.25
 21
687.0
 31
0.0
  0
LINE
  8
0
  6
CENTER
 62
     1
  5
9A5
 10
533.75
 20
679.5
 30
0.0
 11
533.75
 21
694.5
 31
0.0
  0
LINE
  8
0
  6
CENTER
 62
     1
  5
9A6
 10
-12.0
 20
261.25
 30
0.0
 11
13.0
 21
261.25
 31
0.0
  0
LINE
  8
0
  6
CENTER
 62
     1
  5
9A7
 10
602.0
 20
261.25
 30
0.0
 11
577.0
 21
261.25
 31
0.0
  0
LINE
  8
0
  6
CENTER
 62
     1
  5
9A8
 10
283.5
 20
218.25
 30
0.0
 11
306.5
 21
218.25
 31
0.0
  0
LINE
  8
0
  6
CENTER
 62
     1
  5
9A9
 10
533.75
 20
167.75
 30
0.0
 11
533.75
 21
198.75
 31
0.0
  0
LINE
  8
0
  6
CENTER
 62
     1
  5
9AA
 10
493.75
 20
167.75
 30
0.0
 11
493.75
 21
198.75
 31
0.0
  0
LINE
  8
0
  6
CENTER
 62
     1
  5
9AB
 10
295.0
 20
206.75
 30
0.0
 11
295.0
 21
255.781433
 31
0.0
  0
LINE
  8
0
  6
CENTER
 62
     1
  5
9AC
 10
96.25
 20
167.75
 30
0.0
 11
96.25
 21
198.75
 31
0.0
  0
LINE
  8
0
  6
CENTER
 62
     1
  5
9AD
 10
56.25
 20
167.75
 30
0.0
 11
56.25
 21
198.75
 31
0.0
  0
LINE
  8
0
  6
CENTER
 62
     1
  5
9AE
 10
-427.0
 20
249.25
 30
0.0
 11
-427.0
 21
255.781433
 31
0.0
  0
LINE
  8
0
  6
CENTER
 62
     1
  5
9AF
 10
-411.400006
 20
215.15
 30
0.0
 11
-384.400007
 21
215.15
 31
0.0
  0
LINE
  8
0
  6
CENTER
 62
     1
  5
9B0
 10
-397.900007
 20
201.650001
 30
0.0
 11
-397.900007
 21
228.649999
 31
0.0
  0
LINE
  8
0
  6
CENTER
 62
     1
  5
9B1
 10
-287.599993
 20
215.15
 30
0.0
 11
-260.599993
 21
215.15
 31
0.0
  0
LINE
  8
0
  6
CENTER
 62
     1
  5
9B2
 10
-274.099993
 20
201.65
 30
0.0
 11
-274.099993
 21
228.65
 31
0.0
  0
LINE
  8
0
  6
CENTER
 62
     1
  5
9B3
 10
-413.0
 20
218.25
 30
0.0
 11
-433.5
 21
218.25
 31
0.0
  0
LINE
  8
0
  6
CENTER
 62
     1
  5
9B4
 10
-243.0
 20
167.75
 30
0.0
 11
-243.0
 21
198.75
 31
0.0
  0
LINE
  8
0
  6
CENTER
 62
     1
  5
9B5
 10
-429.0
 20
167.75
 30
0.0
 11
-429.0
 21
198.75
 31
0.0
  0
LINE
  8
0
  6
CENTER
 62
     1
  5
9B6
 10
898.599993
 20
215.15
 30
0.0
 11
925.599993
 21
215.15
 31
0.0
  0
LINE
  8
0
  6
CENTER
 62
     1
  5
9B7
 10
912.099993
 20
201.65
 30
0.0
 11
912.099993
 21
228.65
 31
0.0
  0
LINE
  8
0
  6
CENTER
 62
     1
  5
9B8
 10
1022.400007
 20
215.15
 30
0.0
 11
1049.400006
 21
215.15
 31
0.0
  0
LINE
  8
0
  6
CENTER
 62
     1
  5
9B9
 10
1035.900007
 20
201.650001
 30
0.0
 11
1035.900007
 21
228.649999
 31
0.0
  0
LINE
  8
0
  6
CENTER
 62
     1
  5
9BA
 10
1051.0
 20
218.25
 30
0.0
 11
1071.5
 21
218.25
 31
0.0
  0
LINE
  8
0
  6
CENTER
 62
     1
  5
9BB
 10
1067.0
 20
167.75
 30
0.0
 11
1067.0
 21
198.75
 31
0.0
  0
LINE
  8
0
  6
CENTER
 62
     1
  5
9BC
 10
881.0
 20
167.75
 30
0.0
 11
881.0
 21
198.75
 31
0.0
  0
LINE
  8
0
  6
CENTER
 62
     1
  5
9BD
 10
-12.0
 20
-139.0
 30
0.0
 11
13.0
 21
-139.0
 31
0.0
  0
LINE
  8
0
  6
CENTER
 62
     1
  5
9BE
 10
-12.0
 20
-109.0
 30
0.0
 11
13.0
 21
-109.0
 31
0.0
  0
LINE
  8
0
  6
CENTER
 62
     1
  5
9BF
 10
602.0
 20
-139.0
 30
0.0
 11
577.0
 21
-139.0
 31
0.0
  0
LINE
  8
0
  6
CENTER
 62
     1
  5
9C0
 10
602.0
 20
-109.0
 30
0.0
 11
577.0
 21
-109.0
 31
0.0
  0
LINE
  8
0
  6
CENTER
 62
     1
  5
9C1
 10
-31.5
 20
-199.0
 30
0.0
 11
-31.5
 21
-179.0
 31
0.0
  0
LINE
  8
0
  6
CENTER
 62
     1
  5
9C2
 10
-31.5
 20
-69.0
 30
0.0
 11
-31.5
 21
-49.0
 31
0.0
  0
LINE
  8
0
  6
CENTER
 62
     1
  5
9C3
 10
-16.5
 20
-199.0
 30
0.0
 11
-16.5
 21
-179.0
 31
0.0
  0
LINE
  8
0
  6
CENTER
 62
     1
  5
9C4
 10
-16.5
 20
-69.0
 30
0.0
 11
-16.5
 21
-49.0
 31
0.0
  0
LINE
  8
0
  6
CENTER
 62
     1
  5
9C5
 10
23.675
 20
-159.0
 30
0.0
 11
38.175
 21
-159.0
 31
0.0
  0
LINE
  8
0
  6
CENTER
 62
     1
  5
9C6
 10
30.925
 20
-166.25
 30
0.0
 11
30.925
 21
-151.75
 31
0.0
  0
LINE
  8
0
  6
CENTER
 62
     1
  5
9C7
 10
23.675
 20
-89.0
 30
0.0
 11
38.175
 21
-89.0
 31
0.0
  0
LINE
  8
0
  6
CENTER
 62
     1
  5
9C8
 10
30.925
 20
-96.25
 30
0.0
 11
30.925
 21
-81.75
 31
0.0
  0
LINE
  8
0
  6
CENTER
 62
     1
  5
9C9
 10
44.25
 20
-217.0
 30
0.0
 11
68.25
 21
-217.0
 31
0.0
  0
LINE
  8
0
  6
CENTER
 62
     1
  5
9CA
 10
56.25
 20
-229.0
 30
0.0
 11
56.25
 21
-205.0
 31
0.0
  0
LINE
  8
0
  6
CENTER
 62
     1
  5
9CB
 10
44.25
 20
-31.0
 30
0.0
 11
68.25
 21
-31.0
 31
0.0
  0
LINE
  8
0
  6
CENTER
 62
     1
  5
9CC
 10
56.25
 20
-43.0
 30
0.0
 11
56.25
 21
-19.0
 31
0.0
  0
LINE
  8
0
  6
CENTER
 62
     1
  5
9CD
 10
71.675
 20
-159.0
 30
0.0
 11
86.175
 21
-159.0
 31
0.0
  0
LINE
  8
0
  6
CENTER
 62
     1
  5
9CE
 10
78.925
 20
-166.25
 30
0.0
 11
78.925
 21
-151.75
 31
0.0
  0
LINE
  8
0
  6
CENTER
 62
     1
  5
9CF
 10
71.675
 20
-89.0
 30
0.0
 11
86.175
 21
-89.0
 31
0.0
  0
LINE
  8
0
  6
CENTER
 62
     1
  5
9D0
 10
78.925
 20
-96.25
 30
0.0
 11
78.925
 21
-81.75
 31
0.0
  0
LINE
  8
0
  6
CENTER
 62
     1
  5
9D1
 10
84.25
 20
-217.0
 30
0.0
 11
108.25
 21
-217.0
 31
0.0
  0
LINE
  8
0
  6
CENTER
 62
     1
  5
9D2
 10
96.25
 20
-229.0
 30
0.0
 11
96.25
 21
-205.0
 31
0.0
  0
LINE
  8
0
  6
CENTER
 62
     1
  5
9D3
 10
84.25
 20
-31.0
 30
0.0
 11
108.25
 21
-31.0
 31
0.0
  0
LINE
  8
0
  6
CENTER
 62
     1
  5
9D4
 10
96.25
 20
-43.0
 30
0.0
 11
96.25
 21
-19.0
 31
0.0
  0
LINE
  8
0
  6
CENTER
 62
     1
  5
9D5
 10
119.675
 20
-159.0
 30
0.0
 11
134.175
 21
-159.0
 31
0.0
  0
LINE
  8
0
  6
CENTER
 62
     1
  5
9D6
 10
126.925
 20
-166.25
 30
0.0
 11
126.925
 21
-151.75
 31
0.0
  0
LINE
  8
0
  6
CENTER
 62
     1
  5
9D7
 10
119.675
 20
-89.0
 30
0.0
 11
134.175
 21
-89.0
 31
0.0
  0
LINE
  8
0
  6
CENTER
 62
     1
  5
9D8
 10
126.925
 20
-96.25
 30
0.0
 11
126.925
 21
-81.75
 31
0.0
  0
LINE
  8
0
  6
CENTER
 62
     1
  5
9D9
 10
455.675
 20
-159.0
 30
0.0
 11
470.175
 21
-159.0
 31
0.0
  0
LINE
  8
0
  6
CENTER
 62
     1
  5
9DA
 10
462.925
 20
-166.25
 30
0.0
 11
462.925
 21
-151.75
 31
0.0
  0
LINE
  8
0
  6
CENTER
 62
     1
  5
9DB
 10
455.675
 20
-89.0
 30
0.0
 11
470.175
 21
-89.0
 31
0.0
  0
LINE
  8
0
  6
CENTER
 62
     1
  5
9DC
 10
462.925
 20
-96.25
 30
0.0
 11
462.925
 21
-81.75
 31
0.0
  0
LINE
  8
0
  6
CENTER
 62
     1
  5
9DD
 10
481.75
 20
-217.0
 30
0.0
 11
505.75
 21
-217.0
 31
0.0
  0
LINE
  8
0
  6
CENTER
 62
     1
  5
9DE
 10
493.75
 20
-229.0
 30
0.0
 11
493.75
 21
-205.0
 31
0.0
  0
LINE
  8
0
  6
CENTER
 62
     1
  5
9DF
 10
481.75
 20
-31.0
 30
0.0
 11
505.75
 21
-31.0
 31
0.0
  0
LINE
  8
0
  6
CENTER
 62
     1
  5
9E0
 10
493.75
 20
-43.0
 30
0.0
 11
493.75
 21
-19.0
 31
0.0
  0
LINE
  8
0
  6
CENTER
 62
     1
  5
9E1
 10
503.675
 20
-159.0
 30
0.0
 11
518.175
 21
-159.0
 31
0.0
  0
LINE
  8
0
  6
CENTER
 62
     1
  5
9E2
 10
510.925
 20
-166.25
 30
0.0
 11
510.925
 21
-151.75
 31
0.0
  0
LINE
  8
0
  6
CENTER
 62
     1
  5
9E3
 10
503.675
 20
-89.0
 30
0.0
 11
518.175
 21
-89.0
 31
0.0
  0
LINE
  8
0
  6
CENTER
 62
     1
  5
9E4
 10
510.925
 20
-96.25
 30
0.0
 11
510.925
 21
-81.75
 31
0.0
  0
LINE
  8
0
  6
CENTER
 62
     1
  5
9E5
 10
521.75
 20
-217.0
 30
0.0
 11
545.75
 21
-217.0
 31
0.0
  0
LINE
  8
0
  6
CENTER
 62
     1
  5
9E6
 10
533.75
 20
-229.0
 30
0.0
 11
533.75
 21
-205.0
 31
0.0
  0
LINE
  8
0
  6
CENTER
 62
     1
  5
9E7
 10
521.75
 20
-31.0
 30
0.0
 11
545.75
 21
-31.0
 31
0.0
  0
LINE
  8
0
  6
CENTER
 62
     1
  5
9E8
 10
533.75
 20
-43.0
 30
0.0
 11
533.75
 21
-19.0
 31
0.0
  0
LINE
  8
0
  6
CENTER
 62
     1
  5
9E9
 10
551.675
 20
-159.0
 30
0.0
 11
566.175
 21
-159.0
 31
0.0
  0
LINE
  8
0
  6
CENTER
 62
     1
  5
9EA
 10
558.925
 20
-166.25
 30
0.0
 11
558.925
 21
-151.75
 31
0.0
  0
LINE
  8
0
  6
CENTER
 62
     1
  5
9EB
 10
551.675
 20
-89.0
 30
0.0
 11
566.175
 21
-89.0
 31
0.0
  0
LINE
  8
0
  6
CENTER
 62
     1
  5
9EC
 10
558.925
 20
-96.25
 30
0.0
 11
558.925
 21
-81.75
 31
0.0
  0
LINE
  8
0
  6
CENTER
 62
     1
  5
9ED
 10
606.5
 20
-199.0
 30
0.0
 11
606.5
 21
-179.0
 31
0.0
  0
LINE
  8
0
  6
CENTER
 62
     1
  5
9EE
 10
606.5
 20
-69.0
 30
0.0
 11
606.5
 21
-49.0
 31
0.0
  0
LINE
  8
0
  6
CENTER
 62
     1
  5
9EF
 10
621.5
 20
-199.0
 30
0.0
 11
621.5
 21
-179.0
 31
0.0
  0
LINE
  8
0
  6
CENTER
 62
     1
  5
9F0
 10
621.5
 20
-69.0
 30
0.0
 11
621.5
 21
-49.0
 31
0.0
  0
LINE
  8
0
  6
CENTER
 62
     1
  5
9F1
 10
-41.5
 20
-189.0
 30
0.0
 11
-6.5
 21
-189.0
 31
0.0
  0
LINE
  8
0
  6
CENTER
 62
     1
  5
9F2
 10
596.5
 20
-189.0
 30
0.0
 11
631.5
 21
-189.0
 31
0.0
  0
LINE
  8
0
  6
CENTER
 62
     1
  5
9F3
 10
-41.5
 20
-59.0
 30
0.0
 11
-6.5
 21
-59.0
 31
0.0
  0
LINE
  8
0
  6
CENTER
 62
     1
  5
9F4
 10
596.5
 20
-59.0
 30
0.0
 11
631.5
 21
-59.0
 31
0.0
  0
LINE
  8
0
  6
CENTER
 62
     1
  5
9F5
 10
-336.0
 20
297.25
 30
0.0
 11
-336.0
 21
180.25
 31
0.0
  0
LINE
  8
0
  6
CENTER
 62
     1
  5
9F6
 10
974.0
 20
297.25
 30
0.0
 11
974.0
 21
180.25
 31
0.0
  0
LINE
  8
0
  6
CENTER
 62
     1
  5
9F7
 10
222.0
 20
-88.0
 30
0.0
 11
368.0
 21
-88.0
 31
0.0
  0
LINE
  8
0
  6
CENTER
 62
     1
  5
9F8
 10
230.0
 20
-168.0
 30
0.0
 11
230.0
 21
-80.0
 31
0.0
  0
LINE
  8
0
  6
CENTER
 62
     1
  5
9F9
 10
222.0
 20
-160.0
 30
0.0
 11
368.0
 21
-160.0
 31
0.0
  0
LINE
  8
0
  6
CENTER
 62
     1
  5
9FA
 10
360.0
 20
-168.0
 30
0.0
 11
360.0
 21
-80.0
 31
0.0
  0
LINE
  8
0
  6
CENTER
 62
     1
  5
9FB
 10
132.99
 20
-124.0
 30
0.0
 11
457.01
 21
-124.0
 31
0.0
  0
LINE
  8
0
  6
CENTER
 62
     1
  5
9FC
 10
295.0
 20
499.099996
 30
0.0
 11
295.0
 21
698.899998
 31
0.0
  0
LINE
  8
0
  6
CENTER
 62
     1
  5
9FD
 10
-57.75
 20
594.0
 30
0.0
 11
647.75
 21
594.0
 31
0.0
  0
LINE
  8
0
  6
CENTER
 62
     1
  5
9FE
 10
295.0
 20
-234.0
 30
0.0
 11
295.0
 21
-32.0
 31
0.0
  0
LINE
  8
0
  6
CENTER
 62
     1
  5
9FF
 10
295.0
 20
273.25
 30
0.0
 11
295.0
 21
297.25
 31
0.0
  0
ENDSEC
  0
EOF
