  0
SECTION
  2
HEADER
  9
$ACADVER
  1
AC1009
  9
$DWGCODEPAGE
  3
ansi_1252
  9
$INSBASE
 10
0.0
 20
0.0
 30
0.0
  9
$EXTMIN
 10
0.0
 20
-46.392397
 30
0.0
  9
$EXTMAX
 10
446.917546
 20
374.060482
 30
5.0
  9
$LIMMIN
 10
0.0
 20
-46.392397
  9
$LIMMAX
 10
446.917546
 20
374.060482
  9
$ORTHOMODE
 70
     0
  9
$REGENMODE
 70
     1
  9
$FILLMODE
 70
     1
  9
$QTEXTMODE
 70
     0
  9
$MIRRTEXT
 70
     1
  9
$DRAGMODE
 70
     2
  9
$LTSCALE
 40
10.0
  9
$OSMODE
 70
     0
  9
$ATTMODE
 70
     1
  9
$TEXTSIZE
 40
0.2
  9
$TRACEWID
 40
0.05
  9
$TEXTSTYLE
  7
STANDARD
  9
$CLAYER
  8
0
  9
$CELTYPE
  6
CONTINUOUS
  9
$CECOLOR
 62
   256
  9
$DIMSCALE
 40
1.0
  9
$DIMASZ
 40
1.25
  9
$DIMEXO
 40
1.0
  9
$DIMDLI
 40
0.38
  9
$DIMRND
 40
0.0
  9
$DIMDLE
 40
0.0
  9
$DIMEXE
 40
0.75
  9
$DIMTP
 40
0.0
  9
$DIMTM
 40
0.0
  9
$DIMTXT
 40
2.5
  9
$DIMCEN
 40
0.09
  9
$DIMTSZ
 40
0.0
  9
$DIMTOL
 70
     0
  9
$DIMLIM
 70
     0
  9
$DIMTIH
 70
     0
  9
$DIMTOH
 70
     0
  9
$DIMSE1
 70
     0
  9
$DIMSE2
 70
     0
  9
$DIMTAD
 70
     1
  9
$DIMZIN
 70
     0
  9
$DIMBLK
  1

  9
$DIMASO
 70
     1
  9
$DIMSHO
 70
     1
  9
$DIMPOST
  1

  9
$DIMAPOST
  1

  9
$DIMALT
 70
     0
  9
$DIMALTD
 70
     2
  9
$DIMALTF
 40
25.4
  9
$DIMLFAC
 40
1.0
  9
$DIMTOFL
 70
     0
  9
$DIMTVP
 40
0.0
  9
$DIMTIX
 70
     0
  9
$DIMSOXD
 70
     0
  9
$DIMSAH
 70
     0
  9
$DIMBLK1
  1

  9
$DIMBLK2
  1

  9
$DIMSTYLE
  2
STANDARD
  9
$DIMCLRD
 70
     7
  9
$DIMCLRE
 70
     7
  9
$DIMCLRT
 70
     7
  9
$DIMTFAC
 40
0.8
  9
$DIMGAP
 40
1.25
  9
$LUNITS
 70
     2
  9
$LUPREC
 70
     4
  9
$AXISMODE
 70
     0
  9
$AXISUNIT
 10
0.0
 20
0.0
  9
$SKETCHINC
 40
0.1
  9
$FILLETRAD
 40
0.0
  9
$AUNITS
 70
     0
  9
$AUPREC
 70
     0
  9
$MENU
  1
acad
  9
$ELEVATION
 40
0.0
  9
$PELEVATION
 40
0.0
  9
$THICKNESS
 40
0.0
  9
$LIMCHECK
 70
     0
  9
$BLIPMODE
 70
     1
  9
$CHAMFERA
 40
0.0
  9
$CHAMFERB
 40
0.0
  9
$SKPOLY
 70
     0
  9
$TDCREATE
 40
2454285.606400463
  9
$TDUPDATE
 40
2454285.522800926
  9
$TDINDWG
 40
0.0000000000
  9
$TDUSRTIMER
 40
0.0000000000
  9
$USRTIMER
 70
     1
  9
$ANGBASE
 50
0.0
  9
$ANGDIR
 70
     0
  9
$PDMODE
 70
     0
  9
$PDSIZE
 40
0.0
  9
$PLINEWID
 40
0.0
  9
$COORDS
 70
     0
  9
$SPLFRAME
 70
     0
  9
$SPLINETYPE
 70
     6
  9
$SPLINESEGS
 70
     8
  9
$ATTDIA
 70
     0
  9
$ATTREQ
 70
     1
  9
$HANDLING
 70
     1
  9
$HANDSEED
  5
1F7
  9
$SURFTAB1
 70
     6
  9
$SURFTAB2
 70
     6
  9
$SURFTYPE
 70
     6
  9
$SURFU
 70
     6
  9
$SURFV
 70
     6
  9
$UCSNAME
  2

  9
$UCSORG
 10
0.0
 20
0.0
 30
0.0
  9
$UCSXDIR
 10
1.0
 20
0.0
 30
0.0
  9
$UCSYDIR
 10
0.0
 20
1.0
 30
0.0
  9
$PUCSNAME
  2

  9
$PUCSORG
 10
0.0
 20
0.0
 30
0.0
  9
$PUCSXDIR
 10
1.0
 20
0.0
 30
0.0
  9
$PUCSYDIR
 10
0.0
 20
1.0
 30
0.0
  9
$USERI1
 70
     0
  9
$USERI2
 70
     0
  9
$USERI3
 70
     0
  9
$USERI4
 70
     0
  9
$USERI5
 70
     0
  9
$USERR1
 40
0.0
  9
$USERR2
 40
0.0
  9
$USERR3
 40
0.0
  9
$USERR4
 40
0.0
  9
$USERR5
 40
0.0
  9
$WORLDVIEW
 70
     1
  9
$SHADEDGE
 70
     3
  9
$SHADEDIF
 70
    70
  9
$TILEMODE
 70
     1
  9
$MAXACTVP
 70
    16
  9
$PINSBASE
 10
0.0
 20
0.0
 30
0.0
  9
$PLIMCHECK
 70
     0
  9
$PEXTMIN
 10
1.000000E+20
 20
1.000000E+20
 30
1.000000E+20
  9
$PEXTMAX
 10
-1.000000E+20
 20
-1.000000E+20
 30
-1.000000E+20
  9
$PLIMMIN
 10
0.0
 20
0.0
  9
$PLIMMAX
 10
12.0
 20
9.0
  9
$UNITMODE
 70
     0
  9
$VISRETAIN
 70
     0
  9
$PLINEGEN
 70
     1
  9
$PSLTSCALE
 70
     0
  9
$TREEDEPTH
 70
  3020
  0
ENDSEC
  0
SECTION
  2
TABLES
  0
TABLE
  2
VPORT
 70
     1
  0
VPORT
  2
*ACTIVE
 70
     0
 10
0.0
 20
0.0
 11
1.0
 21
1.0
 12
6.591288
 22
4.579184
 13
0.0
 23
0.0
 14
1.0
 24
1.0
 15
0.0
 25
0.0
 16
0.0
 26
0.0
 36
1.0
 17
0.0
 27
0.0
 37
0.0
 40
9.158369
 41
0.688564
 42
50.0
 43
0.0
 44
0.0
 50
0.0
 51
0.0
 71
     0
 72
   100
 73
     1
 74
     1
 75
     0
 76
     0
 77
     0
 78
     0
  0
ENDTAB
  0
TABLE
  2
LTYPE
 70
     2
  0
LTYPE
  2
CONTINUOUS
 70
    64
  3
Solid line
 72
    65
 73
     0
 40
0.0
  0
LTYPE
  2
CENTER
 70
    64
  3
____ _ ____ _ ____ _ ____ _ ____ _ ____ _ ____
 72
    65
 73
     4
 40
2.0
 49
1.25
 49
-0.25
 49
0.25
 49
-0.25
  0
ENDTAB
  0
TABLE
  2
LAYER
 70
     1
  0
LAYER
  2
0
 70
     0
 62
     7
  6
CONTINUOUS
  0
ENDTAB
  0
TABLE
  2
STYLE
 70
     1
  0
STYLE
  2
STANDARD
 70
     0
 40
0.0
 41
1.0
 50
0.0
 71
     0
 42
0.0
  3
IsonormD
  4

  0
ENDTAB
  0
TABLE
  2
VIEW
 70
     0
  0
ENDTAB
  0
TABLE
  2
UCS
 70
     0
  0
ENDTAB
  0
TABLE
  2
APPID
 70
     2
  0
APPID
  2
ACAD
 70
     0
  0
APPID
  2
TopSolid_Draft
 70
     0
  0
ENDTAB
  0
TABLE
  2
DIMSTYLE
 70
     1
  0
DIMSTYLE
  2
STANDARD
 70
     0
  3

  4

  5

  6

  7

 40
1.0
 41
1.25
 42
1.0
 43
0.38
 44
0.75
 45
0.0
 46
0.0
 47
0.0
 48
0.0
 71
     0
 72
     0
 73
     0
 74
     0
 75
     0
 76
     0
 77
     1
 78
     0
140
2.5
141
0.09
142
0.0
143
25.4
144
1.0
145
0.0
146
0.8
147
1.25
170
     0
171
     2
172
     0
173
     0
174
     0
175
     0
176
     7
177
     7
178
     7
  0
ENDTAB
  0
ENDSEC
  0
SECTION
  2
BLOCKS
  0
BLOCK
  8
0
  5
26
  2
AID3
 70
     0
 10
0.0
 20
0.0
 30
0.0
  3
#draft view
  0
CIRCLE
  8
0
  6
CONTINUOUS
 62
     7
  5
27
 10
128.00856
 20
53.323335
 30
0.0
 40
5.5
210
0.0
220
0.0
230
1.0
  0
CIRCLE
  8
0
  6
CONTINUOUS
 62
     7
  5
28
 10
198.00856
 20
53.323335
 30
0.0
 40
5.5
210
0.0
220
0.0
230
1.0
  0
LINE
  8
0
  6
CONTINUOUS
 62
     7
  5
29
 10
204.50856
 20
59.323335
 30
0.0
 11
121.50856
 21
59.323335
 31
0.0
  0
LINE
  8
0
  6
CONTINUOUS
 62
     7
  5
2A
 10
204.50856
 20
59.323335
 30
0.0
 11
204.50856
 21
47.323335
 31
0.0
  0
LINE
  8
0
  6
CONTINUOUS
 62
     7
  5
2B
 10
204.50856
 20
47.323335
 30
0.0
 11
121.50856
 21
47.323335
 31
0.0
  0
LINE
  8
0
  6
CONTINUOUS
 62
     7
  5
2C
 10
121.50856
 20
59.323335
 30
0.0
 11
121.50856
 21
47.323335
 31
0.0
  0
CIRCLE
  8
0
  6
CONTINUOUS
 62
     7
  5
2D
 10
198.00856
 20
260.323335
 30
0.0
 40
5.5
210
0.0
220
0.0
230
1.0
  0
LINE
  8
0
  6
CONTINUOUS
 62
     7
  5
2E
 10
204.50856
 20
266.323335
 30
0.0
 11
121.50856
 21
266.323335
 31
0.0
  0
LINE
  8
0
  6
CONTINUOUS
 62
     7
  5
2F
 10
204.50856
 20
254.323335
 30
0.0
 11
121.50856
 21
254.323335
 31
0.0
  0
CIRCLE
  8
0
  6
CONTINUOUS
 62
     7
  5
30
 10
128.00856
 20
260.323335
 30
0.0
 40
5.5
210
0.0
220
0.0
230
1.0
  0
LINE
  8
0
  6
CONTINUOUS
 62
     7
  5
31
 10
121.50856
 20
266.323335
 30
0.0
 11
121.50856
 21
254.323335
 31
0.0
  0
LINE
  8
0
  6
CONTINUOUS
 62
     7
  5
32
 10
204.50856
 20
266.323335
 30
0.0
 11
204.50856
 21
254.323335
 31
0.0
  0
LINE
  8
0
  6
CONTINUOUS
 62
     7
  5
33
 10
126.565185
 20
257.823335
 30
0.0
 11
125.121809
 21
260.323335
 31
0.0
  0
LINE
  8
0
  6
CONTINUOUS
 62
     7
  5
34
 10
129.451936
 20
257.823335
 30
0.0
 11
126.565185
 21
257.823335
 31
0.0
  0
LINE
  8
0
  6
CONTINUOUS
 62
     7
  5
35
 10
129.451936
 20
262.823335
 30
0.0
 11
130.895312
 21
260.323335
 31
0.0
  0
LINE
  8
0
  6
CONTINUOUS
 62
     7
  5
36
 10
126.565185
 20
262.823335
 30
0.0
 11
129.451936
 21
262.823335
 31
0.0
  0
LINE
  8
0
  6
CONTINUOUS
 62
     7
  5
37
 10
125.121809
 20
260.323335
 30
0.0
 11
126.565185
 21
262.823335
 31
0.0
  0
CIRCLE
  8
0
  6
CONTINUOUS
 62
     7
  5
38
 10
128.00856
 20
260.323335
 30
0.0
 40
5.0
210
0.0
220
0.0
230
1.0
  0
LINE
  8
0
  6
CONTINUOUS
 62
     7
  5
39
 10
130.895312
 20
260.323335
 30
0.0
 11
129.451936
 21
257.823335
 31
0.0
  0
LINE
  8
0
  6
CONTINUOUS
 62
     7
  5
3A
 10
130.895312
 20
53.323335
 30
0.0
 11
129.451936
 21
50.823335
 31
0.0
  0
LINE
  8
0
  6
CONTINUOUS
 62
     7
  5
3B
 10
129.451936
 20
55.823335
 30
0.0
 11
130.895312
 21
53.323335
 31
0.0
  0
CIRCLE
  8
0
  6
CONTINUOUS
 62
     7
  5
3C
 10
128.00856
 20
53.323335
 30
0.0
 40
5.0
210
0.0
220
0.0
230
1.0
  0
LINE
  8
0
  6
CONTINUOUS
 62
     7
  5
3D
 10
126.565185
 20
50.823335
 30
0.0
 11
125.121809
 21
53.323335
 31
0.0
  0
LINE
  8
0
  6
CONTINUOUS
 62
     7
  5
3E
 10
125.121809
 20
53.323335
 30
0.0
 11
126.565185
 21
55.823335
 31
0.0
  0
LINE
  8
0
  6
CONTINUOUS
 62
     7
  5
3F
 10
129.451936
 20
50.823335
 30
0.0
 11
126.565185
 21
50.823335
 31
0.0
  0
LINE
  8
0
  6
CONTINUOUS
 62
     7
  5
40
 10
126.565185
 20
55.823335
 30
0.0
 11
129.451936
 21
55.823335
 31
0.0
  0
LINE
  8
0
  6
CONTINUOUS
 62
     7
  5
41
 10
196.565185
 20
257.823335
 30
0.0
 11
195.121809
 21
260.323335
 31
0.0
  0
LINE
  8
0
  6
CONTINUOUS
 62
     7
  5
42
 10
199.451936
 20
257.823335
 30
0.0
 11
196.565185
 21
257.823335
 31
0.0
  0
LINE
  8
0
  6
CONTINUOUS
 62
     7
  5
43
 10
200.895312
 20
260.323335
 30
0.0
 11
199.451936
 21
257.823335
 31
0.0
  0
LINE
  8
0
  6
CONTINUOUS
 62
     7
  5
44
 10
199.451936
 20
262.823335
 30
0.0
 11
200.895312
 21
260.323335
 31
0.0
  0
LINE
  8
0
  6
CONTINUOUS
 62
     7
  5
45
 10
196.565185
 20
262.823335
 30
0.0
 11
199.451936
 21
262.823335
 31
0.0
  0
LINE
  8
0
  6
CONTINUOUS
 62
     7
  5
46
 10
195.121809
 20
260.323335
 30
0.0
 11
196.565185
 21
262.823335
 31
0.0
  0
CIRCLE
  8
0
  6
CONTINUOUS
 62
     7
  5
47
 10
198.00856
 20
260.323335
 30
0.0
 40
5.0
210
0.0
220
0.0
230
1.0
  0
LINE
  8
0
  6
CONTINUOUS
 62
     7
  5
48
 10
196.565185
 20
50.823335
 30
0.0
 11
195.121809
 21
53.323335
 31
0.0
  0
LINE
  8
0
  6
CONTINUOUS
 62
     7
  5
49
 10
199.451936
 20
50.823335
 30
0.0
 11
196.565185
 21
50.823335
 31
0.0
  0
LINE
  8
0
  6
CONTINUOUS
 62
     7
  5
4A
 10
200.895312
 20
53.323335
 30
0.0
 11
199.451936
 21
50.823335
 31
0.0
  0
LINE
  8
0
  6
CONTINUOUS
 62
     7
  5
4B
 10
196.565185
 20
55.823335
 30
0.0
 11
199.451936
 21
55.823335
 31
0.0
  0
LINE
  8
0
  6
CONTINUOUS
 62
     7
  5
4C
 10
195.121809
 20
53.323335
 30
0.0
 11
196.565185
 21
55.823335
 31
0.0
  0
CIRCLE
  8
0
  6
CONTINUOUS
 62
     7
  5
4D
 10
198.00856
 20
53.323335
 30
0.0
 40
5.0
210
0.0
220
0.0
230
1.0
  0
LINE
  8
0
  6
CONTINUOUS
 62
     7
  5
4E
 10
199.451936
 20
55.823335
 30
0.0
 11
200.895312
 21
53.323335
 31
0.0
  0
LINE
  8
0
  6
CONTINUOUS
 62
     7
  5
4F
 10
176.50856
 20
272.323335
 30
0.0
 11
176.50856
 21
266.323335
 31
0.0
  0
LINE
  8
0
  6
CONTINUOUS
 62
     9
  5
50
 10
172.50856
 20
266.323335
 30
0.0
 11
172.50856
 21
272.323335
 31
0.0
  0
LINE
  8
0
  6
CONTINUOUS
 62
     7
  5
51
 10
172.50856
 20
272.323335
 30
0.0
 11
176.50856
 21
272.323335
 31
0.0
  0
LINE
  8
0
  6
CONTINUOUS
 62
     9
  5
52
 10
153.50856
 20
272.323335
 30
0.0
 11
153.50856
 21
266.323335
 31
0.0
  0
LINE
  8
0
  6
CONTINUOUS
 62
     7
  5
53
 10
153.50856
 20
272.323335
 30
0.0
 11
172.50856
 21
272.323335
 31
0.0
  0
LINE
  8
0
  6
CONTINUOUS
 62
     7
  5
54
 10
149.50856
 20
266.323335
 30
0.0
 11
149.50856
 21
272.323335
 31
0.0
  0
LINE
  8
0
  6
CONTINUOUS
 62
     7
  5
55
 10
149.50856
 20
272.323335
 30
0.0
 11
153.50856
 21
272.323335
 31
0.0
  0
LINE
  8
0
  6
CONTINUOUS
 62
     7
  5
56
 10
157.00856
 20
70.323335
 30
0.0
 11
169.00856
 21
70.323335
 31
0.0
  0
LINE
  8
0
  6
CONTINUOUS
 62
     7
  5
57
 10
160.50856
 20
282.323335
 30
0.0
 11
165.50856
 21
282.323335
 31
0.0
  0
CIRCLE
  8
0
  6
CONTINUOUS
 62
     7
  5
58
 10
126.50856
 20
243.323335
 30
0.0
 40
2.459
210
0.0
220
0.0
230
1.0
  0
CIRCLE
  8
0
  6
CONTINUOUS
 62
     7
  5
59
 10
126.50856
 20
243.323335
 30
0.0
 40
3.0
210
0.0
220
0.0
230
1.0
  0
CIRCLE
  8
0
  6
CONTINUOUS
 62
     7
  5
5A
 10
126.50856
 20
170.323335
 30
0.0
 40
3.0
210
0.0
220
0.0
230
1.0
  0
CIRCLE
  8
0
  6
CONTINUOUS
 62
     7
  5
5B
 10
199.50856
 20
243.323335
 30
0.0
 40
3.0
210
0.0
220
0.0
230
1.0
  0
CIRCLE
  8
0
  6
CONTINUOUS
 62
     7
  5
5C
 10
199.50856
 20
170.323335
 30
0.0
 40
3.0
210
0.0
220
0.0
230
1.0
  0
LINE
  8
0
  6
CONTINUOUS
 62
     7
  5
5D
 10
120.50856
 20
164.323335
 30
0.0
 11
120.50856
 21
249.323335
 31
0.0
  0
LINE
  8
0
  6
CONTINUOUS
 62
     7
  5
5E
 10
120.50856
 20
249.323335
 30
0.0
 11
205.50856
 21
249.323335
 31
0.0
  0
LINE
  8
0
  6
CONTINUOUS
 62
     7
  5
5F
 10
205.50856
 20
249.323335
 30
0.0
 11
205.50856
 21
164.323335
 31
0.0
  0
LINE
  8
0
  6
CONTINUOUS
 62
     7
  5
60
 10
205.50856
 20
164.323335
 30
0.0
 11
120.50856
 21
164.323335
 31
0.0
  0
CIRCLE
  8
0
  6
CONTINUOUS
 62
     7
  5
61
 10
199.50856
 20
170.323335
 30
0.0
 40
2.459
210
0.0
220
0.0
230
1.0
  0
CIRCLE
  8
0
  6
CONTINUOUS
 62
     7
  5
62
 10
199.50856
 20
243.323335
 30
0.0
 40
2.459
210
0.0
220
0.0
230
1.0
  0
CIRCLE
  8
0
  6
CONTINUOUS
 62
     7
  5
63
 10
126.50856
 20
170.323335
 30
0.0
 40
2.459
210
0.0
220
0.0
230
1.0
  0
LINE
  8
0
  6
CONTINUOUS
 62
     9
  5
64
 10
168.648019
 20
251.323335
 30
0.0
 11
168.648019
 21
249.323335
 31
0.0
  0
LINE
  8
0
  6
CONTINUOUS
 62
     7
  5
65
 10
174.10856
 20
251.323335
 30
0.0
 11
174.10856
 21
249.323335
 31
0.0
  0
LINE
  8
0
  6
CONTINUOUS
 62
     7
  5
66
 10
174.10856
 20
251.323335
 30
0.0
 11
168.648019
 21
251.323335
 31
0.0
  0
LINE
  8
0
  6
CONTINUOUS
 62
     9
  5
67
 10
174.00856
 20
251.923335
 30
0.0
 11
166.40856
 21
251.923335
 31
0.0
  0
LINE
  8
0
  6
CONTINUOUS
 62
     7
  5
68
 10
168.00856
 20
253.523335
 30
0.0
 11
172.40856
 21
253.523335
 31
0.0
  0
LINE
  8
0
  6
CONTINUOUS
 62
     9
  5
69
 10
158.567019
 20
251.323335
 30
0.0
 11
158.567019
 21
249.323335
 31
0.0
  0
LINE
  8
0
  6
CONTINUOUS
 62
     7
  5
6A
 10
168.648019
 20
251.323335
 30
0.0
 11
158.567019
 21
251.323335
 31
0.0
  0
LINE
  8
0
  6
CONTINUOUS
 62
     7
  5
6B
 10
151.90856
 20
251.323335
 30
0.0
 11
151.90856
 21
249.323335
 31
0.0
  0
LINE
  8
0
  6
CONTINUOUS
 62
     7
  5
6C
 10
158.567019
 20
251.323335
 30
0.0
 11
151.90856
 21
251.323335
 31
0.0
  0
LINE
  8
0
  6
CONTINUOUS
 62
     9
  5
6D
 10
159.00856
 20
251.923335
 30
0.0
 11
152.00856
 21
251.923335
 31
0.0
  0
LINE
  8
0
  6
CONTINUOUS
 62
     7
  5
6E
 10
153.60856
 20
253.523335
 30
0.0
 11
158.00856
 21
253.523335
 31
0.0
  0
LINE
  8
0
  6
CONTINUOUS
 62
     7
  5
6F
 10
146.00856
 20
59.323335
 30
0.0
 11
146.00856
 21
164.323335
 31
0.0
  0
LINE
  8
0
  6
CONTINUOUS
 62
     7
  5
70
 10
146.00856
 20
249.323335
 30
0.0
 11
146.00856
 21
254.323335
 31
0.0
  0
LINE
  8
0
  6
CONTINUOUS
 62
     7
  5
71
 10
134.00856
 20
254.323335
 30
0.0
 11
134.00856
 21
249.323335
 31
0.0
  0
LINE
  8
0
  6
CONTINUOUS
 62
     7
  5
72
 10
134.00856
 20
164.323335
 30
0.0
 11
134.00856
 21
59.323335
 31
0.0
  0
LINE
  8
0
  6
CONTINUOUS
 62
     7
  5
73
 10
192.00856
 20
59.323335
 30
0.0
 11
192.00856
 21
164.323335
 31
0.0
  0
LINE
  8
0
  6
CONTINUOUS
 62
     7
  5
74
 10
192.00856
 20
249.323335
 30
0.0
 11
192.00856
 21
254.323335
 31
0.0
  0
LINE
  8
0
  6
CONTINUOUS
 62
     7
  5
75
 10
180.00856
 20
254.323335
 30
0.0
 11
180.00856
 21
249.323335
 31
0.0
  0
LINE
  8
0
  6
CONTINUOUS
 62
     7
  5
76
 10
180.00856
 20
164.323335
 30
0.0
 11
180.00856
 21
59.323335
 31
0.0
  0
LINE
  8
0
  6
CONTINUOUS
 62
     7
  5
77
 10
169.00856
 20
59.323335
 30
0.0
 11
169.00856
 21
70.323335
 31
0.0
  0
LINE
  8
0
  6
CONTINUOUS
 62
     7
  5
78
 10
157.00856
 20
70.323335
 30
0.0
 11
157.00856
 21
59.323335
 31
0.0
  0
LINE
  8
0
  6
CONTINUOUS
 62
     7
  5
79
 10
159.00856
 20
254.323335
 30
0.0
 11
159.00856
 21
251.323335
 31
0.0
  0
LINE
  8
0
  6
CONTINUOUS
 62
     7
  5
7A
 10
159.00856
 20
164.323335
 30
0.0
 11
159.00856
 21
70.323335
 31
0.0
  0
LINE
  8
0
  6
CONTINUOUS
 62
     7
  5
7B
 10
167.00856
 20
70.323335
 30
0.0
 11
167.00856
 21
164.323335
 31
0.0
  0
LINE
  8
0
  6
CONTINUOUS
 62
     7
  5
7C
 10
167.00856
 20
253.172335
 30
0.0
 11
167.00856
 21
254.323335
 31
0.0
  0
LINE
  8
0
  6
CONTINUOUS
 62
     7
  5
7D
 10
165.50856
 20
272.323335
 30
0.0
 11
165.50856
 21
282.323335
 31
0.0
  0
LINE
  8
0
  6
CONTINUOUS
 62
     7
  5
7E
 10
160.50856
 20
282.323335
 30
0.0
 11
160.50856
 21
272.323335
 31
0.0
  0
ARC
  8
0
  6
CONTINUOUS
 62
     7
  5
7F
 10
168.00856
 20
251.923335
 30
0.0
 40
1.6
 50
90.0
 51
180.0
210
0.0
220
0.0
230
1.0
  0
ARC
  8
0
  6
CONTINUOUS
 62
     7
  5
80
 10
172.40856
 20
251.923335
 30
0.0
 40
1.6
 50
0.0
 51
90.0
210
0.0
220
0.0
230
1.0
  0
LINE
  8
0
  6
CONTINUOUS
 62
     7
  5
81
 10
166.40856
 20
251.923335
 30
0.0
 11
166.40856
 21
251.323335
 31
0.0
  0
LINE
  8
0
  6
CONTINUOUS
 62
     7
  5
82
 10
174.00856
 20
251.323335
 30
0.0
 11
174.00856
 21
251.923335
 31
0.0
  0
LINE
  8
0
  6
CONTINUOUS
 62
     7
  5
83
 10
171.50856
 20
254.323335
 30
0.0
 11
171.50856
 21
253.523335
 31
0.0
  0
LINE
  8
0
  6
CONTINUOUS
 62
     7
  5
84
 10
179.50856
 20
249.323335
 30
0.0
 11
179.50856
 21
254.323335
 31
0.0
  0
LINE
  8
0
  6
CONTINUOUS
 62
     7
  5
85
 10
152.00856
 20
251.923335
 30
0.0
 11
152.00856
 21
251.323335
 31
0.0
  0
ARC
  8
0
  6
CONTINUOUS
 62
     7
  5
86
 10
153.60856
 20
251.923335
 30
0.0
 40
1.6
 50
90.0
 51
180.0
210
0.0
220
0.0
230
1.0
  0
ARC
  8
0
  6
CONTINUOUS
 62
     7
  5
87
 10
158.00856
 20
251.923335
 30
0.0
 40
1.6
 50
51.317813
 51
90.0
210
0.0
220
0.0
230
1.0
  0
ENDBLK
  8
0
  5
88
  0
BLOCK
  8
0
  5
8B
  2
AID201
 70
     0
 10
0.0
 20
0.0
 30
0.0
  3
#auxiliary draft view
  0
LINE
  8
0
  6
CONTINUOUS
 62
     7
  5
8C
 10
23.054067
 20
266.323335
 30
0.0
 11
23.054067
 21
254.323335
 31
0.0
  0
LINE
  8
0
  6
CONTINUOUS
 62
     7
  5
8D
 10
56.054067
 20
266.323335
 30
0.0
 11
23.054067
 21
266.323335
 31
0.0
  0
LINE
  8
0
  6
CONTINUOUS
 62
     7
  5
8E
 10
56.054067
 20
266.323335
 30
0.0
 11
56.054067
 21
254.323335
 31
0.0
  0
LINE
  8
0
  6
CONTINUOUS
 62
     7
  5
8F
 10
56.054067
 20
254.323335
 30
0.0
 11
23.054067
 21
254.323335
 31
0.0
  0
LINE
  8
0
  6
CONTINUOUS
 62
     7
  5
90
 10
56.054067
 20
59.323335
 30
0.0
 11
23.054067
 21
59.323335
 31
0.0
  0
LINE
  8
0
  6
CONTINUOUS
 62
     7
  5
91
 10
56.054067
 20
47.323335
 30
0.0
 11
23.054067
 21
47.323335
 31
0.0
  0
LINE
  8
0
  6
CONTINUOUS
 62
     7
  5
92
 10
56.054067
 20
59.323335
 30
0.0
 11
56.054067
 21
47.323335
 31
0.0
  0
LINE
  8
0
  6
CONTINUOUS
 62
     7
  5
93
 10
23.054067
 20
59.323335
 30
0.0
 11
23.054067
 21
47.323335
 31
0.0
  0
LINE
  8
0
  6
CONTINUOUS
 62
     7
  5
94
 10
64.054067
 20
257.323335
 30
0.0
 11
64.054067
 21
263.323335
 31
0.0
  0
LINE
  8
0
  6
CONTINUOUS
 62
     7
  5
95
 10
64.554067
 20
262.823335
 30
0.0
 11
64.554067
 21
257.823335
 31
0.0
  0
LINE
  8
0
  6
CONTINUOUS
 62
     7
  5
96
 10
64.054067
 20
50.323335
 30
0.0
 11
64.054067
 21
56.323335
 31
0.0
  0
LINE
  8
0
  6
CONTINUOUS
 62
     7
  5
97
 10
64.554067
 20
55.823335
 30
0.0
 11
64.554067
 21
50.823335
 31
0.0
  0
LINE
  8
0
  6
CONTINUOUS
 62
     9
  5
98
 10
47.554067
 20
266.323335
 30
0.0
 11
47.554067
 21
272.323335
 31
0.0
  0
LINE
  8
0
  6
CONTINUOUS
 62
     9
  5
99
 10
28.554067
 20
272.323335
 30
0.0
 11
28.554067
 21
266.323335
 31
0.0
  0
LINE
  8
0
  6
CONTINUOUS
 62
     7
  5
9A
 10
28.554067
 20
272.323335
 30
0.0
 11
47.554067
 21
272.323335
 31
0.0
  0
LINE
  8
0
  6
CONTINUOUS
 62
     7
  5
9B
 10
24.554067
 20
266.323335
 30
0.0
 11
24.554067
 21
272.323335
 31
0.0
  0
LINE
  8
0
  6
CONTINUOUS
 62
     7
  5
9C
 10
24.554067
 20
272.323335
 30
0.0
 11
28.554067
 21
272.323335
 31
0.0
  0
LINE
  8
0
  6
CONTINUOUS
 62
     7
  5
9D
 10
51.554067
 20
272.323335
 30
0.0
 11
51.554067
 21
266.323335
 31
0.0
  0
LINE
  8
0
  6
CONTINUOUS
 62
     7
  5
9E
 10
47.554067
 20
272.323335
 30
0.0
 11
51.554067
 21
272.323335
 31
0.0
  0
LINE
  8
0
  6
CONTINUOUS
 62
     7
  5
9F
 10
35.554067
 20
282.323335
 30
0.0
 11
40.554067
 21
282.323335
 31
0.0
  0
LINE
  8
0
  6
CONTINUOUS
 62
     7
  5
A0
 10
22.054067
 20
249.323335
 30
0.0
 11
54.054067
 21
249.323335
 31
0.0
  0
LINE
  8
0
  6
CONTINUOUS
 62
     7
  5
A1
 10
54.054067
 20
249.323335
 30
0.0
 11
54.054067
 21
164.323335
 31
0.0
  0
LINE
  8
0
  6
CONTINUOUS
 62
     7
  5
A2
 10
22.054067
 20
164.323335
 30
0.0
 11
54.054067
 21
164.323335
 31
0.0
  0
LINE
  8
0
  6
CONTINUOUS
 62
     7
  5
A3
 10
22.054067
 20
249.323335
 30
0.0
 11
22.054067
 21
164.323335
 31
0.0
  0
LINE
  8
0
  6
CONTINUOUS
 62
     7
  5
A4
 10
27.054067
 20
251.323335
 30
0.0
 11
23.154067
 21
251.323335
 31
0.0
  0
LINE
  8
0
  6
CONTINUOUS
 62
     9
  5
A5
 10
27.054067
 20
251.323335
 30
0.0
 11
27.054067
 21
249.323335
 31
0.0
  0
LINE
  8
0
  6
CONTINUOUS
 62
     7
  5
A6
 10
44.254067
 20
251.323335
 30
0.0
 11
44.054067
 21
251.323335
 31
0.0
  0
LINE
  8
0
  6
CONTINUOUS
 62
     7
  5
A7
 10
32.054067
 20
251.323335
 30
0.0
 11
27.054067
 21
251.323335
 31
0.0
  0
LINE
  8
0
  6
CONTINUOUS
 62
     7
  5
A8
 10
24.854067
 20
253.523335
 30
0.0
 11
29.254067
 21
253.523335
 31
0.0
  0
LINE
  8
0
  6
CONTINUOUS
 62
     9
  5
A9
 10
30.854067
 20
251.923335
 30
0.0
 11
23.254067
 21
251.923335
 31
0.0
  0
LINE
  8
0
  6
CONTINUOUS
 62
     9
  5
AA
 10
52.62824
 20
251.323335
 30
0.0
 11
52.62824
 21
249.323335
 31
0.0
  0
LINE
  8
0
  6
CONTINUOUS
 62
     7
  5
AB
 10
52.62824
 20
251.323335
 30
0.0
 11
52.254067
 21
251.323335
 31
0.0
  0
LINE
  8
0
  6
CONTINUOUS
 62
     9
  5
AC
 10
52.854067
 20
251.923335
 30
0.0
 11
52.254067
 21
251.923335
 31
0.0
  0
LINE
  8
0
  6
CONTINUOUS
 62
     7
  5
AD
 10
52.954067
 20
251.323335
 30
0.0
 11
52.62824
 21
251.323335
 31
0.0
  0
LINE
  8
0
  6
CONTINUOUS
 62
     7
  5
AE
 10
56.054067
 20
257.323335
 30
0.0
 11
64.054067
 21
257.323335
 31
0.0
  0
LINE
  8
0
  6
CONTINUOUS
 62
     7
  5
AF
 10
64.054067
 20
263.323335
 30
0.0
 11
56.054067
 21
263.323335
 31
0.0
  0
LINE
  8
0
  6
CONTINUOUS
 62
     7
  5
B0
 10
64.054067
 20
257.323335
 30
0.0
 11
64.554067
 21
257.823335
 31
0.0
  0
LINE
  8
0
  6
CONTINUOUS
 62
     7
  5
B1
 10
64.554067
 20
262.823335
 30
0.0
 11
64.054067
 21
263.323335
 31
0.0
  0
LINE
  8
0
  6
CONTINUOUS
 62
     7
  5
B2
 10
64.054067
 20
50.323335
 30
0.0
 11
64.554067
 21
50.823335
 31
0.0
  0
LINE
  8
0
  6
CONTINUOUS
 62
     7
  5
B3
 10
64.554067
 20
55.823335
 30
0.0
 11
64.054067
 21
56.323335
 31
0.0
  0
LINE
  8
0
  6
CONTINUOUS
 62
     7
  5
B4
 10
56.054067
 20
50.323335
 30
0.0
 11
64.054067
 21
50.323335
 31
0.0
  0
LINE
  8
0
  6
CONTINUOUS
 62
     7
  5
B5
 10
64.054067
 20
56.323335
 30
0.0
 11
56.054067
 21
56.323335
 31
0.0
  0
LINE
  8
0
  6
CONTINUOUS
 62
     7
  5
B6
 10
44.054067
 20
59.323335
 30
0.0
 11
44.054067
 21
164.323335
 31
0.0
  0
LINE
  8
0
  6
CONTINUOUS
 62
     7
  5
B7
 10
44.054067
 20
249.323335
 30
0.0
 11
44.054067
 21
254.323335
 31
0.0
  0
LINE
  8
0
  6
CONTINUOUS
 62
     7
  5
B8
 10
32.054067
 20
254.323335
 30
0.0
 11
32.054067
 21
249.323335
 31
0.0
  0
LINE
  8
0
  6
CONTINUOUS
 62
     7
  5
B9
 10
32.054067
 20
164.323335
 30
0.0
 11
32.054067
 21
59.323335
 31
0.0
  0
LINE
  8
0
  6
CONTINUOUS
 62
     7
  5
BA
 10
40.554067
 20
272.323335
 30
0.0
 11
40.554067
 21
282.323335
 31
0.0
  0
LINE
  8
0
  6
CONTINUOUS
 62
     7
  5
BB
 10
35.554067
 20
282.323335
 30
0.0
 11
35.554067
 21
272.323335
 31
0.0
  0
LINE
  8
0
  6
CONTINUOUS
 62
     7
  5
BC
 10
44.254067
 20
254.323335
 30
0.0
 11
44.254067
 21
249.323335
 31
0.0
  0
LINE
  8
0
  6
CONTINUOUS
 62
     7
  5
BD
 10
52.254067
 20
249.323335
 30
0.0
 11
52.254067
 21
254.323335
 31
0.0
  0
LINE
  8
0
  6
CONTINUOUS
 62
     7
  5
BE
 10
23.154067
 20
251.323335
 30
0.0
 11
23.154067
 21
249.323335
 31
0.0
  0
ARC
  8
0
  6
CONTINUOUS
 62
     7
  5
BF
 10
24.854067
 20
251.923335
 30
0.0
 40
1.6
 50
90.0
 51
180.0
210
0.0
220
0.0
230
1.0
  0
ARC
  8
0
  6
CONTINUOUS
 62
     7
  5
C0
 10
29.254067
 20
251.923335
 30
0.0
 40
1.6
 50
0.0
 51
90.0
210
0.0
220
0.0
230
1.0
  0
LINE
  8
0
  6
CONTINUOUS
 62
     7
  5
C1
 10
23.254067
 20
251.923335
 30
0.0
 11
23.254067
 21
251.323335
 31
0.0
  0
LINE
  8
0
  6
CONTINUOUS
 62
     7
  5
C2
 10
30.854067
 20
251.323335
 30
0.0
 11
30.854067
 21
251.923335
 31
0.0
  0
ARC
  8
0
  6
CONTINUOUS
 62
     7
  5
C3
 10
51.254067
 20
251.923335
 30
0.0
 40
1.6
 50
0.0
 51
51.317813
210
0.0
220
0.0
230
1.0
  0
LINE
  8
0
  6
CONTINUOUS
 62
     7
  5
C4
 10
52.854067
 20
251.323335
 30
0.0
 11
52.854067
 21
251.923335
 31
0.0
  0
LINE
  8
0
  6
CONTINUOUS
 62
     7
  5
C5
 10
52.954067
 20
249.323335
 30
0.0
 11
52.954067
 21
251.323335
 31
0.0
  0
ENDBLK
  8
0
  5
C6
  0
BLOCK
  8
0
  5
C9
  2
AID321
 70
     0
 10
0.0
 20
0.0
 30
0.0
  3
#auxiliary draft view
  0
LINE
  8
0
  6
CONTINUOUS
 62
     7
  5
CA
 10
305.930933
 20
59.323335
 30
0.0
 11
272.930933
 21
59.323335
 31
0.0
  0
LINE
  8
0
  6
CONTINUOUS
 62
     7
  5
CB
 10
305.930933
 20
59.323335
 30
0.0
 11
305.930933
 21
47.323335
 31
0.0
  0
LINE
  8
0
  6
CONTINUOUS
 62
     7
  5
CC
 10
305.930933
 20
47.323335
 30
0.0
 11
272.930933
 21
47.323335
 31
0.0
  0
LINE
  8
0
  6
CONTINUOUS
 62
     7
  5
CD
 10
272.930933
 20
59.323335
 30
0.0
 11
272.930933
 21
47.323335
 31
0.0
  0
LINE
  8
0
  6
CONTINUOUS
 62
     7
  5
CE
 10
272.930933
 20
266.323335
 30
0.0
 11
272.930933
 21
254.323335
 31
0.0
  0
LINE
  8
0
  6
CONTINUOUS
 62
     7
  5
CF
 10
305.930933
 20
266.323335
 30
0.0
 11
272.930933
 21
266.323335
 31
0.0
  0
LINE
  8
0
  6
CONTINUOUS
 62
     7
  5
D0
 10
305.930933
 20
266.323335
 30
0.0
 11
305.930933
 21
254.323335
 31
0.0
  0
LINE
  8
0
  6
CONTINUOUS
 62
     7
  5
D1
 10
305.930933
 20
254.323335
 30
0.0
 11
272.930933
 21
254.323335
 31
0.0
  0
LINE
  8
0
  6
CONTINUOUS
 62
     7
  5
D2
 10
264.930933
 20
56.323335
 30
0.0
 11
264.930933
 21
50.323335
 31
0.0
  0
LINE
  8
0
  6
CONTINUOUS
 62
     7
  5
D3
 10
264.430933
 20
50.823335
 30
0.0
 11
264.430933
 21
55.823335
 31
0.0
  0
LINE
  8
0
  6
CONTINUOUS
 62
     7
  5
D4
 10
264.430933
 20
257.823335
 30
0.0
 11
264.430933
 21
262.823335
 31
0.0
  0
LINE
  8
0
  6
CONTINUOUS
 62
     7
  5
D5
 10
264.930933
 20
263.323335
 30
0.0
 11
264.930933
 21
257.323335
 31
0.0
  0
LINE
  8
0
  6
CONTINUOUS
 62
     9
  5
D6
 10
281.430933
 20
272.323335
 30
0.0
 11
281.430933
 21
266.323335
 31
0.0
  0
LINE
  8
0
  6
CONTINUOUS
 62
     9
  5
D7
 10
300.430933
 20
266.323335
 30
0.0
 11
300.430933
 21
272.323335
 31
0.0
  0
LINE
  8
0
  6
CONTINUOUS
 62
     7
  5
D8
 10
281.430933
 20
272.323335
 30
0.0
 11
300.430933
 21
272.323335
 31
0.0
  0
LINE
  8
0
  6
CONTINUOUS
 62
     7
  5
D9
 10
304.430933
 20
272.323335
 30
0.0
 11
304.430933
 21
266.323335
 31
0.0
  0
LINE
  8
0
  6
CONTINUOUS
 62
     7
  5
DA
 10
300.430933
 20
272.323335
 30
0.0
 11
304.430933
 21
272.323335
 31
0.0
  0
LINE
  8
0
  6
CONTINUOUS
 62
     7
  5
DB
 10
277.430933
 20
266.323335
 30
0.0
 11
277.430933
 21
272.323335
 31
0.0
  0
LINE
  8
0
  6
CONTINUOUS
 62
     7
  5
DC
 10
277.430933
 20
272.323335
 30
0.0
 11
281.430933
 21
272.323335
 31
0.0
  0
LINE
  8
0
  6
CONTINUOUS
 62
     7
  5
DD
 10
288.430933
 20
282.323335
 30
0.0
 11
290.930933
 21
282.323335
 31
0.0
  0
LINE
  8
0
  6
CONTINUOUS
 62
     7
  5
DE
 10
290.930933
 20
282.323335
 30
0.0
 11
293.430933
 21
282.323335
 31
0.0
  0
LINE
  8
0
  6
CONTINUOUS
 62
     7
  5
DF
 10
306.930933
 20
249.323335
 30
0.0
 11
274.930933
 21
249.323335
 31
0.0
  0
LINE
  8
0
  6
CONTINUOUS
 62
     7
  5
E0
 10
306.930933
 20
164.323335
 30
0.0
 11
306.930933
 21
249.323335
 31
0.0
  0
LINE
  8
0
  6
CONTINUOUS
 62
     7
  5
E1
 10
306.930933
 20
164.323335
 30
0.0
 11
274.930933
 21
164.323335
 31
0.0
  0
LINE
  8
0
  6
CONTINUOUS
 62
     7
  5
E2
 10
274.930933
 20
164.323335
 30
0.0
 11
274.930933
 21
249.323335
 31
0.0
  0
LINE
  8
0
  6
CONTINUOUS
 62
     9
  5
E3
 10
279.930933
 20
251.323335
 30
0.0
 11
279.930933
 21
249.323335
 31
0.0
  0
LINE
  8
0
  6
CONTINUOUS
 62
     7
  5
E4
 10
279.930933
 20
251.323335
 30
0.0
 11
276.030933
 21
251.323335
 31
0.0
  0
LINE
  8
0
  6
CONTINUOUS
 62
     7
  5
E5
 10
284.930933
 20
251.323335
 30
0.0
 11
279.930933
 21
251.323335
 31
0.0
  0
LINE
  8
0
  6
CONTINUOUS
 62
     9
  5
E6
 10
301.103578
 20
251.323335
 30
0.0
 11
301.103578
 21
249.323335
 31
0.0
  0
LINE
  8
0
  6
CONTINUOUS
 62
     7
  5
E7
 10
301.103578
 20
251.323335
 30
0.0
 11
296.930933
 21
251.323335
 31
0.0
  0
LINE
  8
0
  6
CONTINUOUS
 62
     9
  5
E8
 10
283.730933
 20
251.923335
 30
0.0
 11
276.130933
 21
251.923335
 31
0.0
  0
LINE
  8
0
  6
CONTINUOUS
 62
     7
  5
E9
 10
277.730933
 20
253.523335
 30
0.0
 11
282.130933
 21
253.523335
 31
0.0
  0
LINE
  8
0
  6
CONTINUOUS
 62
     9
  5
EA
 10
305.505106
 20
251.323335
 30
0.0
 11
305.505106
 21
249.323335
 31
0.0
  0
LINE
  8
0
  6
CONTINUOUS
 62
     7
  5
EB
 10
305.505106
 20
251.323335
 30
0.0
 11
301.103578
 21
251.323335
 31
0.0
  0
LINE
  8
0
  6
CONTINUOUS
 62
     9
  5
EC
 10
305.730933
 20
251.923335
 30
0.0
 11
298.130933
 21
251.923335
 31
0.0
  0
LINE
  8
0
  6
CONTINUOUS
 62
     7
  5
ED
 10
299.730933
 20
253.523335
 30
0.0
 11
304.130933
 21
253.523335
 31
0.0
  0
LINE
  8
0
  6
CONTINUOUS
 62
     7
  5
EE
 10
305.830933
 20
251.323335
 30
0.0
 11
305.505106
 21
251.323335
 31
0.0
  0
LINE
  8
0
  6
CONTINUOUS
 62
     7
  5
EF
 10
272.930933
 20
56.323335
 30
0.0
 11
264.930933
 21
56.323335
 31
0.0
  0
LINE
  8
0
  6
CONTINUOUS
 62
     7
  5
F0
 10
264.930933
 20
50.323335
 30
0.0
 11
272.930933
 21
50.323335
 31
0.0
  0
LINE
  8
0
  6
CONTINUOUS
 62
     7
  5
F1
 10
264.930933
 20
56.323335
 30
0.0
 11
264.430933
 21
55.823335
 31
0.0
  0
LINE
  8
0
  6
CONTINUOUS
 62
     7
  5
F2
 10
264.430933
 20
50.823335
 30
0.0
 11
264.930933
 21
50.323335
 31
0.0
  0
LINE
  8
0
  6
CONTINUOUS
 62
     7
  5
F3
 10
264.930933
 20
263.323335
 30
0.0
 11
264.430933
 21
262.823335
 31
0.0
  0
LINE
  8
0
  6
CONTINUOUS
 62
     7
  5
F4
 10
264.430933
 20
257.823335
 30
0.0
 11
264.930933
 21
257.323335
 31
0.0
  0
LINE
  8
0
  6
CONTINUOUS
 62
     7
  5
F5
 10
272.930933
 20
263.323335
 30
0.0
 11
264.930933
 21
263.323335
 31
0.0
  0
LINE
  8
0
  6
CONTINUOUS
 62
     7
  5
F6
 10
264.930933
 20
257.323335
 30
0.0
 11
272.930933
 21
257.323335
 31
0.0
  0
LINE
  8
0
  6
CONTINUOUS
 62
     7
  5
F7
 10
296.930933
 20
59.323335
 30
0.0
 11
296.930933
 21
164.323335
 31
0.0
  0
LINE
  8
0
  6
CONTINUOUS
 62
     7
  5
F8
 10
296.930933
 20
249.323335
 30
0.0
 11
296.930933
 21
254.323335
 31
0.0
  0
LINE
  8
0
  6
CONTINUOUS
 62
     7
  5
F9
 10
284.930933
 20
254.323335
 30
0.0
 11
284.930933
 21
249.323335
 31
0.0
  0
LINE
  8
0
  6
CONTINUOUS
 62
     7
  5
FA
 10
284.930933
 20
164.323335
 30
0.0
 11
284.930933
 21
59.323335
 31
0.0
  0
LINE
  8
0
  6
CONTINUOUS
 62
     7
  5
FB
 10
293.430933
 20
272.323335
 30
0.0
 11
293.430933
 21
282.323335
 31
0.0
  0
LINE
  8
0
  6
CONTINUOUS
 62
     7
  5
FC
 10
288.430933
 20
282.323335
 30
0.0
 11
288.430933
 21
272.323335
 31
0.0
  0
LINE
  8
0
  6
CONTINUOUS
 62
     7
  5
FD
 10
276.030933
 20
251.323335
 30
0.0
 11
276.030933
 21
249.323335
 31
0.0
  0
ARC
  8
0
  6
CONTINUOUS
 62
     7
  5
FE
 10
277.730933
 20
251.923335
 30
0.0
 40
1.6
 50
90.0
 51
180.0
210
0.0
220
0.0
230
1.0
  0
ARC
  8
0
  6
CONTINUOUS
 62
     7
  5
FF
 10
282.130933
 20
251.923335
 30
0.0
 40
1.6
 50
0.0
 51
90.0
210
0.0
220
0.0
230
1.0
  0
LINE
  8
0
  6
CONTINUOUS
 62
     7
  5
100
 10
276.130933
 20
251.923335
 30
0.0
 11
276.130933
 21
251.323335
 31
0.0
  0
LINE
  8
0
  6
CONTINUOUS
 62
     7
  5
101
 10
283.730933
 20
251.323335
 30
0.0
 11
283.730933
 21
251.923335
 31
0.0
  0
ARC
  8
0
  6
CONTINUOUS
 62
     7
  5
102
 10
299.730933
 20
251.923335
 30
0.0
 40
1.6
 50
90.0
 51
180.0
210
0.0
220
0.0
230
1.0
  0
ARC
  8
0
  6
CONTINUOUS
 62
     7
  5
103
 10
304.130933
 20
251.923335
 30
0.0
 40
1.6
 50
0.0
 51
90.0
210
0.0
220
0.0
230
1.0
  0
LINE
  8
0
  6
CONTINUOUS
 62
     7
  5
104
 10
298.130933
 20
251.923335
 30
0.0
 11
298.130933
 21
251.323335
 31
0.0
  0
LINE
  8
0
  6
CONTINUOUS
 62
     7
  5
105
 10
305.730933
 20
251.323335
 30
0.0
 11
305.730933
 21
251.923335
 31
0.0
  0
LINE
  8
0
  6
CONTINUOUS
 62
     7
  5
106
 10
305.830933
 20
249.323335
 30
0.0
 11
305.830933
 21
251.323335
 31
0.0
  0
LINE
  8
0
  6
CONTINUOUS
 62
     7
  5
107
 10
276.730933
 20
254.323335
 30
0.0
 11
276.730933
 21
253.172335
 31
0.0
  0
LINE
  8
0
  6
CONTINUOUS
 62
     7
  5
108
 10
284.730933
 20
251.323335
 30
0.0
 11
284.730933
 21
254.323335
 31
0.0
  0
ENDBLK
  8
0
  5
109
  0
BLOCK
  8
0
  5
10C
  2
AID451
 70
     0
 10
0.0
 20
0.0
 30
0.0
  3
#auxiliary draft view
  0
CIRCLE
  8
0
  6
CONTINUOUS
 62
     7
  5
10D
 10
172.60856
 20
365.660482
 30
0.0
 40
2.1
210
0.0
220
0.0
230
1.0
  0
CIRCLE
  8
0
  6
CONTINUOUS
 62
     7
  5
10E
 10
153.40856
 20
346.460482
 30
0.0
 40
2.1
210
0.0
220
0.0
230
1.0
  0
CIRCLE
  8
0
  6
CONTINUOUS
 62
     7
  5
10F
 10
172.60856
 20
346.460482
 30
0.0
 40
2.1
210
0.0
220
0.0
230
1.0
  0
LINE
  8
0
  6
CONTINUOUS
 62
     7
  5
110
 10
121.50856
 20
371.060482
 30
0.0
 11
121.50856
 21
338.060482
 31
0.0
  0
CIRCLE
  8
0
  6
CONTINUOUS
 62
     7
  5
111
 10
153.40856
 20
365.660482
 30
0.0
 40
2.1
210
0.0
220
0.0
230
1.0
  0
LINE
  8
0
  6
CONTINUOUS
 62
     7
  5
112
 10
121.50856
 20
338.060482
 30
0.0
 11
204.50856
 21
338.060482
 31
0.0
  0
LINE
  8
0
  6
CONTINUOUS
 62
     7
  5
113
 10
204.50856
 20
338.060482
 30
0.0
 11
204.50856
 21
371.060482
 31
0.0
  0
LINE
  8
0
  6
CONTINUOUS
 62
     7
  5
114
 10
204.50856
 20
371.060482
 30
0.0
 11
121.50856
 21
371.060482
 31
0.0
  0
LINE
  8
0
  6
CONTINUOUS
 62
     7
  5
115
 10
200.50856
 20
329.560482
 30
0.0
 11
195.50856
 21
329.560482
 31
0.0
  0
LINE
  8
0
  6
CONTINUOUS
 62
     7
  5
116
 10
195.00856
 20
330.060482
 30
0.0
 11
201.00856
 21
330.060482
 31
0.0
  0
LINE
  8
0
  6
CONTINUOUS
 62
     7
  5
117
 10
130.50856
 20
329.560482
 30
0.0
 11
125.50856
 21
329.560482
 31
0.0
  0
LINE
  8
0
  6
CONTINUOUS
 62
     7
  5
118
 10
125.00856
 20
330.060482
 30
0.0
 11
131.00856
 21
330.060482
 31
0.0
  0
LINE
  8
0
  6
CONTINUOUS
 62
     7
  5
119
 10
120.50856
 20
372.060482
 30
0.0
 11
120.50856
 21
340.060482
 31
0.0
  0
LINE
  8
0
  6
CONTINUOUS
 62
     7
  5
11A
 10
205.50856
 20
372.060482
 30
0.0
 11
205.50856
 21
340.060482
 31
0.0
  0
LINE
  8
0
  6
CONTINUOUS
 62
     7
  5
11B
 10
205.50856
 20
340.060482
 30
0.0
 11
204.50856
 21
340.060482
 31
0.0
  0
LINE
  8
0
  6
CONTINUOUS
 62
     7
  5
11C
 10
121.50856
 20
340.060482
 30
0.0
 11
120.50856
 21
340.060482
 31
0.0
  0
LINE
  8
0
  6
CONTINUOUS
 62
     7
  5
11D
 10
205.50856
 20
372.060482
 30
0.0
 11
120.50856
 21
372.060482
 31
0.0
  0
LINE
  8
0
  6
CONTINUOUS
 62
     7
  5
11E
 10
195.00856
 20
330.060482
 30
0.0
 11
195.50856
 21
329.560482
 31
0.0
  0
LINE
  8
0
  6
CONTINUOUS
 62
     7
  5
11F
 10
200.50856
 20
329.560482
 30
0.0
 11
201.00856
 21
330.060482
 31
0.0
  0
LINE
  8
0
  6
CONTINUOUS
 62
     7
  5
120
 10
195.00856
 20
338.060482
 30
0.0
 11
195.00856
 21
330.060482
 31
0.0
  0
LINE
  8
0
  6
CONTINUOUS
 62
     7
  5
121
 10
201.00856
 20
330.060482
 30
0.0
 11
201.00856
 21
338.060482
 31
0.0
  0
LINE
  8
0
  6
CONTINUOUS
 62
     7
  5
122
 10
125.00856
 20
330.060482
 30
0.0
 11
125.50856
 21
329.560482
 31
0.0
  0
LINE
  8
0
  6
CONTINUOUS
 62
     7
  5
123
 10
130.50856
 20
329.560482
 30
0.0
 11
131.00856
 21
330.060482
 31
0.0
  0
LINE
  8
0
  6
CONTINUOUS
 62
     7
  5
124
 10
125.00856
 20
338.060482
 30
0.0
 11
125.00856
 21
330.060482
 31
0.0
  0
LINE
  8
0
  6
CONTINUOUS
 62
     7
  5
125
 10
131.00856
 20
330.060482
 30
0.0
 11
131.00856
 21
338.060482
 31
0.0
  0
ENDBLK
  8
0
  5
126
  0
BLOCK
  8
0
  5
129
  2
AID505
 70
     0
 10
0.0
 20
0.0
 30
0.0
  3
#auxiliary draft view
  0
CIRCLE
  8
0
  6
CONTINUOUS
 62
     7
  5
12A
 10
163.00856
 20
-28.392397
 30
0.0
 40
2.5
210
0.0
220
0.0
230
1.0
  0
ARC
  8
0
  6
CONTINUOUS
 62
     7
  5
12B
 10
153.50856
 20
-18.892397
 30
0.0
 40
4.0
 50
90.0
 51
180.0
210
0.0
220
0.0
230
1.0
  0
LINE
  8
0
  6
CONTINUOUS
 62
     7
  5
12C
 10
172.50856
 20
-14.892397
 30
0.0
 11
153.50856
 21
-14.892397
 31
0.0
  0
ARC
  8
0
  6
CONTINUOUS
 62
     7
  5
12D
 10
172.50856
 20
-18.892397
 30
0.0
 40
4.0
 50
0.0
 51
90.0
210
0.0
220
0.0
230
1.0
  0
LINE
  8
0
  6
CONTINUOUS
 62
     7
  5
12E
 10
176.50856
 20
-37.892397
 30
0.0
 11
176.50856
 21
-18.892397
 31
0.0
  0
ARC
  8
0
  6
CONTINUOUS
 62
     7
  5
12F
 10
172.50856
 20
-37.892397
 30
0.0
 40
4.0
 50
270.0
 51
360.0
210
0.0
220
0.0
230
1.0
  0
LINE
  8
0
  6
CONTINUOUS
 62
     7
  5
130
 10
153.50856
 20
-41.892397
 30
0.0
 11
172.50856
 21
-41.892397
 31
0.0
  0
ARC
  8
0
  6
CONTINUOUS
 62
     7
  5
131
 10
153.50856
 20
-37.892397
 30
0.0
 40
4.0
 50
180.0
 51
270.0
210
0.0
220
0.0
230
1.0
  0
LINE
  8
0
  6
CONTINUOUS
 62
     7
  5
132
 10
149.50856
 20
-18.892397
 30
0.0
 11
149.50856
 21
-37.892397
 31
0.0
  0
CIRCLE
  8
0
  6
CONTINUOUS
 62
     7
  5
133
 10
181.20856
 20
-18.792397
 30
0.0
 40
2.1
210
0.0
220
0.0
230
1.0
  0
CIRCLE
  8
0
  6
CONTINUOUS
 62
     7
  5
134
 10
144.80856
 20
-18.792397
 30
0.0
 40
2.1
210
0.0
220
0.0
230
1.0
  0
CIRCLE
  8
0
  6
CONTINUOUS
 62
     7
  5
135
 10
181.20856
 20
-37.992397
 30
0.0
 40
2.1
210
0.0
220
0.0
230
1.0
  0
CIRCLE
  8
0
  6
CONTINUOUS
 62
     7
  5
136
 10
144.80856
 20
-37.992397
 30
0.0
 40
2.1
210
0.0
220
0.0
230
1.0
  0
CIRCLE
  8
0
  6
CONTINUOUS
 62
     7
  5
137
 10
178.80856
 20
-32.392397
 30
0.0
 40
1.51
210
0.0
220
0.0
230
1.0
  0
CIRCLE
  8
0
  6
CONTINUOUS
 62
     7
  5
138
 10
147.20856
 20
-24.392397
 30
0.0
 40
1.51
210
0.0
220
0.0
230
1.0
  0
LINE
  8
0
  6
CONTINUOUS
 62
     7
  5
139
 10
204.50856
 20
-10.392397
 30
0.0
 11
204.50856
 21
-43.392397
 31
0.0
  0
LINE
  8
0
  6
CONTINUOUS
 62
     7
  5
13A
 10
204.50856
 20
-43.392397
 30
0.0
 11
121.50856
 21
-43.392397
 31
0.0
  0
LINE
  8
0
  6
CONTINUOUS
 62
     7
  5
13B
 10
121.50856
 20
-43.392397
 30
0.0
 11
121.50856
 21
-10.392397
 31
0.0
  0
LINE
  8
0
  6
CONTINUOUS
 62
     7
  5
13C
 10
121.50856
 20
-10.392397
 30
0.0
 11
204.50856
 21
-10.392397
 31
0.0
  0
LINE
  8
0
  6
CONTINUOUS
 62
     7
  5
13D
 10
201.00856
 20
-2.392397
 30
0.0
 11
198.00856
 21
-2.392397
 31
0.0
  0
LINE
  8
0
  6
CONTINUOUS
 62
     7
  5
13E
 10
198.00856
 20
-2.392397
 30
0.0
 11
195.00856
 21
-2.392397
 31
0.0
  0
LINE
  8
0
  6
CONTINUOUS
 62
     7
  5
13F
 10
195.50856
 20
-1.892397
 30
0.0
 11
198.00856
 21
-1.892397
 31
0.0
  0
LINE
  8
0
  6
CONTINUOUS
 62
     7
  5
140
 10
198.00856
 20
-1.892397
 30
0.0
 11
200.50856
 21
-1.892397
 31
0.0
  0
LINE
  8
0
  6
CONTINUOUS
 62
     7
  5
141
 10
125.50856
 20
-1.892397
 30
0.0
 11
128.00856
 21
-1.892397
 31
0.0
  0
LINE
  8
0
  6
CONTINUOUS
 62
     7
  5
142
 10
131.00856
 20
-2.392397
 30
0.0
 11
128.00856
 21
-2.392397
 31
0.0
  0
LINE
  8
0
  6
CONTINUOUS
 62
     7
  5
143
 10
128.00856
 20
-1.892397
 30
0.0
 11
130.50856
 21
-1.892397
 31
0.0
  0
LINE
  8
0
  6
CONTINUOUS
 62
     7
  5
144
 10
128.00856
 20
-2.392397
 30
0.0
 11
125.00856
 21
-2.392397
 31
0.0
  0
ARC
  8
0
  6
CONTINUOUS
 62
     7
  5
145
 10
175.50856
 20
-18.192397
 30
0.0
 40
4.0
 50
339.735344
 51
8.246644
210
0.0
220
0.0
230
1.0
  0
LINE
  8
0
  6
CONTINUOUS
 62
     7
  5
146
 10
120.50856
 20
-44.392397
 30
0.0
 11
120.50856
 21
-12.392397
 31
0.0
  0
LINE
  8
0
  6
CONTINUOUS
 62
     7
  5
147
 10
120.50856
 20
-44.392397
 30
0.0
 11
205.50856
 21
-44.392397
 31
0.0
  0
LINE
  8
0
  6
CONTINUOUS
 62
     7
  5
148
 10
120.50856
 20
-12.392397
 30
0.0
 11
121.50856
 21
-12.392397
 31
0.0
  0
LINE
  8
0
  6
CONTINUOUS
 62
     7
  5
149
 10
204.50856
 20
-12.392397
 30
0.0
 11
205.50856
 21
-12.392397
 31
0.0
  0
LINE
  8
0
  6
CONTINUOUS
 62
     7
  5
14A
 10
205.50856
 20
-44.392397
 30
0.0
 11
205.50856
 21
-12.392397
 31
0.0
  0
LINE
  8
0
  6
CONTINUOUS
 62
     7
  5
14B
 10
201.00856
 20
-10.392397
 30
0.0
 11
201.00856
 21
-2.392397
 31
0.0
  0
LINE
  8
0
  6
CONTINUOUS
 62
     7
  5
14C
 10
195.00856
 20
-2.392397
 30
0.0
 11
195.00856
 21
-10.392397
 31
0.0
  0
LINE
  8
0
  6
CONTINUOUS
 62
     7
  5
14D
 10
201.00856
 20
-2.392397
 30
0.0
 11
200.50856
 21
-1.892397
 31
0.0
  0
LINE
  8
0
  6
CONTINUOUS
 62
     7
  5
14E
 10
195.50856
 20
-1.892397
 30
0.0
 11
195.00856
 21
-2.392397
 31
0.0
  0
LINE
  8
0
  6
CONTINUOUS
 62
     7
  5
14F
 10
131.00856
 20
-2.392397
 30
0.0
 11
130.50856
 21
-1.892397
 31
0.0
  0
LINE
  8
0
  6
CONTINUOUS
 62
     7
  5
150
 10
125.50856
 20
-1.892397
 30
0.0
 11
125.00856
 21
-2.392397
 31
0.0
  0
LINE
  8
0
  6
CONTINUOUS
 62
     7
  5
151
 10
131.00856
 20
-10.392397
 30
0.0
 11
131.00856
 21
-2.392397
 31
0.0
  0
LINE
  8
0
  6
CONTINUOUS
 62
     7
  5
152
 10
125.00856
 20
-2.392397
 30
0.0
 11
125.00856
 21
-10.392397
 31
0.0
  0
ENDBLK
  8
0
  5
153
  0
BLOCK
  8
0
  5
156
  2
AID591
 70
     0
 10
0.0
 20
0.0
 30
0.0
  3
#auxiliary draft view
  0
CIRCLE
  8
0
  6
CONTINUOUS
 62
     7
  5
157
 10
367.417546
 20
53.323335
 30
0.0
 40
2.5
210
0.0
220
0.0
230
1.0
  0
CIRCLE
  8
0
  6
CONTINUOUS
 62
     7
  5
158
 10
367.417546
 20
53.323335
 30
0.0
 40
3.0
210
0.0
220
0.0
230
1.0
  0
CIRCLE
  8
0
  6
CONTINUOUS
 62
     7
  5
159
 10
367.417546
 20
260.323335
 30
0.0
 40
2.5
210
0.0
220
0.0
230
1.0
  0
CIRCLE
  8
0
  6
CONTINUOUS
 62
     7
  5
15A
 10
367.417546
 20
260.323335
 30
0.0
 40
3.0
210
0.0
220
0.0
230
1.0
  0
CIRCLE
  8
0
  6
CONTINUOUS
 62
     7
  5
15B
 10
437.417546
 20
260.323335
 30
0.0
 40
2.5
210
0.0
220
0.0
230
1.0
  0
CIRCLE
  8
0
  6
CONTINUOUS
 62
     7
  5
15C
 10
437.417546
 20
260.323335
 30
0.0
 40
3.0
210
0.0
220
0.0
230
1.0
  0
CIRCLE
  8
0
  6
CONTINUOUS
 62
     7
  5
15D
 10
437.417546
 20
53.323335
 30
0.0
 40
2.5
210
0.0
220
0.0
230
1.0
  0
CIRCLE
  8
0
  6
CONTINUOUS
 62
     7
  5
15E
 10
437.417546
 20
53.323335
 30
0.0
 40
3.0
210
0.0
220
0.0
230
1.0
  0
CIRCLE
  8
0
  6
CONTINUOUS
 62
     7
  5
15F
 10
437.417546
 20
53.323335
 30
0.0
 40
3.25
210
0.0
220
0.0
230
1.0
  0
CIRCLE
  8
0
  6
CONTINUOUS
 62
     7
  5
160
 10
367.417546
 20
53.323335
 30
0.0
 40
3.25
210
0.0
220
0.0
230
1.0
  0
LINE
  8
0
  6
CONTINUOUS
 62
     7
  5
161
 10
360.917546
 20
59.323335
 30
0.0
 11
360.917546
 21
47.323335
 31
0.0
  0
LINE
  8
0
  6
CONTINUOUS
 62
     7
  5
162
 10
443.917546
 20
59.323335
 30
0.0
 11
360.917546
 21
59.323335
 31
0.0
  0
LINE
  8
0
  6
CONTINUOUS
 62
     7
  5
163
 10
443.917546
 20
59.323335
 30
0.0
 11
443.917546
 21
47.323335
 31
0.0
  0
LINE
  8
0
  6
CONTINUOUS
 62
     7
  5
164
 10
443.917546
 20
47.323335
 30
0.0
 11
360.917546
 21
47.323335
 31
0.0
  0
CIRCLE
  8
0
  6
CONTINUOUS
 62
     7
  5
165
 10
437.417546
 20
260.323335
 30
0.0
 40
3.25
210
0.0
220
0.0
230
1.0
  0
CIRCLE
  8
0
  6
CONTINUOUS
 62
     7
  5
166
 10
367.417546
 20
260.323335
 30
0.0
 40
3.25
210
0.0
220
0.0
230
1.0
  0
LINE
  8
0
  6
CONTINUOUS
 62
     7
  5
167
 10
360.917546
 20
266.323335
 30
0.0
 11
360.917546
 21
254.323335
 31
0.0
  0
LINE
  8
0
  6
CONTINUOUS
 62
     7
  5
168
 10
443.917546
 20
266.323335
 30
0.0
 11
360.917546
 21
266.323335
 31
0.0
  0
LINE
  8
0
  6
CONTINUOUS
 62
     7
  5
169
 10
443.917546
 20
266.323335
 30
0.0
 11
443.917546
 21
254.323335
 31
0.0
  0
LINE
  8
0
  6
CONTINUOUS
 62
     7
  5
16A
 10
443.917546
 20
254.323335
 30
0.0
 11
360.917546
 21
254.323335
 31
0.0
  0
LINE
  8
0
  6
CONTINUOUS
 62
     7
  5
16B
 10
415.917546
 20
272.323335
 30
0.0
 11
415.917546
 21
266.323335
 31
0.0
  0
LINE
  8
0
  6
CONTINUOUS
 62
     9
  5
16C
 10
411.917546
 20
266.323335
 30
0.0
 11
411.917546
 21
272.323335
 31
0.0
  0
LINE
  8
0
  6
CONTINUOUS
 62
     7
  5
16D
 10
411.917546
 20
272.323335
 30
0.0
 11
415.917546
 21
272.323335
 31
0.0
  0
LINE
  8
0
  6
CONTINUOUS
 62
     9
  5
16E
 10
392.917546
 20
272.323335
 30
0.0
 11
392.917546
 21
266.323335
 31
0.0
  0
LINE
  8
0
  6
CONTINUOUS
 62
     7
  5
16F
 10
392.917546
 20
272.323335
 30
0.0
 11
411.917546
 21
272.323335
 31
0.0
  0
LINE
  8
0
  6
CONTINUOUS
 62
     7
  5
170
 10
388.917546
 20
266.323335
 30
0.0
 11
388.917546
 21
272.323335
 31
0.0
  0
LINE
  8
0
  6
CONTINUOUS
 62
     7
  5
171
 10
388.917546
 20
272.323335
 30
0.0
 11
392.917546
 21
272.323335
 31
0.0
  0
LINE
  8
0
  6
CONTINUOUS
 62
     7
  5
172
 10
396.417546
 20
70.323335
 30
0.0
 11
408.417546
 21
70.323335
 31
0.0
  0
LINE
  8
0
  6
CONTINUOUS
 62
     7
  5
173
 10
399.917546
 20
282.323335
 30
0.0
 11
404.917546
 21
282.323335
 31
0.0
  0
CIRCLE
  8
0
  6
CONTINUOUS
 62
     7
  5
174
 10
438.917546
 20
243.323335
 30
0.0
 40
5.0
210
0.0
220
0.0
230
1.0
  0
CIRCLE
  8
0
  6
CONTINUOUS
 62
     7
  5
175
 10
438.917546
 20
170.323335
 30
0.0
 40
5.0
210
0.0
220
0.0
230
1.0
  0
CIRCLE
  8
0
  6
CONTINUOUS
 62
     7
  5
176
 10
365.917546
 20
243.323335
 30
0.0
 40
5.0
210
0.0
220
0.0
230
1.0
  0
CIRCLE
  8
0
  6
CONTINUOUS
 62
     7
  5
177
 10
365.917546
 20
170.323335
 30
0.0
 40
5.0
210
0.0
220
0.0
230
1.0
  0
LINE
  8
0
  6
CONTINUOUS
 62
     7
  5
178
 10
359.917546
 20
249.323335
 30
0.0
 11
359.917546
 21
164.323335
 31
0.0
  0
LINE
  8
0
  6
CONTINUOUS
 62
     7
  5
179
 10
444.917546
 20
249.323335
 30
0.0
 11
359.917546
 21
249.323335
 31
0.0
  0
LINE
  8
0
  6
CONTINUOUS
 62
     7
  5
17A
 10
444.917546
 20
164.323335
 30
0.0
 11
444.917546
 21
249.323335
 31
0.0
  0
LINE
  8
0
  6
CONTINUOUS
 62
     7
  5
17B
 10
359.917546
 20
164.323335
 30
0.0
 11
444.917546
 21
164.323335
 31
0.0
  0
LINE
  8
0
  6
CONTINUOUS
 62
     9
  5
17C
 10
408.057005
 20
251.323335
 30
0.0
 11
408.057005
 21
249.323335
 31
0.0
  0
LINE
  8
0
  6
CONTINUOUS
 62
     7
  5
17D
 10
413.517546
 20
251.323335
 30
0.0
 11
413.517546
 21
249.323335
 31
0.0
  0
LINE
  8
0
  6
CONTINUOUS
 62
     7
  5
17E
 10
413.517546
 20
251.323335
 30
0.0
 11
408.057005
 21
251.323335
 31
0.0
  0
LINE
  8
0
  6
CONTINUOUS
 62
     9
  5
17F
 10
413.417546
 20
251.923335
 30
0.0
 11
409.617546
 21
251.923335
 31
0.0
  0
LINE
  8
0
  6
CONTINUOUS
 62
     9
  5
180
 10
409.617546
 20
251.923335
 30
0.0
 11
405.817546
 21
251.923335
 31
0.0
  0
LINE
  8
0
  6
CONTINUOUS
 62
     7
  5
181
 10
407.417546
 20
253.523335
 30
0.0
 11
409.617546
 21
253.523335
 31
0.0
  0
LINE
  8
0
  6
CONTINUOUS
 62
     7
  5
182
 10
409.617546
 20
253.523335
 30
0.0
 11
411.817546
 21
253.523335
 31
0.0
  0
LINE
  8
0
  6
CONTINUOUS
 62
     9
  5
183
 10
397.976005
 20
251.323335
 30
0.0
 11
397.976005
 21
249.323335
 31
0.0
  0
LINE
  8
0
  6
CONTINUOUS
 62
     7
  5
184
 10
408.057005
 20
251.323335
 30
0.0
 11
397.976005
 21
251.323335
 31
0.0
  0
LINE
  8
0
  6
CONTINUOUS
 62
     7
  5
185
 10
397.976005
 20
251.323335
 30
0.0
 11
393.917546
 21
251.323335
 31
0.0
  0
CIRCLE
  8
0
  6
CONTINUOUS
 62
     7
  5
186
 10
438.917546
 20
243.323335
 30
0.0
 40
2.75
210
0.0
220
0.0
230
1.0
  0
CIRCLE
  8
0
  6
CONTINUOUS
 62
     7
  5
187
 10
438.917546
 20
170.323335
 30
0.0
 40
2.75
210
0.0
220
0.0
230
1.0
  0
CIRCLE
  8
0
  6
CONTINUOUS
 62
     7
  5
188
 10
365.917546
 20
170.323335
 30
0.0
 40
2.75
210
0.0
220
0.0
230
1.0
  0
CIRCLE
  8
0
  6
CONTINUOUS
 62
     7
  5
189
 10
365.917546
 20
243.323335
 30
0.0
 40
2.75
210
0.0
220
0.0
230
1.0
  0
CIRCLE
  8
0
  6
CONTINUOUS
 62
     7
  5
18A
 10
438.917546
 20
243.323335
 30
0.0
 40
2.459
210
0.0
220
0.0
230
1.0
  0
CIRCLE
  8
0
  6
CONTINUOUS
 62
     7
  5
18B
 10
438.917546
 20
170.323335
 30
0.0
 40
2.459
210
0.0
220
0.0
230
1.0
  0
CIRCLE
  8
0
  6
CONTINUOUS
 62
     7
  5
18C
 10
365.917546
 20
243.323335
 30
0.0
 40
2.459
210
0.0
220
0.0
230
1.0
  0
CIRCLE
  8
0
  6
CONTINUOUS
 62
     7
  5
18D
 10
365.917546
 20
170.323335
 30
0.0
 40
2.459
210
0.0
220
0.0
230
1.0
  0
LINE
  8
0
  6
CONTINUOUS
 62
     9
  5
18E
 10
398.417546
 20
251.923335
 30
0.0
 11
395.217546
 21
251.923335
 31
0.0
  0
LINE
  8
0
  6
CONTINUOUS
 62
     9
  5
18F
 10
395.217546
 20
251.923335
 30
0.0
 11
393.917546
 21
251.923335
 31
0.0
  0
LINE
  8
0
  6
CONTINUOUS
 62
     7
  5
190
 10
393.917546
 20
253.523335
 30
0.0
 11
395.217546
 21
253.523335
 31
0.0
  0
LINE
  8
0
  6
CONTINUOUS
 62
     7
  5
191
 10
395.217546
 20
253.523335
 30
0.0
 11
397.417546
 21
253.523335
 31
0.0
  0
LINE
  8
0
  6
CONTINUOUS
 62
     7
  5
192
 10
431.417546
 20
59.323335
 30
0.0
 11
431.417546
 21
164.323335
 31
0.0
  0
LINE
  8
0
  6
CONTINUOUS
 62
     7
  5
193
 10
431.417546
 20
249.323335
 30
0.0
 11
431.417546
 21
254.323335
 31
0.0
  0
LINE
  8
0
  6
CONTINUOUS
 62
     7
  5
194
 10
419.417546
 20
254.323335
 30
0.0
 11
419.417546
 21
249.323335
 31
0.0
  0
LINE
  8
0
  6
CONTINUOUS
 62
     7
  5
195
 10
419.417546
 20
164.323335
 30
0.0
 11
419.417546
 21
59.323335
 31
0.0
  0
LINE
  8
0
  6
CONTINUOUS
 62
     7
  5
196
 10
385.417546
 20
59.323335
 30
0.0
 11
385.417546
 21
164.323335
 31
0.0
  0
LINE
  8
0
  6
CONTINUOUS
 62
     7
  5
197
 10
385.417546
 20
249.323335
 30
0.0
 11
385.417546
 21
254.323335
 31
0.0
  0
LINE
  8
0
  6
CONTINUOUS
 62
     7
  5
198
 10
373.417546
 20
254.323335
 30
0.0
 11
373.417546
 21
249.323335
 31
0.0
  0
LINE
  8
0
  6
CONTINUOUS
 62
     7
  5
199
 10
373.417546
 20
164.323335
 30
0.0
 11
373.417546
 21
59.323335
 31
0.0
  0
LINE
  8
0
  6
CONTINUOUS
 62
     7
  5
19A
 10
408.417546
 20
59.323335
 30
0.0
 11
408.417546
 21
70.323335
 31
0.0
  0
LINE
  8
0
  6
CONTINUOUS
 62
     7
  5
19B
 10
396.417546
 20
70.323335
 30
0.0
 11
396.417546
 21
59.323335
 31
0.0
  0
LINE
  8
0
  6
CONTINUOUS
 62
     7
  5
19C
 10
398.417546
 20
254.323335
 30
0.0
 11
398.417546
 21
251.323335
 31
0.0
  0
LINE
  8
0
  6
CONTINUOUS
 62
     7
  5
19D
 10
398.417546
 20
164.323335
 30
0.0
 11
398.417546
 21
70.323335
 31
0.0
  0
LINE
  8
0
  6
CONTINUOUS
 62
     7
  5
19E
 10
406.417546
 20
70.323335
 30
0.0
 11
406.417546
 21
164.323335
 31
0.0
  0
LINE
  8
0
  6
CONTINUOUS
 62
     7
  5
19F
 10
406.417546
 20
253.172335
 30
0.0
 11
406.417546
 21
254.323335
 31
0.0
  0
LINE
  8
0
  6
CONTINUOUS
 62
     7
  5
1A0
 10
404.917546
 20
272.323335
 30
0.0
 11
404.917546
 21
282.323335
 31
0.0
  0
LINE
  8
0
  6
CONTINUOUS
 62
     7
  5
1A1
 10
399.917546
 20
282.323335
 30
0.0
 11
399.917546
 21
272.323335
 31
0.0
  0
LINE
  8
0
  6
CONTINUOUS
 62
     7
  5
1A2
 10
405.817546
 20
251.923335
 30
0.0
 11
405.817546
 21
251.323335
 31
0.0
  0
LINE
  8
0
  6
CONTINUOUS
 62
     7
  5
1A3
 10
413.417546
 20
251.323335
 30
0.0
 11
413.417546
 21
251.923335
 31
0.0
  0
ARC
  8
0
  6
CONTINUOUS
 62
     7
  5
1A4
 10
407.417546
 20
251.923335
 30
0.0
 40
1.6
 50
90.0
 51
180.0
210
0.0
220
0.0
230
1.0
  0
ARC
  8
0
  6
CONTINUOUS
 62
     7
  5
1A5
 10
411.817546
 20
251.923335
 30
0.0
 40
1.6
 50
0.0
 51
90.0
210
0.0
220
0.0
230
1.0
  0
LINE
  8
0
  6
CONTINUOUS
 62
     7
  5
1A6
 10
385.917546
 20
254.323335
 30
0.0
 11
385.917546
 21
249.323335
 31
0.0
  0
LINE
  8
0
  6
CONTINUOUS
 62
     7
  5
1A7
 10
393.917546
 20
249.323335
 30
0.0
 11
393.917546
 21
254.323335
 31
0.0
  0
ARC
  8
0
  6
CONTINUOUS
 62
     7
  5
1A8
 10
397.417546
 20
251.923335
 30
0.0
 40
1.6
 50
51.317813
 51
90.0
210
0.0
220
0.0
230
1.0
  0
ENDBLK
  8
0
  5
1A9
  0
ENDSEC
  0
SECTION
  2
ENTITIES
  0
INSERT
  8
0
  5
89
  2
AID3
 10
0.0
 20
0.0
 30
0.0
  0
INSERT
  8
0
  5
C7
  2
AID201
 10
0.0
 20
0.0
 30
0.0
  0
INSERT
  8
0
  5
10A
  2
AID321
 10
0.0
 20
0.0
 30
0.0
  0
INSERT
  8
0
  5
127
  2
AID451
 10
0.0
 20
0.0
 30
0.0
  0
INSERT
  8
0
  5
154
  2
AID505
 10
0.0
 20
0.0
 30
0.0
  0
INSERT
  8
0
  5
1AA
  2
AID591
 10
0.0
 20
0.0
 30
0.0
  0
LINE
  8
0
  6
CENTER
 62
     1
  5
1AB
 10
148.30856
 20
346.460482
 30
0.0
 11
158.50856
 21
346.460482
 31
0.0
  0
LINE
  8
0
  6
CENTER
 62
     1
  5
1AC
 10
153.40856
 20
341.360482
 30
0.0
 11
153.40856
 21
351.560482
 31
0.0
  0
LINE
  8
0
  6
CENTER
 62
     1
  5
1AD
 10
148.30856
 20
365.660482
 30
0.0
 11
158.50856
 21
365.660482
 31
0.0
  0
LINE
  8
0
  6
CENTER
 62
     1
  5
1AE
 10
153.40856
 20
360.560482
 30
0.0
 11
153.40856
 21
370.760482
 31
0.0
  0
LINE
  8
0
  6
CENTER
 62
     1
  5
1AF
 10
167.50856
 20
346.460482
 30
0.0
 11
177.70856
 21
346.460482
 31
0.0
  0
LINE
  8
0
  6
CENTER
 62
     1
  5
1B0
 10
172.60856
 20
341.360482
 30
0.0
 11
172.60856
 21
351.560482
 31
0.0
  0
LINE
  8
0
  6
CENTER
 62
     1
  5
1B1
 10
167.50856
 20
365.660482
 30
0.0
 11
177.70856
 21
365.660482
 31
0.0
  0
LINE
  8
0
  6
CENTER
 62
     1
  5
1B2
 10
172.60856
 20
360.560482
 30
0.0
 11
172.60856
 21
370.760482
 31
0.0
  0
LINE
  8
0
  6
CENTER
 62
     1
  5
1B3
 10
198.00856
 20
326.560482
 30
0.0
 11
198.00856
 21
374.060482
 31
0.0
  0
LINE
  8
0
  6
CENTER
 62
     1
  5
1B4
 10
128.00856
 20
326.560482
 30
0.0
 11
128.00856
 21
374.060482
 31
0.0
  0
LINE
  8
0
  6
CENTER
 62
     1
  5
1B5
 10
67.054067
 20
53.323335
 30
0.0
 11
26.554067
 21
53.323335
 31
0.0
  0
LINE
  8
0
  6
CENTER
 62
     1
  5
1B6
 10
38.054067
 20
285.323335
 30
0.0
 11
38.054067
 21
269.323335
 31
0.0
  0
LINE
  8
0
  6
CENTER
 62
     1
  5
1B7
 10
20.054067
 20
260.323335
 30
0.0
 11
67.554067
 21
260.323335
 31
0.0
  0
LINE
  8
0
  6
CENTER
 62
     1
  5
1B8
 10
38.054067
 20
257.323335
 30
0.0
 11
38.054067
 21
56.323335
 31
0.0
  0
LINE
  8
0
  6
CENTER
 62
     1
  5
1B9
 10
186.00856
 20
257.323335
 30
0.0
 11
186.00856
 21
56.323335
 31
0.0
  0
LINE
  8
0
  6
CENTER
 62
     1
  5
1BA
 10
163.00856
 20
285.323335
 30
0.0
 11
163.00856
 21
269.323335
 31
0.0
  0
LINE
  8
0
  6
CENTER
 62
     1
  5
1BB
 10
140.00856
 20
257.323335
 30
0.0
 11
140.00856
 21
56.323335
 31
0.0
  0
LINE
  8
0
  6
CENTER
 62
     1
  5
1BC
 10
120.50856
 20
170.323335
 30
0.0
 11
132.50856
 21
170.323335
 31
0.0
  0
LINE
  8
0
  6
CENTER
 62
     1
  5
1BD
 10
126.50856
 20
164.323335
 30
0.0
 11
126.50856
 21
176.323335
 31
0.0
  0
LINE
  8
0
  6
CENTER
 62
     1
  5
1BE
 10
120.50856
 20
243.323335
 30
0.0
 11
132.50856
 21
243.323335
 31
0.0
  0
LINE
  8
0
  6
CENTER
 62
     1
  5
1BF
 10
126.50856
 20
237.323335
 30
0.0
 11
126.50856
 21
249.323335
 31
0.0
  0
LINE
  8
0
  6
CENTER
 62
     1
  5
1C0
 10
119.50856
 20
53.323335
 30
0.0
 11
136.50856
 21
53.323335
 31
0.0
  0
LINE
  8
0
  6
CENTER
 62
     1
  5
1C1
 10
128.00856
 20
44.823335
 30
0.0
 11
128.00856
 21
61.823335
 31
0.0
  0
LINE
  8
0
  6
CENTER
 62
     1
  5
1C2
 10
119.50856
 20
260.323335
 30
0.0
 11
136.50856
 21
260.323335
 31
0.0
  0
LINE
  8
0
  6
CENTER
 62
     1
  5
1C3
 10
128.00856
 20
251.823335
 30
0.0
 11
128.00856
 21
268.823335
 31
0.0
  0
LINE
  8
0
  6
CENTER
 62
     1
  5
1C4
 10
189.50856
 20
53.323335
 30
0.0
 11
206.50856
 21
53.323335
 31
0.0
  0
LINE
  8
0
  6
CENTER
 62
     1
  5
1C5
 10
198.00856
 20
44.823335
 30
0.0
 11
198.00856
 21
61.823335
 31
0.0
  0
LINE
  8
0
  6
CENTER
 62
     1
  5
1C6
 10
189.50856
 20
260.323335
 30
0.0
 11
206.50856
 21
260.323335
 31
0.0
  0
LINE
  8
0
  6
CENTER
 62
     1
  5
1C7
 10
198.00856
 20
251.823335
 30
0.0
 11
198.00856
 21
268.823335
 31
0.0
  0
LINE
  8
0
  6
CENTER
 62
     1
  5
1C8
 10
193.50856
 20
170.323335
 30
0.0
 11
205.50856
 21
170.323335
 31
0.0
  0
LINE
  8
0
  6
CENTER
 62
     1
  5
1C9
 10
199.50856
 20
164.323335
 30
0.0
 11
199.50856
 21
176.323335
 31
0.0
  0
LINE
  8
0
  6
CENTER
 62
     1
  5
1CA
 10
193.50856
 20
243.323335
 30
0.0
 11
205.50856
 21
243.323335
 31
0.0
  0
LINE
  8
0
  6
CENTER
 62
     1
  5
1CB
 10
199.50856
 20
237.323335
 30
0.0
 11
199.50856
 21
249.323335
 31
0.0
  0
LINE
  8
0
  6
CENTER
 62
     1
  5
1CC
 10
163.00856
 20
257.323335
 30
0.0
 11
163.00856
 21
56.323335
 31
0.0
  0
LINE
  8
0
  6
CENTER
 62
     1
  5
1CD
 10
290.930933
 20
285.323335
 30
0.0
 11
290.930933
 21
269.323335
 31
0.0
  0
LINE
  8
0
  6
CENTER
 62
     1
  5
1CE
 10
290.930933
 20
257.323335
 30
0.0
 11
290.930933
 21
56.323335
 31
0.0
  0
LINE
  8
0
  6
CENTER
 62
     1
  5
1CF
 10
261.430933
 20
53.323335
 30
0.0
 11
308.930933
 21
53.323335
 31
0.0
  0
LINE
  8
0
  6
CENTER
 62
     1
  5
1D0
 10
261.430933
 20
260.323335
 30
0.0
 11
302.430933
 21
260.323335
 31
0.0
  0
LINE
  8
0
  6
CENTER
 62
     1
  5
1D1
 10
379.417546
 20
257.323335
 30
0.0
 11
379.417546
 21
56.323335
 31
0.0
  0
LINE
  8
0
  6
CENTER
 62
     1
  5
1D2
 10
402.417546
 20
285.323335
 30
0.0
 11
402.417546
 21
269.323335
 31
0.0
  0
LINE
  8
0
  6
CENTER
 62
     1
  5
1D3
 10
425.417546
 20
257.323335
 30
0.0
 11
425.417546
 21
56.323335
 31
0.0
  0
LINE
  8
0
  6
CENTER
 62
     1
  5
1D4
 10
357.917546
 20
170.323335
 30
0.0
 11
373.917546
 21
170.323335
 31
0.0
  0
LINE
  8
0
  6
CENTER
 62
     1
  5
1D5
 10
365.917546
 20
162.323335
 30
0.0
 11
365.917546
 21
178.323335
 31
0.0
  0
LINE
  8
0
  6
CENTER
 62
     1
  5
1D6
 10
357.917546
 20
243.323335
 30
0.0
 11
373.917546
 21
243.323335
 31
0.0
  0
LINE
  8
0
  6
CENTER
 62
     1
  5
1D7
 10
365.917546
 20
235.323335
 30
0.0
 11
365.917546
 21
251.323335
 31
0.0
  0
LINE
  8
0
  6
CENTER
 62
     1
  5
1D8
 10
361.167546
 20
53.323335
 30
0.0
 11
373.667546
 21
53.323335
 31
0.0
  0
LINE
  8
0
  6
CENTER
 62
     1
  5
1D9
 10
367.417546
 20
47.073335
 30
0.0
 11
367.417546
 21
59.573335
 31
0.0
  0
LINE
  8
0
  6
CENTER
 62
     1
  5
1DA
 10
361.167546
 20
260.323335
 30
0.0
 11
373.667546
 21
260.323335
 31
0.0
  0
LINE
  8
0
  6
CENTER
 62
     1
  5
1DB
 10
367.417546
 20
254.073335
 30
0.0
 11
367.417546
 21
266.573335
 31
0.0
  0
LINE
  8
0
  6
CENTER
 62
     1
  5
1DC
 10
431.167546
 20
53.323335
 30
0.0
 11
443.667546
 21
53.323335
 31
0.0
  0
LINE
  8
0
  6
CENTER
 62
     1
  5
1DD
 10
437.417546
 20
47.073335
 30
0.0
 11
437.417546
 21
59.573335
 31
0.0
  0
LINE
  8
0
  6
CENTER
 62
     1
  5
1DE
 10
431.167546
 20
260.323335
 30
0.0
 11
443.667546
 21
260.323335
 31
0.0
  0
LINE
  8
0
  6
CENTER
 62
     1
  5
1DF
 10
437.417546
 20
254.073335
 30
0.0
 11
437.417546
 21
266.573335
 31
0.0
  0
LINE
  8
0
  6
CENTER
 62
     1
  5
1E0
 10
430.917546
 20
170.323335
 30
0.0
 11
446.917546
 21
170.323335
 31
0.0
  0
LINE
  8
0
  6
CENTER
 62
     1
  5
1E1
 10
438.917546
 20
162.323335
 30
0.0
 11
438.917546
 21
178.323335
 31
0.0
  0
LINE
  8
0
  6
CENTER
 62
     1
  5
1E2
 10
430.917546
 20
243.323335
 30
0.0
 11
446.917546
 21
243.323335
 31
0.0
  0
LINE
  8
0
  6
CENTER
 62
     1
  5
1E3
 10
438.917546
 20
235.323335
 30
0.0
 11
438.917546
 21
251.323335
 31
0.0
  0
LINE
  8
0
  6
CENTER
 62
     1
  5
1E4
 10
402.417546
 20
257.323335
 30
0.0
 11
402.417546
 21
56.323335
 31
0.0
  0
LINE
  8
0
  6
CENTER
 62
     1
  5
1E5
 10
139.70856
 20
-37.992397
 30
0.0
 11
149.90856
 21
-37.992397
 31
0.0
  0
LINE
  8
0
  6
CENTER
 62
     1
  5
1E6
 10
144.80856
 20
-43.092397
 30
0.0
 11
144.80856
 21
-32.892397
 31
0.0
  0
LINE
  8
0
  6
CENTER
 62
     1
  5
1E7
 10
139.70856
 20
-18.792397
 30
0.0
 11
149.90856
 21
-18.792397
 31
0.0
  0
LINE
  8
0
  6
CENTER
 62
     1
  5
1E8
 10
144.80856
 20
-23.892397
 30
0.0
 11
144.80856
 21
-13.692397
 31
0.0
  0
LINE
  8
0
  6
CENTER
 62
     1
  5
1E9
 10
142.69856
 20
-24.392397
 30
0.0
 11
151.71856
 21
-24.392397
 31
0.0
  0
LINE
  8
0
  6
CENTER
 62
     1
  5
1EA
 10
147.20856
 20
-28.902397
 30
0.0
 11
147.20856
 21
-19.882397
 31
0.0
  0
LINE
  8
0
  6
CENTER
 62
     1
  5
1EB
 10
157.50856
 20
-28.392397
 30
0.0
 11
168.50856
 21
-28.392397
 31
0.0
  0
LINE
  8
0
  6
CENTER
 62
     1
  5
1EC
 10
163.00856
 20
-33.892397
 30
0.0
 11
163.00856
 21
-22.892397
 31
0.0
  0
LINE
  8
0
  6
CENTER
 62
     1
  5
1ED
 10
174.29856
 20
-32.392397
 30
0.0
 11
183.31856
 21
-32.392397
 31
0.0
  0
LINE
  8
0
  6
CENTER
 62
     1
  5
1EE
 10
178.80856
 20
-36.902397
 30
0.0
 11
178.80856
 21
-27.882397
 31
0.0
  0
LINE
  8
0
  6
CENTER
 62
     1
  5
1EF
 10
176.10856
 20
-37.992397
 30
0.0
 11
186.30856
 21
-37.992397
 31
0.0
  0
LINE
  8
0
  6
CENTER
 62
     1
  5
1F0
 10
181.20856
 20
-43.092397
 30
0.0
 11
181.20856
 21
-32.892397
 31
0.0
  0
LINE
  8
0
  6
CENTER
 62
     1
  5
1F1
 10
176.10856
 20
-18.792397
 30
0.0
 11
186.30856
 21
-18.792397
 31
0.0
  0
LINE
  8
0
  6
CENTER
 62
     1
  5
1F2
 10
181.20856
 20
-23.892397
 30
0.0
 11
181.20856
 21
-13.692397
 31
0.0
  0
LINE
  8
0
  6
CENTER
 62
     1
  5
1F3
 10
128.00856
 20
1.107603
 30
0.0
 11
128.00856
 21
-39.892397
 31
0.0
  0
LINE
  8
0
  6
CENTER
 62
     1
  5
1F4
 10
198.00856
 20
1.107603
 30
0.0
 11
198.00856
 21
-46.392397
 31
0.0
  0
ENDSEC
  0
EOF
