  0
SECTION
  2
HEADER
  9
$ACADVER
  1
AC1009
  9
$DWGCODEPAGE
  3
ansi_1252
  9
$INSBASE
 10
0.0
 20
0.0
 30
0.0
  9
$EXTMIN
 10
-2.992506
 20
-70.417557
 30
0.0
  9
$EXTMAX
 10
459.364013
 20
388.171295
 30
5.0
  9
$LIMMIN
 10
-2.992506
 20
-70.417557
  9
$LIMMAX
 10
459.364013
 20
388.171295
  9
$ORTHOMODE
 70
     0
  9
$REGENMODE
 70
     1
  9
$FILLMODE
 70
     1
  9
$QTEXTMODE
 70
     0
  9
$MIRRTEXT
 70
     1
  9
$DRAGMODE
 70
     2
  9
$LTSCALE
 40
10.0
  9
$OSMODE
 70
     0
  9
$ATTMODE
 70
     1
  9
$TEXTSIZE
 40
0.2
  9
$TRACEWID
 40
0.05
  9
$TEXTSTYLE
  7
STANDARD
  9
$CLAYER
  8
0
  9
$CELTYPE
  6
CONTINUOUS
  9
$CECOLOR
 62
   256
  9
$DIMSCALE
 40
1.0
  9
$DIMASZ
 40
1.25
  9
$DIMEXO
 40
1.0
  9
$DIMDLI
 40
0.38
  9
$DIMRND
 40
0.0
  9
$DIMDLE
 40
0.0
  9
$DIMEXE
 40
0.75
  9
$DIMTP
 40
0.0
  9
$DIMTM
 40
0.0
  9
$DIMTXT
 40
2.5
  9
$DIMCEN
 40
0.09
  9
$DIMTSZ
 40
0.0
  9
$DIMTOL
 70
     0
  9
$DIMLIM
 70
     0
  9
$DIMTIH
 70
     0
  9
$DIMTOH
 70
     0
  9
$DIMSE1
 70
     0
  9
$DIMSE2
 70
     0
  9
$DIMTAD
 70
     1
  9
$DIMZIN
 70
     0
  9
$DIMBLK
  1

  9
$DIMASO
 70
     1
  9
$DIMSHO
 70
     1
  9
$DIMPOST
  1

  9
$DIMAPOST
  1

  9
$DIMALT
 70
     0
  9
$DIMALTD
 70
     2
  9
$DIMALTF
 40
25.4
  9
$DIMLFAC
 40
1.0
  9
$DIMTOFL
 70
     0
  9
$DIMTVP
 40
0.0
  9
$DIMTIX
 70
     0
  9
$DIMSOXD
 70
     0
  9
$DIMSAH
 70
     0
  9
$DIMBLK1
  1

  9
$DIMBLK2
  1

  9
$DIMSTYLE
  2
STANDARD
  9
$DIMCLRD
 70
     7
  9
$DIMCLRE
 70
     7
  9
$DIMCLRT
 70
     7
  9
$DIMTFAC
 40
0.8
  9
$DIMGAP
 40
1.25
  9
$LUNITS
 70
     2
  9
$LUPREC
 70
     4
  9
$AXISMODE
 70
     0
  9
$AXISUNIT
 10
0.0
 20
0.0
  9
$SKETCHINC
 40
0.1
  9
$FILLETRAD
 40
0.0
  9
$AUNITS
 70
     0
  9
$AUPREC
 70
     0
  9
$MENU
  1
acad
  9
$ELEVATION
 40
0.0
  9
$PELEVATION
 40
0.0
  9
$THICKNESS
 40
0.0
  9
$LIMCHECK
 70
     0
  9
$BLIPMODE
 70
     1
  9
$CHAMFERA
 40
0.0
  9
$CHAMFERB
 40
0.0
  9
$SKPOLY
 70
     0
  9
$TDCREATE
 40
2454285.609525463
  9
$TDUPDATE
 40
2454285.525902778
  9
$TDINDWG
 40
0.0000000000
  9
$TDUSRTIMER
 40
0.0000000000
  9
$USRTIMER
 70
     1
  9
$ANGBASE
 50
0.0
  9
$ANGDIR
 70
     0
  9
$PDMODE
 70
     0
  9
$PDSIZE
 40
0.0
  9
$PLINEWID
 40
0.0
  9
$COORDS
 70
     0
  9
$SPLFRAME
 70
     0
  9
$SPLINETYPE
 70
     6
  9
$SPLINESEGS
 70
     8
  9
$ATTDIA
 70
     0
  9
$ATTREQ
 70
     1
  9
$HANDLING
 70
     1
  9
$HANDSEED
  5
1FE
  9
$SURFTAB1
 70
     6
  9
$SURFTAB2
 70
     6
  9
$SURFTYPE
 70
     6
  9
$SURFU
 70
     6
  9
$SURFV
 70
     6
  9
$UCSNAME
  2

  9
$UCSORG
 10
0.0
 20
0.0
 30
0.0
  9
$UCSXDIR
 10
1.0
 20
0.0
 30
0.0
  9
$UCSYDIR
 10
0.0
 20
1.0
 30
0.0
  9
$PUCSNAME
  2

  9
$PUCSORG
 10
0.0
 20
0.0
 30
0.0
  9
$PUCSXDIR
 10
1.0
 20
0.0
 30
0.0
  9
$PUCSYDIR
 10
0.0
 20
1.0
 30
0.0
  9
$USERI1
 70
     0
  9
$USERI2
 70
     0
  9
$USERI3
 70
     0
  9
$USERI4
 70
     0
  9
$USERI5
 70
     0
  9
$USERR1
 40
0.0
  9
$USERR2
 40
0.0
  9
$USERR3
 40
0.0
  9
$USERR4
 40
0.0
  9
$USERR5
 40
0.0
  9
$WORLDVIEW
 70
     1
  9
$SHADEDGE
 70
     3
  9
$SHADEDIF
 70
    70
  9
$TILEMODE
 70
     1
  9
$MAXACTVP
 70
    16
  9
$PINSBASE
 10
0.0
 20
0.0
 30
0.0
  9
$PLIMCHECK
 70
     0
  9
$PEXTMIN
 10
1.000000E+20
 20
1.000000E+20
 30
1.000000E+20
  9
$PEXTMAX
 10
-1.000000E+20
 20
-1.000000E+20
 30
-1.000000E+20
  9
$PLIMMIN
 10
0.0
 20
0.0
  9
$PLIMMAX
 10
12.0
 20
9.0
  9
$UNITMODE
 70
     0
  9
$VISRETAIN
 70
     0
  9
$PLINEGEN
 70
     1
  9
$PSLTSCALE
 70
     0
  9
$TREEDEPTH
 70
  3020
  0
ENDSEC
  0
SECTION
  2
TABLES
  0
TABLE
  2
VPORT
 70
     1
  0
VPORT
  2
*ACTIVE
 70
     0
 10
0.0
 20
0.0
 11
1.0
 21
1.0
 12
6.591288
 22
4.579184
 13
0.0
 23
0.0
 14
1.0
 24
1.0
 15
0.0
 25
0.0
 16
0.0
 26
0.0
 36
1.0
 17
0.0
 27
0.0
 37
0.0
 40
9.158369
 41
0.688564
 42
50.0
 43
0.0
 44
0.0
 50
0.0
 51
0.0
 71
     0
 72
   100
 73
     1
 74
     1
 75
     0
 76
     0
 77
     0
 78
     0
  0
ENDTAB
  0
TABLE
  2
LTYPE
 70
     2
  0
LTYPE
  2
CONTINUOUS
 70
    64
  3
Solid line
 72
    65
 73
     0
 40
0.0
  0
LTYPE
  2
CENTER
 70
    64
  3
____ _ ____ _ ____ _ ____ _ ____ _ ____ _ ____
 72
    65
 73
     4
 40
2.0
 49
1.25
 49
-0.25
 49
0.25
 49
-0.25
  0
ENDTAB
  0
TABLE
  2
LAYER
 70
     1
  0
LAYER
  2
0
 70
     0
 62
     7
  6
CONTINUOUS
  0
ENDTAB
  0
TABLE
  2
STYLE
 70
     1
  0
STYLE
  2
STANDARD
 70
     0
 40
0.0
 41
1.0
 50
0.0
 71
     0
 42
0.0
  3
IsonormD
  4

  0
ENDTAB
  0
TABLE
  2
VIEW
 70
     0
  0
ENDTAB
  0
TABLE
  2
UCS
 70
     0
  0
ENDTAB
  0
TABLE
  2
APPID
 70
     2
  0
APPID
  2
ACAD
 70
     0
  0
APPID
  2
TopSolid_Draft
 70
     0
  0
ENDTAB
  0
TABLE
  2
DIMSTYLE
 70
     1
  0
DIMSTYLE
  2
STANDARD
 70
     0
  3

  4

  5

  6

  7

 40
1.0
 41
1.25
 42
1.0
 43
0.38
 44
0.75
 45
0.0
 46
0.0
 47
0.0
 48
0.0
 71
     0
 72
     0
 73
     0
 74
     0
 75
     0
 76
     0
 77
     1
 78
     0
140
2.5
141
0.09
142
0.0
143
25.4
144
1.0
145
0.0
146
0.8
147
1.25
170
     0
171
     2
172
     0
173
     0
174
     0
175
     0
176
     7
177
     7
178
     7
  0
ENDTAB
  0
ENDSEC
  0
SECTION
  2
BLOCKS
  0
BLOCK
  8
0
  5
26
  2
AID3
 70
     0
 10
0.0
 20
0.0
 30
0.0
  3
#draft view
  0
LINE
  8
0
  6
CONTINUOUS
 62
     7
  5
27
 10
102.469229
 20
32.887575
 30
0.0
 11
100.737179
 21
35.887575
 31
0.0
  0
LINE
  8
0
  6
CONTINUOUS
 62
     7
  5
28
 10
105.933331
 20
32.887575
 30
0.0
 11
102.469229
 21
32.887575
 31
0.0
  0
LINE
  8
0
  6
CONTINUOUS
 62
     7
  5
29
 10
107.665382
 20
35.887575
 30
0.0
 11
105.933331
 21
32.887575
 31
0.0
  0
LINE
  8
0
  6
CONTINUOUS
 62
     7
  5
2A
 10
105.933331
 20
38.887575
 30
0.0
 11
107.665382
 21
35.887575
 31
0.0
  0
LINE
  8
0
  6
CONTINUOUS
 62
     7
  5
2B
 10
100.737179
 20
35.887575
 30
0.0
 11
102.469229
 21
38.887575
 31
0.0
  0
CIRCLE
  8
0
  6
CONTINUOUS
 62
     7
  5
2C
 10
104.20128
 20
35.887575
 30
0.0
 40
6.5
210
0.0
220
0.0
230
1.0
  0
LINE
  8
0
  6
CONTINUOUS
 62
     7
  5
2D
 10
102.469229
 20
38.887575
 30
0.0
 11
105.933331
 21
38.887575
 31
0.0
  0
CIRCLE
  8
0
  6
CONTINUOUS
 62
     7
  5
2E
 10
186.20128
 20
35.887575
 30
0.0
 40
7.0
210
0.0
220
0.0
230
1.0
  0
CIRCLE
  8
0
  6
CONTINUOUS
 62
     7
  5
2F
 10
104.20128
 20
35.887575
 30
0.0
 40
7.0
210
0.0
220
0.0
230
1.0
  0
LINE
  8
0
  6
CONTINUOUS
 62
     7
  5
30
 10
194.20128
 20
27.887575
 30
0.0
 11
194.20128
 21
43.887575
 31
0.0
  0
LINE
  8
0
  6
CONTINUOUS
 62
     7
  5
31
 10
96.20128
 20
27.887575
 30
0.0
 11
194.20128
 21
27.887575
 31
0.0
  0
LINE
  8
0
  6
CONTINUOUS
 62
     7
  5
32
 10
96.20128
 20
27.887575
 30
0.0
 11
96.20128
 21
43.887575
 31
0.0
  0
LINE
  8
0
  6
CONTINUOUS
 62
     7
  5
33
 10
96.20128
 20
43.887575
 30
0.0
 11
194.20128
 21
43.887575
 31
0.0
  0
LINE
  8
0
  6
CONTINUOUS
 62
     7
  5
34
 10
184.469229
 20
258.887575
 30
0.0
 11
182.737179
 21
261.887575
 31
0.0
  0
LINE
  8
0
  6
CONTINUOUS
 62
     7
  5
35
 10
187.933331
 20
258.887575
 30
0.0
 11
184.469229
 21
258.887575
 31
0.0
  0
LINE
  8
0
  6
CONTINUOUS
 62
     7
  5
36
 10
189.665382
 20
261.887575
 30
0.0
 11
187.933331
 21
258.887575
 31
0.0
  0
LINE
  8
0
  6
CONTINUOUS
 62
     7
  5
37
 10
187.933331
 20
264.887575
 30
0.0
 11
189.665382
 21
261.887575
 31
0.0
  0
LINE
  8
0
  6
CONTINUOUS
 62
     7
  5
38
 10
184.469229
 20
264.887575
 30
0.0
 11
187.933331
 21
264.887575
 31
0.0
  0
LINE
  8
0
  6
CONTINUOUS
 62
     7
  5
39
 10
182.737179
 20
261.887575
 30
0.0
 11
184.469229
 21
264.887575
 31
0.0
  0
CIRCLE
  8
0
  6
CONTINUOUS
 62
     7
  5
3A
 10
186.20128
 20
261.887575
 30
0.0
 40
6.5
210
0.0
220
0.0
230
1.0
  0
LINE
  8
0
  6
CONTINUOUS
 62
     7
  5
3B
 10
100.737179
 20
261.887575
 30
0.0
 11
102.469229
 21
264.887575
 31
0.0
  0
LINE
  8
0
  6
CONTINUOUS
 62
     7
  5
3C
 10
105.933331
 20
258.887575
 30
0.0
 11
102.469229
 21
258.887575
 31
0.0
  0
LINE
  8
0
  6
CONTINUOUS
 62
     7
  5
3D
 10
107.665382
 20
261.887575
 30
0.0
 11
105.933331
 21
258.887575
 31
0.0
  0
LINE
  8
0
  6
CONTINUOUS
 62
     7
  5
3E
 10
102.469229
 20
264.887575
 30
0.0
 11
105.933331
 21
264.887575
 31
0.0
  0
LINE
  8
0
  6
CONTINUOUS
 62
     7
  5
3F
 10
105.933331
 20
264.887575
 30
0.0
 11
107.665382
 21
261.887575
 31
0.0
  0
LINE
  8
0
  6
CONTINUOUS
 62
     7
  5
40
 10
102.469229
 20
258.887575
 30
0.0
 11
100.737179
 21
261.887575
 31
0.0
  0
CIRCLE
  8
0
  6
CONTINUOUS
 62
     7
  5
41
 10
104.20128
 20
261.887575
 30
0.0
 40
6.5
210
0.0
220
0.0
230
1.0
  0
LINE
  8
0
  6
CONTINUOUS
 62
     7
  5
42
 10
182.737179
 20
35.887575
 30
0.0
 11
184.469229
 21
38.887575
 31
0.0
  0
CIRCLE
  8
0
  6
CONTINUOUS
 62
     7
  5
43
 10
186.20128
 20
35.887575
 30
0.0
 40
6.5
210
0.0
220
0.0
230
1.0
  0
LINE
  8
0
  6
CONTINUOUS
 62
     7
  5
44
 10
187.933331
 20
32.887575
 30
0.0
 11
184.469229
 21
32.887575
 31
0.0
  0
LINE
  8
0
  6
CONTINUOUS
 62
     7
  5
45
 10
184.469229
 20
38.887575
 30
0.0
 11
187.933331
 21
38.887575
 31
0.0
  0
LINE
  8
0
  6
CONTINUOUS
 62
     7
  5
46
 10
187.933331
 20
38.887575
 30
0.0
 11
189.665382
 21
35.887575
 31
0.0
  0
LINE
  8
0
  6
CONTINUOUS
 62
     7
  5
47
 10
184.469229
 20
32.887575
 30
0.0
 11
182.737179
 21
35.887575
 31
0.0
  0
LINE
  8
0
  6
CONTINUOUS
 62
     7
  5
48
 10
189.665382
 20
35.887575
 30
0.0
 11
187.933331
 21
32.887575
 31
0.0
  0
LINE
  8
0
  6
CONTINUOUS
 62
     7
  5
49
 10
96.20128
 20
269.887575
 30
0.0
 11
96.20128
 21
253.887575
 31
0.0
  0
LINE
  8
0
  6
CONTINUOUS
 62
     7
  5
4A
 10
194.20128
 20
253.887575
 30
0.0
 11
96.20128
 21
253.887575
 31
0.0
  0
LINE
  8
0
  6
CONTINUOUS
 62
     7
  5
4B
 10
194.20128
 20
269.887575
 30
0.0
 11
96.20128
 21
269.887575
 31
0.0
  0
LINE
  8
0
  6
CONTINUOUS
 62
     7
  5
4C
 10
194.20128
 20
269.887575
 30
0.0
 11
194.20128
 21
253.887575
 31
0.0
  0
CIRCLE
  8
0
  6
CONTINUOUS
 62
     7
  5
4D
 10
104.20128
 20
261.887575
 30
0.0
 40
7.0
210
0.0
220
0.0
230
1.0
  0
CIRCLE
  8
0
  6
CONTINUOUS
 62
     7
  5
4E
 10
186.20128
 20
261.887575
 30
0.0
 40
7.0
210
0.0
220
0.0
230
1.0
  0
LINE
  8
0
  6
CONTINUOUS
 62
     9
  5
4F
 10
135.20128
 20
276.887575
 30
0.0
 11
135.20128
 21
269.887575
 31
0.0
  0
LINE
  8
0
  6
CONTINUOUS
 62
     7
  5
50
 10
129.20128
 20
269.887575
 30
0.0
 11
129.20128
 21
276.887575
 31
0.0
  0
LINE
  8
0
  6
CONTINUOUS
 62
     7
  5
51
 10
129.20128
 20
276.887575
 30
0.0
 11
135.20128
 21
276.887575
 31
0.0
  0
LINE
  8
0
  6
CONTINUOUS
 62
     7
  5
52
 10
161.20128
 20
276.887575
 30
0.0
 11
161.20128
 21
269.887575
 31
0.0
  0
LINE
  8
0
  6
CONTINUOUS
 62
     9
  5
53
 10
155.20128
 20
269.887575
 30
0.0
 11
155.20128
 21
276.887575
 31
0.0
  0
LINE
  8
0
  6
CONTINUOUS
 62
     7
  5
54
 10
155.20128
 20
276.887575
 30
0.0
 11
161.20128
 21
276.887575
 31
0.0
  0
LINE
  8
0
  6
CONTINUOUS
 62
     7
  5
55
 10
155.20128
 20
276.887575
 30
0.0
 11
135.20128
 21
276.887575
 31
0.0
  0
LINE
  8
0
  6
CONTINUOUS
 62
     7
  5
56
 10
153.70128
 20
59.887575
 30
0.0
 11
136.70128
 21
59.887575
 31
0.0
  0
LINE
  8
0
  6
CONTINUOUS
 62
     7
  5
57
 10
142.20128
 20
289.887575
 30
0.0
 11
148.20128
 21
289.887575
 31
0.0
  0
CIRCLE
  8
0
  6
CONTINUOUS
 62
     7
  5
58
 10
101.20128
 20
242.887575
 30
0.0
 40
2.459
210
0.0
220
0.0
230
1.0
  0
CIRCLE
  8
0
  6
CONTINUOUS
 62
     7
  5
59
 10
101.20128
 20
242.887575
 30
0.0
 40
3.0
210
0.0
220
0.0
230
1.0
  0
CIRCLE
  8
0
  6
CONTINUOUS
 62
     7
  5
5A
 10
101.20128
 20
154.887575
 30
0.0
 40
3.0
210
0.0
220
0.0
230
1.0
  0
CIRCLE
  8
0
  6
CONTINUOUS
 62
     7
  5
5B
 10
189.20128
 20
242.887575
 30
0.0
 40
3.0
210
0.0
220
0.0
230
1.0
  0
CIRCLE
  8
0
  6
CONTINUOUS
 62
     7
  5
5C
 10
189.20128
 20
154.887575
 30
0.0
 40
3.0
210
0.0
220
0.0
230
1.0
  0
LINE
  8
0
  6
CONTINUOUS
 62
     7
  5
5D
 10
95.20128
 20
148.887575
 30
0.0
 11
95.20128
 21
248.887575
 31
0.0
  0
LINE
  8
0
  6
CONTINUOUS
 62
     7
  5
5E
 10
95.20128
 20
248.887575
 30
0.0
 11
195.20128
 21
248.887575
 31
0.0
  0
LINE
  8
0
  6
CONTINUOUS
 62
     7
  5
5F
 10
195.20128
 20
248.887575
 30
0.0
 11
195.20128
 21
148.887575
 31
0.0
  0
LINE
  8
0
  6
CONTINUOUS
 62
     7
  5
60
 10
195.20128
 20
148.887575
 30
0.0
 11
95.20128
 21
148.887575
 31
0.0
  0
CIRCLE
  8
0
  6
CONTINUOUS
 62
     7
  5
61
 10
189.20128
 20
154.887575
 30
0.0
 40
2.459
210
0.0
220
0.0
230
1.0
  0
CIRCLE
  8
0
  6
CONTINUOUS
 62
     7
  5
62
 10
189.20128
 20
242.887575
 30
0.0
 40
2.459
210
0.0
220
0.0
230
1.0
  0
CIRCLE
  8
0
  6
CONTINUOUS
 62
     7
  5
63
 10
101.20128
 20
154.887575
 30
0.0
 40
2.459
210
0.0
220
0.0
230
1.0
  0
LINE
  8
0
  6
CONTINUOUS
 62
     7
  5
64
 10
161.829425
 20
250.887575
 30
0.0
 11
155.994606
 21
250.887575
 31
0.0
  0
LINE
  8
0
  6
CONTINUOUS
 62
     9
  5
65
 10
155.994606
 20
250.887575
 30
0.0
 11
155.994606
 21
248.887575
 31
0.0
  0
LINE
  8
0
  6
CONTINUOUS
 62
     9
  5
66
 10
161.779425
 20
251.587575
 30
0.0
 11
152.279425
 21
251.587575
 31
0.0
  0
LINE
  8
0
  6
CONTINUOUS
 62
     7
  5
67
 10
154.279425
 20
253.587575
 30
0.0
 11
159.779425
 21
253.587575
 31
0.0
  0
LINE
  8
0
  6
CONTINUOUS
 62
     9
  5
68
 10
142.226174
 20
250.887575
 30
0.0
 11
142.226174
 21
248.887575
 31
0.0
  0
LINE
  8
0
  6
CONTINUOUS
 62
     7
  5
69
 10
155.994606
 20
250.887575
 30
0.0
 11
142.226174
 21
250.887575
 31
0.0
  0
LINE
  8
0
  6
CONTINUOUS
 62
     9
  5
6A
 10
131.725794
 20
250.887575
 30
0.0
 11
131.725794
 21
248.887575
 31
0.0
  0
LINE
  8
0
  6
CONTINUOUS
 62
     7
  5
6B
 10
142.226174
 20
250.887575
 30
0.0
 11
131.725794
 21
250.887575
 31
0.0
  0
LINE
  8
0
  6
CONTINUOUS
 62
     9
  5
6C
 10
128.686009
 20
250.887575
 30
0.0
 11
128.686009
 21
248.887575
 31
0.0
  0
LINE
  8
0
  6
CONTINUOUS
 62
     7
  5
6D
 10
131.725794
 20
250.887575
 30
0.0
 11
128.686009
 21
250.887575
 31
0.0
  0
LINE
  8
0
  6
CONTINUOUS
 62
     9
  5
6E
 10
138.123135
 20
251.587575
 30
0.0
 11
128.623135
 21
251.587575
 31
0.0
  0
LINE
  8
0
  6
CONTINUOUS
 62
     7
  5
6F
 10
130.623135
 20
253.587575
 30
0.0
 11
136.123135
 21
253.587575
 31
0.0
  0
LINE
  8
0
  6
CONTINUOUS
 62
     7
  5
70
 10
128.686009
 20
250.887575
 30
0.0
 11
128.573135
 21
250.887575
 31
0.0
  0
LINE
  8
0
  6
CONTINUOUS
 62
     7
  5
71
 10
136.70128
 20
59.887575
 30
0.0
 11
136.70128
 21
43.887575
 31
0.0
  0
LINE
  8
0
  6
CONTINUOUS
 62
     7
  5
72
 10
153.70128
 20
43.887575
 30
0.0
 11
153.70128
 21
59.887575
 31
0.0
  0
LINE
  8
0
  6
CONTINUOUS
 62
     7
  5
73
 10
181.20128
 20
43.887575
 30
0.0
 11
181.20128
 21
148.887575
 31
0.0
  0
LINE
  8
0
  6
CONTINUOUS
 62
     7
  5
74
 10
181.20128
 20
248.887575
 30
0.0
 11
181.20128
 21
253.887575
 31
0.0
  0
LINE
  8
0
  6
CONTINUOUS
 62
     7
  5
75
 10
165.20128
 20
253.887575
 30
0.0
 11
165.20128
 21
248.887575
 31
0.0
  0
LINE
  8
0
  6
CONTINUOUS
 62
     7
  5
76
 10
165.20128
 20
148.887575
 30
0.0
 11
165.20128
 21
43.887575
 31
0.0
  0
LINE
  8
0
  6
CONTINUOUS
 62
     7
  5
77
 10
125.20128
 20
43.887575
 30
0.0
 11
125.20128
 21
148.887575
 31
0.0
  0
LINE
  8
0
  6
CONTINUOUS
 62
     7
  5
78
 10
125.20128
 20
248.887575
 30
0.0
 11
125.20128
 21
253.887575
 31
0.0
  0
LINE
  8
0
  6
CONTINUOUS
 62
     7
  5
79
 10
109.20128
 20
253.887575
 30
0.0
 11
109.20128
 21
248.887575
 31
0.0
  0
LINE
  8
0
  6
CONTINUOUS
 62
     7
  5
7A
 10
109.20128
 20
148.887575
 30
0.0
 11
109.20128
 21
43.887575
 31
0.0
  0
LINE
  8
0
  6
CONTINUOUS
 62
     7
  5
7B
 10
151.20128
 20
59.887575
 30
0.0
 11
151.20128
 21
148.887575
 31
0.0
  0
LINE
  8
0
  6
CONTINUOUS
 62
     7
  5
7C
 10
151.20128
 20
250.887575
 30
0.0
 11
151.20128
 21
253.887575
 31
0.0
  0
LINE
  8
0
  6
CONTINUOUS
 62
     7
  5
7D
 10
139.20128
 20
253.887575
 30
0.0
 11
139.20128
 21
250.887575
 31
0.0
  0
LINE
  8
0
  6
CONTINUOUS
 62
     7
  5
7E
 10
139.20128
 20
148.887575
 30
0.0
 11
139.20128
 21
59.887575
 31
0.0
  0
LINE
  8
0
  6
CONTINUOUS
 62
     7
  5
7F
 10
148.20128
 20
276.887575
 30
0.0
 11
148.20128
 21
289.887575
 31
0.0
  0
LINE
  8
0
  6
CONTINUOUS
 62
     7
  5
80
 10
142.20128
 20
289.887575
 30
0.0
 11
142.20128
 21
276.887575
 31
0.0
  0
LINE
  8
0
  6
CONTINUOUS
 62
     7
  5
81
 10
161.829425
 20
248.887575
 30
0.0
 11
161.829425
 21
250.887575
 31
0.0
  0
ARC
  8
0
  6
CONTINUOUS
 62
     7
  5
82
 10
154.279425
 20
251.587575
 30
0.0
 40
2.0
 50
90.0
 51
180.0
210
0.0
220
0.0
230
1.0
  0
ARC
  8
0
  6
CONTINUOUS
 62
     7
  5
83
 10
159.779425
 20
251.587575
 30
0.0
 40
2.0
 50
0.0
 51
90.0
210
0.0
220
0.0
230
1.0
  0
LINE
  8
0
  6
CONTINUOUS
 62
     7
  5
84
 10
152.279425
 20
251.587575
 30
0.0
 11
152.279425
 21
250.887575
 31
0.0
  0
LINE
  8
0
  6
CONTINUOUS
 62
     7
  5
85
 10
161.779425
 20
250.887575
 30
0.0
 11
161.779425
 21
251.587575
 31
0.0
  0
LINE
  8
0
  6
CONTINUOUS
 62
     7
  5
86
 10
128.623135
 20
251.587575
 30
0.0
 11
128.623135
 21
250.887575
 31
0.0
  0
LINE
  8
0
  6
CONTINUOUS
 62
     7
  5
87
 10
138.123135
 20
250.887575
 30
0.0
 11
138.123135
 21
251.587575
 31
0.0
  0
ARC
  8
0
  6
CONTINUOUS
 62
     7
  5
88
 10
130.623135
 20
251.587575
 30
0.0
 40
2.0
 50
90.0
 51
180.0
210
0.0
220
0.0
230
1.0
  0
ARC
  8
0
  6
CONTINUOUS
 62
     7
  5
89
 10
136.123135
 20
251.587575
 30
0.0
 40
2.0
 50
0.0
 51
90.0
210
0.0
220
0.0
230
1.0
  0
LINE
  8
0
  6
CONTINUOUS
 62
     7
  5
8A
 10
156.20128
 20
253.887575
 30
0.0
 11
156.20128
 21
253.587575
 31
0.0
  0
LINE
  8
0
  6
CONTINUOUS
 62
     7
  5
8B
 10
164.20128
 20
248.887575
 30
0.0
 11
164.20128
 21
253.887575
 31
0.0
  0
LINE
  8
0
  6
CONTINUOUS
 62
     7
  5
8C
 10
128.573135
 20
250.887575
 30
0.0
 11
128.573135
 21
248.887575
 31
0.0
  0
ENDBLK
  8
0
  5
8D
  0
BLOCK
  8
0
  5
90
  2
AID211
 70
     0
 10
0.0
 20
0.0
 30
0.0
  3
#auxiliary draft view
  0
LINE
  8
0
  6
CONTINUOUS
 62
     7
  5
91
 10
38.007494
 20
269.887575
 30
0.0
 11
1.007494
 21
269.887575
 31
0.0
  0
LINE
  8
0
  6
CONTINUOUS
 62
     7
  5
92
 10
38.007494
 20
269.887575
 30
0.0
 11
38.007494
 21
253.887575
 31
0.0
  0
LINE
  8
0
  6
CONTINUOUS
 62
     7
  5
93
 10
38.007494
 20
253.887575
 30
0.0
 11
1.007494
 21
253.887575
 31
0.0
  0
LINE
  8
0
  6
CONTINUOUS
 62
     7
  5
94
 10
1.007494
 20
269.887575
 30
0.0
 11
1.007494
 21
253.887575
 31
0.0
  0
LINE
  8
0
  6
CONTINUOUS
 62
     7
  5
95
 10
1.007494
 20
27.887575
 30
0.0
 11
38.007494
 21
27.887575
 31
0.0
  0
LINE
  8
0
  6
CONTINUOUS
 62
     7
  5
96
 10
38.007494
 20
27.887575
 30
0.0
 11
38.007494
 21
43.887575
 31
0.0
  0
LINE
  8
0
  6
CONTINUOUS
 62
     7
  5
97
 10
1.007494
 20
27.887575
 30
0.0
 11
1.007494
 21
43.887575
 31
0.0
  0
LINE
  8
0
  6
CONTINUOUS
 62
     7
  5
98
 10
1.007494
 20
43.887575
 30
0.0
 11
38.007494
 21
43.887575
 31
0.0
  0
LINE
  8
0
  6
CONTINUOUS
 62
     7
  5
99
 10
48.382494
 20
257.887575
 30
0.0
 11
48.382494
 21
265.887575
 31
0.0
  0
LINE
  8
0
  6
CONTINUOUS
 62
     7
  5
9A
 10
49.007494
 20
265.262575
 30
0.0
 11
49.007494
 21
258.512575
 31
0.0
  0
LINE
  8
0
  6
CONTINUOUS
 62
     7
  5
9B
 10
48.382494
 20
31.887575
 30
0.0
 11
48.382494
 21
39.887575
 31
0.0
  0
LINE
  8
0
  6
CONTINUOUS
 62
     7
  5
9C
 10
49.007494
 20
39.262575
 30
0.0
 11
49.007494
 21
32.512575
 31
0.0
  0
LINE
  8
0
  6
CONTINUOUS
 62
     9
  5
9D
 10
8.007494
 20
276.887575
 30
0.0
 11
8.007494
 21
269.887575
 31
0.0
  0
LINE
  8
0
  6
CONTINUOUS
 62
     7
  5
9E
 10
2.007494
 20
269.887575
 30
0.0
 11
2.007494
 21
276.887575
 31
0.0
  0
LINE
  8
0
  6
CONTINUOUS
 62
     7
  5
9F
 10
2.007494
 20
276.887575
 30
0.0
 11
8.007494
 21
276.887575
 31
0.0
  0
LINE
  8
0
  6
CONTINUOUS
 62
     9
  5
A0
 10
28.007494
 20
269.887575
 30
0.0
 11
28.007494
 21
276.887575
 31
0.0
  0
LINE
  8
0
  6
CONTINUOUS
 62
     7
  5
A1
 10
28.007494
 20
276.887575
 30
0.0
 11
8.007494
 21
276.887575
 31
0.0
  0
LINE
  8
0
  6
CONTINUOUS
 62
     7
  5
A2
 10
34.007494
 20
276.887575
 30
0.0
 11
34.007494
 21
269.887575
 31
0.0
  0
LINE
  8
0
  6
CONTINUOUS
 62
     7
  5
A3
 10
28.007494
 20
276.887575
 30
0.0
 11
34.007494
 21
276.887575
 31
0.0
  0
LINE
  8
0
  6
CONTINUOUS
 62
     7
  5
A4
 10
26.507494
 20
59.887575
 30
0.0
 11
26.007494
 21
59.887575
 31
0.0
  0
LINE
  8
0
  6
CONTINUOUS
 62
     7
  5
A5
 10
10.007494
 20
59.887575
 30
0.0
 11
9.507494
 21
59.887575
 31
0.0
  0
LINE
  8
0
  6
CONTINUOUS
 62
     7
  5
A6
 10
15.007494
 20
289.887575
 30
0.0
 11
21.007494
 21
289.887575
 31
0.0
  0
LINE
  8
0
  6
CONTINUOUS
 62
     7
  5
A7
 10
0.007494
 20
248.887575
 30
0.0
 11
36.007494
 21
248.887575
 31
0.0
  0
LINE
  8
0
  6
CONTINUOUS
 62
     7
  5
A8
 10
36.007494
 20
248.887575
 30
0.0
 11
36.007494
 21
148.887575
 31
0.0
  0
LINE
  8
0
  6
CONTINUOUS
 62
     7
  5
A9
 10
0.007494
 20
148.887575
 30
0.0
 11
36.007494
 21
148.887575
 31
0.0
  0
LINE
  8
0
  6
CONTINUOUS
 62
     7
  5
AA
 10
0.007494
 20
248.887575
 30
0.0
 11
0.007494
 21
148.887575
 31
0.0
  0
LINE
  8
0
  6
CONTINUOUS
 62
     9
  5
AB
 10
7.21417
 20
250.887575
 30
0.0
 11
7.21417
 21
248.887575
 31
0.0
  0
LINE
  8
0
  6
CONTINUOUS
 62
     7
  5
AC
 10
7.21417
 20
250.887575
 30
0.0
 11
1.37935
 21
250.887575
 31
0.0
  0
LINE
  8
0
  6
CONTINUOUS
 62
     7
  5
AD
 10
3.42935
 20
253.587575
 30
0.0
 11
8.92935
 21
253.587575
 31
0.0
  0
LINE
  8
0
  6
CONTINUOUS
 62
     9
  5
AE
 10
10.007494
 20
251.587575
 30
0.0
 11
1.42935
 21
251.587575
 31
0.0
  0
LINE
  8
0
  6
CONTINUOUS
 62
     7
  5
AF
 10
10.007494
 20
250.887575
 30
0.0
 11
7.21417
 21
250.887575
 31
0.0
  0
LINE
  8
0
  6
CONTINUOUS
 62
     9
  5
B0
 10
34.522763
 20
250.887575
 30
0.0
 11
34.522763
 21
248.887575
 31
0.0
  0
LINE
  8
0
  6
CONTINUOUS
 62
     7
  5
B1
 10
34.522763
 20
250.887575
 30
0.0
 11
34.007494
 21
250.887575
 31
0.0
  0
LINE
  8
0
  6
CONTINUOUS
 62
     9
  5
B2
 10
34.585638
 20
251.587575
 30
0.0
 11
34.007494
 21
251.587575
 31
0.0
  0
LINE
  8
0
  6
CONTINUOUS
 62
     7
  5
B3
 10
34.635638
 20
250.887575
 30
0.0
 11
34.522763
 21
250.887575
 31
0.0
  0
LINE
  8
0
  6
CONTINUOUS
 62
     7
  5
B4
 10
38.007494
 20
257.887575
 30
0.0
 11
48.382494
 21
257.887575
 31
0.0
  0
LINE
  8
0
  6
CONTINUOUS
 62
     7
  5
B5
 10
48.382494
 20
265.887575
 30
0.0
 11
38.007494
 21
265.887575
 31
0.0
  0
LINE
  8
0
  6
CONTINUOUS
 62
     7
  5
B6
 10
48.382494
 20
257.887575
 30
0.0
 11
49.007494
 21
258.512575
 31
0.0
  0
LINE
  8
0
  6
CONTINUOUS
 62
     7
  5
B7
 10
49.007494
 20
265.262575
 30
0.0
 11
48.382494
 21
265.887575
 31
0.0
  0
LINE
  8
0
  6
CONTINUOUS
 62
     7
  5
B8
 10
48.382494
 20
31.887575
 30
0.0
 11
49.007494
 21
32.512575
 31
0.0
  0
LINE
  8
0
  6
CONTINUOUS
 62
     7
  5
B9
 10
49.007494
 20
39.262575
 30
0.0
 11
48.382494
 21
39.887575
 31
0.0
  0
LINE
  8
0
  6
CONTINUOUS
 62
     7
  5
BA
 10
38.007494
 20
31.887575
 30
0.0
 11
48.382494
 21
31.887575
 31
0.0
  0
LINE
  8
0
  6
CONTINUOUS
 62
     7
  5
BB
 10
48.382494
 20
39.887575
 30
0.0
 11
38.007494
 21
39.887575
 31
0.0
  0
LINE
  8
0
  6
CONTINUOUS
 62
     7
  5
BC
 10
26.007494
 20
43.887575
 30
0.0
 11
26.007494
 21
148.887575
 31
0.0
  0
LINE
  8
0
  6
CONTINUOUS
 62
     7
  5
BD
 10
26.007494
 20
248.887575
 30
0.0
 11
26.007494
 21
253.887575
 31
0.0
  0
LINE
  8
0
  6
CONTINUOUS
 62
     7
  5
BE
 10
10.007494
 20
253.887575
 30
0.0
 11
10.007494
 21
248.887575
 31
0.0
  0
LINE
  8
0
  6
CONTINUOUS
 62
     7
  5
BF
 10
10.007494
 20
148.887575
 30
0.0
 11
10.007494
 21
43.887575
 31
0.0
  0
LINE
  8
0
  6
CONTINUOUS
 62
     7
  5
C0
 10
9.507494
 20
59.887575
 30
0.0
 11
9.507494
 21
43.887575
 31
0.0
  0
LINE
  8
0
  6
CONTINUOUS
 62
     7
  5
C1
 10
26.507494
 20
43.887575
 30
0.0
 11
26.507494
 21
59.887575
 31
0.0
  0
LINE
  8
0
  6
CONTINUOUS
 62
     7
  5
C2
 10
21.007494
 20
276.887575
 30
0.0
 11
21.007494
 21
289.887575
 31
0.0
  0
LINE
  8
0
  6
CONTINUOUS
 62
     7
  5
C3
 10
15.007494
 20
289.887575
 30
0.0
 11
15.007494
 21
276.887575
 31
0.0
  0
LINE
  8
0
  6
CONTINUOUS
 62
     7
  5
C4
 10
34.007494
 20
248.887575
 30
0.0
 11
34.007494
 21
253.887575
 31
0.0
  0
LINE
  8
0
  6
CONTINUOUS
 62
     7
  5
C5
 10
1.37935
 20
250.887575
 30
0.0
 11
1.37935
 21
248.887575
 31
0.0
  0
ARC
  8
0
  6
CONTINUOUS
 62
     7
  5
C6
 10
3.42935
 20
251.587575
 30
0.0
 40
2.0
 50
90.0
 51
180.0
210
0.0
220
0.0
230
1.0
  0
ARC
  8
0
  6
CONTINUOUS
 62
     7
  5
C7
 10
8.92935
 20
251.587575
 30
0.0
 40
2.0
 50
57.379523
 51
90.0
210
0.0
220
0.0
230
1.0
  0
LINE
  8
0
  6
CONTINUOUS
 62
     7
  5
C8
 10
1.42935
 20
251.587575
 30
0.0
 11
1.42935
 21
250.887575
 31
0.0
  0
ARC
  8
0
  6
CONTINUOUS
 62
     7
  5
C9
 10
32.585638
 20
251.587575
 30
0.0
 40
2.0
 50
0.0
 51
44.689517
210
0.0
220
0.0
230
1.0
  0
LINE
  8
0
  6
CONTINUOUS
 62
     7
  5
CA
 10
34.585638
 20
250.887575
 30
0.0
 11
34.585638
 21
251.587575
 31
0.0
  0
LINE
  8
0
  6
CONTINUOUS
 62
     7
  5
CB
 10
34.635638
 20
248.887575
 30
0.0
 11
34.635638
 21
250.887575
 31
0.0
  0
ENDBLK
  8
0
  5
CC
  0
BLOCK
  8
0
  5
CF
  2
AID333
 70
     0
 10
0.0
 20
0.0
 30
0.0
  3
#auxiliary draft view
  0
LINE
  8
0
  6
CONTINUOUS
 62
     7
  5
D0
 10
260.309413
 20
269.887575
 30
0.0
 11
260.309413
 21
253.887575
 31
0.0
  0
LINE
  8
0
  6
CONTINUOUS
 62
     7
  5
D1
 10
297.309413
 20
269.887575
 30
0.0
 11
260.309413
 21
269.887575
 31
0.0
  0
LINE
  8
0
  6
CONTINUOUS
 62
     7
  5
D2
 10
297.309413
 20
253.887575
 30
0.0
 11
260.309413
 21
253.887575
 31
0.0
  0
LINE
  8
0
  6
CONTINUOUS
 62
     7
  5
D3
 10
297.309413
 20
269.887575
 30
0.0
 11
297.309413
 21
253.887575
 31
0.0
  0
LINE
  8
0
  6
CONTINUOUS
 62
     7
  5
D4
 10
260.309413
 20
27.887575
 30
0.0
 11
297.309413
 21
27.887575
 31
0.0
  0
LINE
  8
0
  6
CONTINUOUS
 62
     7
  5
D5
 10
260.309413
 20
27.887575
 30
0.0
 11
260.309413
 21
43.887575
 31
0.0
  0
LINE
  8
0
  6
CONTINUOUS
 62
     7
  5
D6
 10
260.309413
 20
43.887575
 30
0.0
 11
297.309413
 21
43.887575
 31
0.0
  0
LINE
  8
0
  6
CONTINUOUS
 62
     7
  5
D7
 10
297.309413
 20
27.887575
 30
0.0
 11
297.309413
 21
43.887575
 31
0.0
  0
LINE
  8
0
  6
CONTINUOUS
 62
     7
  5
D8
 10
249.934413
 20
265.887575
 30
0.0
 11
249.934413
 21
257.887575
 31
0.0
  0
LINE
  8
0
  6
CONTINUOUS
 62
     7
  5
D9
 10
249.309413
 20
258.512575
 30
0.0
 11
249.309413
 21
265.262575
 31
0.0
  0
LINE
  8
0
  6
CONTINUOUS
 62
     7
  5
DA
 10
249.934413
 20
39.887575
 30
0.0
 11
249.934413
 21
31.887575
 31
0.0
  0
LINE
  8
0
  6
CONTINUOUS
 62
     7
  5
DB
 10
249.309413
 20
32.512575
 30
0.0
 11
249.309413
 21
39.262575
 31
0.0
  0
LINE
  8
0
  6
CONTINUOUS
 62
     7
  5
DC
 10
296.309413
 20
276.887575
 30
0.0
 11
296.309413
 21
269.887575
 31
0.0
  0
LINE
  8
0
  6
CONTINUOUS
 62
     9
  5
DD
 10
290.309413
 20
269.887575
 30
0.0
 11
290.309413
 21
276.887575
 31
0.0
  0
LINE
  8
0
  6
CONTINUOUS
 62
     7
  5
DE
 10
290.309413
 20
276.887575
 30
0.0
 11
296.309413
 21
276.887575
 31
0.0
  0
LINE
  8
0
  6
CONTINUOUS
 62
     9
  5
DF
 10
270.309413
 20
276.887575
 30
0.0
 11
270.309413
 21
269.887575
 31
0.0
  0
LINE
  8
0
  6
CONTINUOUS
 62
     7
  5
E0
 10
264.309413
 20
269.887575
 30
0.0
 11
264.309413
 21
276.887575
 31
0.0
  0
LINE
  8
0
  6
CONTINUOUS
 62
     7
  5
E1
 10
264.309413
 20
276.887575
 30
0.0
 11
270.309413
 21
276.887575
 31
0.0
  0
LINE
  8
0
  6
CONTINUOUS
 62
     7
  5
E2
 10
290.309413
 20
276.887575
 30
0.0
 11
270.309413
 21
276.887575
 31
0.0
  0
LINE
  8
0
  6
CONTINUOUS
 62
     7
  5
E3
 10
288.809413
 20
59.887575
 30
0.0
 11
288.309413
 21
59.887575
 31
0.0
  0
LINE
  8
0
  6
CONTINUOUS
 62
     7
  5
E4
 10
272.309413
 20
59.887575
 30
0.0
 11
271.809413
 21
59.887575
 31
0.0
  0
LINE
  8
0
  6
CONTINUOUS
 62
     7
  5
E5
 10
277.309413
 20
289.887575
 30
0.0
 11
283.309413
 21
289.887575
 31
0.0
  0
LINE
  8
0
  6
CONTINUOUS
 62
     7
  5
E6
 10
298.309413
 20
248.887575
 30
0.0
 11
262.309413
 21
248.887575
 31
0.0
  0
LINE
  8
0
  6
CONTINUOUS
 62
     7
  5
E7
 10
298.309413
 20
148.887575
 30
0.0
 11
298.309413
 21
248.887575
 31
0.0
  0
LINE
  8
0
  6
CONTINUOUS
 62
     7
  5
E8
 10
298.309413
 20
148.887575
 30
0.0
 11
262.309413
 21
148.887575
 31
0.0
  0
LINE
  8
0
  6
CONTINUOUS
 62
     7
  5
E9
 10
262.309413
 20
148.887575
 30
0.0
 11
262.309413
 21
248.887575
 31
0.0
  0
LINE
  8
0
  6
CONTINUOUS
 62
     9
  5
EA
 10
269.51609
 20
250.887575
 30
0.0
 11
269.51609
 21
248.887575
 31
0.0
  0
LINE
  8
0
  6
CONTINUOUS
 62
     7
  5
EB
 10
269.51609
 20
250.887575
 30
0.0
 11
263.68127
 21
250.887575
 31
0.0
  0
LINE
  8
0
  6
CONTINUOUS
 62
     9
  5
EC
 10
272.309413
 20
251.587575
 30
0.0
 11
263.73127
 21
251.587575
 31
0.0
  0
LINE
  8
0
  6
CONTINUOUS
 62
     7
  5
ED
 10
265.73127
 20
253.587575
 30
0.0
 11
271.23127
 21
253.587575
 31
0.0
  0
LINE
  8
0
  6
CONTINUOUS
 62
     7
  5
EE
 10
272.309413
 20
250.887575
 30
0.0
 11
269.51609
 21
250.887575
 31
0.0
  0
LINE
  8
0
  6
CONTINUOUS
 62
     9
  5
EF
 10
293.7849
 20
250.887575
 30
0.0
 11
293.7849
 21
248.887575
 31
0.0
  0
LINE
  8
0
  6
CONTINUOUS
 62
     7
  5
F0
 10
293.7849
 20
250.887575
 30
0.0
 11
288.309413
 21
250.887575
 31
0.0
  0
LINE
  8
0
  6
CONTINUOUS
 62
     9
  5
F1
 10
296.824683
 20
250.887575
 30
0.0
 11
296.824683
 21
248.887575
 31
0.0
  0
LINE
  8
0
  6
CONTINUOUS
 62
     7
  5
F2
 10
296.824683
 20
250.887575
 30
0.0
 11
293.7849
 21
250.887575
 31
0.0
  0
LINE
  8
0
  6
CONTINUOUS
 62
     9
  5
F3
 10
296.887557
 20
251.587575
 30
0.0
 11
288.309413
 21
251.587575
 31
0.0
  0
LINE
  8
0
  6
CONTINUOUS
 62
     7
  5
F4
 10
289.387557
 20
253.587575
 30
0.0
 11
294.887557
 21
253.587575
 31
0.0
  0
LINE
  8
0
  6
CONTINUOUS
 62
     7
  5
F5
 10
296.937557
 20
250.887575
 30
0.0
 11
296.824683
 21
250.887575
 31
0.0
  0
LINE
  8
0
  6
CONTINUOUS
 62
     7
  5
F6
 10
260.309413
 20
265.887575
 30
0.0
 11
249.934413
 21
265.887575
 31
0.0
  0
LINE
  8
0
  6
CONTINUOUS
 62
     7
  5
F7
 10
249.934413
 20
257.887575
 30
0.0
 11
260.309413
 21
257.887575
 31
0.0
  0
LINE
  8
0
  6
CONTINUOUS
 62
     7
  5
F8
 10
249.934413
 20
265.887575
 30
0.0
 11
249.309413
 21
265.262575
 31
0.0
  0
LINE
  8
0
  6
CONTINUOUS
 62
     7
  5
F9
 10
249.309413
 20
258.512575
 30
0.0
 11
249.934413
 21
257.887575
 31
0.0
  0
LINE
  8
0
  6
CONTINUOUS
 62
     7
  5
FA
 10
260.309413
 20
39.887575
 30
0.0
 11
249.934413
 21
39.887575
 31
0.0
  0
LINE
  8
0
  6
CONTINUOUS
 62
     7
  5
FB
 10
249.934413
 20
31.887575
 30
0.0
 11
260.309413
 21
31.887575
 31
0.0
  0
LINE
  8
0
  6
CONTINUOUS
 62
     7
  5
FC
 10
249.934413
 20
39.887575
 30
0.0
 11
249.309413
 21
39.262575
 31
0.0
  0
LINE
  8
0
  6
CONTINUOUS
 62
     7
  5
FD
 10
249.309413
 20
32.512575
 30
0.0
 11
249.934413
 21
31.887575
 31
0.0
  0
LINE
  8
0
  6
CONTINUOUS
 62
     7
  5
FE
 10
288.309413
 20
43.887575
 30
0.0
 11
288.309413
 21
148.887575
 31
0.0
  0
LINE
  8
0
  6
CONTINUOUS
 62
     7
  5
FF
 10
288.309413
 20
248.887575
 30
0.0
 11
288.309413
 21
253.887575
 31
0.0
  0
LINE
  8
0
  6
CONTINUOUS
 62
     7
  5
100
 10
272.309413
 20
253.887575
 30
0.0
 11
272.309413
 21
248.887575
 31
0.0
  0
LINE
  8
0
  6
CONTINUOUS
 62
     7
  5
101
 10
272.309413
 20
148.887575
 30
0.0
 11
272.309413
 21
43.887575
 31
0.0
  0
LINE
  8
0
  6
CONTINUOUS
 62
     7
  5
102
 10
271.809413
 20
59.887575
 30
0.0
 11
271.809413
 21
43.887575
 31
0.0
  0
LINE
  8
0
  6
CONTINUOUS
 62
     7
  5
103
 10
288.809413
 20
43.887575
 30
0.0
 11
288.809413
 21
59.887575
 31
0.0
  0
LINE
  8
0
  6
CONTINUOUS
 62
     7
  5
104
 10
283.309413
 20
276.887575
 30
0.0
 11
283.309413
 21
289.887575
 31
0.0
  0
LINE
  8
0
  6
CONTINUOUS
 62
     7
  5
105
 10
277.309413
 20
289.887575
 30
0.0
 11
277.309413
 21
276.887575
 31
0.0
  0
LINE
  8
0
  6
CONTINUOUS
 62
     7
  5
106
 10
263.68127
 20
250.887575
 30
0.0
 11
263.68127
 21
248.887575
 31
0.0
  0
LINE
  8
0
  6
CONTINUOUS
 62
     7
  5
107
 10
263.73127
 20
251.587575
 30
0.0
 11
263.73127
 21
250.887575
 31
0.0
  0
ARC
  8
0
  6
CONTINUOUS
 62
     7
  5
108
 10
265.73127
 20
251.587575
 30
0.0
 40
2.0
 50
90.0
 51
180.0
210
0.0
220
0.0
230
1.0
  0
ARC
  8
0
  6
CONTINUOUS
 62
     7
  5
109
 10
271.23127
 20
251.587575
 30
0.0
 40
2.0
 50
57.379523
 51
90.0
210
0.0
220
0.0
230
1.0
  0
ARC
  8
0
  6
CONTINUOUS
 62
     7
  5
10A
 10
289.387557
 20
251.587575
 30
0.0
 40
2.0
 50
90.0
 51
122.620477
210
0.0
220
0.0
230
1.0
  0
ARC
  8
0
  6
CONTINUOUS
 62
     7
  5
10B
 10
294.887557
 20
251.587575
 30
0.0
 40
2.0
 50
0.0
 51
90.0
210
0.0
220
0.0
230
1.0
  0
LINE
  8
0
  6
CONTINUOUS
 62
     7
  5
10C
 10
296.887557
 20
250.887575
 30
0.0
 11
296.887557
 21
251.587575
 31
0.0
  0
LINE
  8
0
  6
CONTINUOUS
 62
     7
  5
10D
 10
296.937557
 20
248.887575
 30
0.0
 11
296.937557
 21
250.887575
 31
0.0
  0
LINE
  8
0
  6
CONTINUOUS
 62
     7
  5
10E
 10
264.309413
 20
253.887575
 30
0.0
 11
264.309413
 21
252.994105
 31
0.0
  0
ENDBLK
  8
0
  5
10F
  0
BLOCK
  8
0
  5
112
  2
AID463
 70
     0
 10
0.0
 20
0.0
 30
0.0
  3
#auxiliary draft view
  0
CIRCLE
  8
0
  6
CONTINUOUS
 62
     7
  5
113
 10
156.40128
 20
381.371295
 30
0.0
 40
2.6
210
0.0
220
0.0
230
1.0
  0
CIRCLE
  8
0
  6
CONTINUOUS
 62
     7
  5
114
 10
134.00128
 20
381.371295
 30
0.0
 40
2.6
210
0.0
220
0.0
230
1.0
  0
CIRCLE
  8
0
  6
CONTINUOUS
 62
     7
  5
115
 10
156.40128
 20
358.971295
 30
0.0
 40
2.6
210
0.0
220
0.0
230
1.0
  0
CIRCLE
  8
0
  6
CONTINUOUS
 62
     7
  5
116
 10
134.00128
 20
358.971295
 30
0.0
 40
2.6
210
0.0
220
0.0
230
1.0
  0
LINE
  8
0
  6
CONTINUOUS
 62
     7
  5
117
 10
96.20128
 20
387.171295
 30
0.0
 11
194.20128
 21
387.171295
 31
0.0
  0
LINE
  8
0
  6
CONTINUOUS
 62
     7
  5
118
 10
194.20128
 20
387.171295
 30
0.0
 11
194.20128
 21
350.171295
 31
0.0
  0
LINE
  8
0
  6
CONTINUOUS
 62
     7
  5
119
 10
194.20128
 20
350.171295
 30
0.0
 11
96.20128
 21
350.171295
 31
0.0
  0
LINE
  8
0
  6
CONTINUOUS
 62
     7
  5
11A
 10
96.20128
 20
350.171295
 30
0.0
 11
96.20128
 21
387.171295
 31
0.0
  0
LINE
  8
0
  6
CONTINUOUS
 62
     7
  5
11B
 10
100.20128
 20
339.796295
 30
0.0
 11
108.20128
 21
339.796295
 31
0.0
  0
LINE
  8
0
  6
CONTINUOUS
 62
     7
  5
11C
 10
182.20128
 20
339.796295
 30
0.0
 11
190.20128
 21
339.796295
 31
0.0
  0
LINE
  8
0
  6
CONTINUOUS
 62
     7
  5
11D
 10
189.57628
 20
339.171295
 30
0.0
 11
182.82628
 21
339.171295
 31
0.0
  0
LINE
  8
0
  6
CONTINUOUS
 62
     7
  5
11E
 10
107.57628
 20
339.171295
 30
0.0
 11
100.82628
 21
339.171295
 31
0.0
  0
LINE
  8
0
  6
CONTINUOUS
 62
     7
  5
11F
 10
95.20128
 20
388.171295
 30
0.0
 11
95.20128
 21
352.171295
 31
0.0
  0
LINE
  8
0
  6
CONTINUOUS
 62
     7
  5
120
 10
195.20128
 20
388.171295
 30
0.0
 11
95.20128
 21
388.171295
 31
0.0
  0
LINE
  8
0
  6
CONTINUOUS
 62
     7
  5
121
 10
195.20128
 20
388.171295
 30
0.0
 11
195.20128
 21
352.171295
 31
0.0
  0
LINE
  8
0
  6
CONTINUOUS
 62
     7
  5
122
 10
195.20128
 20
352.171295
 30
0.0
 11
194.20128
 21
352.171295
 31
0.0
  0
LINE
  8
0
  6
CONTINUOUS
 62
     7
  5
123
 10
96.20128
 20
352.171295
 30
0.0
 11
95.20128
 21
352.171295
 31
0.0
  0
LINE
  8
0
  6
CONTINUOUS
 62
     7
  5
124
 10
100.20128
 20
350.171295
 30
0.0
 11
100.20128
 21
339.796295
 31
0.0
  0
LINE
  8
0
  6
CONTINUOUS
 62
     7
  5
125
 10
108.20128
 20
339.796295
 30
0.0
 11
108.20128
 21
350.171295
 31
0.0
  0
LINE
  8
0
  6
CONTINUOUS
 62
     7
  5
126
 10
182.20128
 20
350.171295
 30
0.0
 11
182.20128
 21
339.796295
 31
0.0
  0
LINE
  8
0
  6
CONTINUOUS
 62
     7
  5
127
 10
190.20128
 20
339.796295
 30
0.0
 11
190.20128
 21
350.171295
 31
0.0
  0
LINE
  8
0
  6
CONTINUOUS
 62
     7
  5
128
 10
182.20128
 20
339.796295
 30
0.0
 11
182.82628
 21
339.171295
 31
0.0
  0
LINE
  8
0
  6
CONTINUOUS
 62
     7
  5
129
 10
189.57628
 20
339.171295
 30
0.0
 11
190.20128
 21
339.796295
 31
0.0
  0
LINE
  8
0
  6
CONTINUOUS
 62
     7
  5
12A
 10
100.20128
 20
339.796295
 30
0.0
 11
100.82628
 21
339.171295
 31
0.0
  0
LINE
  8
0
  6
CONTINUOUS
 62
     7
  5
12B
 10
107.57628
 20
339.171295
 30
0.0
 11
108.20128
 21
339.796295
 31
0.0
  0
ENDBLK
  8
0
  5
12C
  0
BLOCK
  8
0
  5
12F
  2
AID517
 70
     0
 10
0.0
 20
0.0
 30
0.0
  3
#auxiliary draft view
  0
CIRCLE
  8
0
  6
CONTINUOUS
 62
     7
  5
130
 10
145.20128
 20
-50.417557
 30
0.0
 40
3.0
210
0.0
220
0.0
230
1.0
  0
ARC
  8
0
  6
CONTINUOUS
 62
     7
  5
131
 10
135.20128
 20
-60.417557
 30
0.0
 40
6.0
 50
180.0
 51
270.0
210
0.0
220
0.0
230
1.0
  0
LINE
  8
0
  6
CONTINUOUS
 62
     7
  5
132
 10
129.20128
 20
-60.417557
 30
0.0
 11
129.20128
 21
-40.417557
 31
0.0
  0
ARC
  8
0
  6
CONTINUOUS
 62
     7
  5
133
 10
155.20128
 20
-40.417557
 30
0.0
 40
6.0
 50
0.0
 51
90.0
210
0.0
220
0.0
230
1.0
  0
LINE
  8
0
  6
CONTINUOUS
 62
     7
  5
134
 10
161.20128
 20
-40.417557
 30
0.0
 11
161.20128
 21
-60.417557
 31
0.0
  0
ARC
  8
0
  6
CONTINUOUS
 62
     7
  5
135
 10
155.20128
 20
-60.417557
 30
0.0
 40
6.0
 50
270.0
 51
0.0
210
0.0
220
0.0
230
1.0
  0
LINE
  8
0
  6
CONTINUOUS
 62
     7
  5
136
 10
155.20128
 20
-66.417557
 30
0.0
 11
135.20128
 21
-66.417557
 31
0.0
  0
ARC
  8
0
  6
CONTINUOUS
 62
     7
  5
137
 10
135.20128
 20
-40.417557
 30
0.0
 40
6.0
 50
90.0
 51
180.0
210
0.0
220
0.0
230
1.0
  0
LINE
  8
0
  6
CONTINUOUS
 62
     7
  5
138
 10
135.20128
 20
-34.417557
 30
0.0
 11
155.20128
 21
-34.417557
 31
0.0
  0
CIRCLE
  8
0
  6
CONTINUOUS
 62
     7
  5
139
 10
124.20128
 20
-61.617557
 30
0.0
 40
2.6
210
0.0
220
0.0
230
1.0
  0
CIRCLE
  8
0
  6
CONTINUOUS
 62
     7
  5
13A
 10
166.20128
 20
-39.217557
 30
0.0
 40
2.6
210
0.0
220
0.0
230
1.0
  0
CIRCLE
  8
0
  6
CONTINUOUS
 62
     7
  5
13B
 10
163.90128
 20
-55.917557
 30
0.0
 40
1.51
210
0.0
220
0.0
230
1.0
  0
LINE
  8
0
  6
CONTINUOUS
 62
     7
  5
13C
 10
194.20128
 20
-67.417557
 30
0.0
 11
96.20128
 21
-67.417557
 31
0.0
  0
LINE
  8
0
  6
CONTINUOUS
 62
     7
  5
13D
 10
194.20128
 20
-30.417557
 30
0.0
 11
194.20128
 21
-67.417557
 31
0.0
  0
CIRCLE
  8
0
  6
CONTINUOUS
 62
     7
  5
13E
 10
166.20128
 20
-61.617557
 30
0.0
 40
2.6
210
0.0
220
0.0
230
1.0
  0
CIRCLE
  8
0
  6
CONTINUOUS
 62
     7
  5
13F
 10
126.50128
 20
-44.917557
 30
0.0
 40
1.51
210
0.0
220
0.0
230
1.0
  0
LINE
  8
0
  6
CONTINUOUS
 62
     7
  5
140
 10
96.20128
 20
-67.417557
 30
0.0
 11
96.20128
 21
-30.417557
 31
0.0
  0
CIRCLE
  8
0
  6
CONTINUOUS
 62
     7
  5
141
 10
124.20128
 20
-39.217557
 30
0.0
 40
2.6
210
0.0
220
0.0
230
1.0
  0
LINE
  8
0
  6
CONTINUOUS
 62
     7
  5
142
 10
96.20128
 20
-30.417557
 30
0.0
 11
194.20128
 21
-30.417557
 31
0.0
  0
LINE
  8
0
  6
CONTINUOUS
 62
     7
  5
143
 10
182.82628
 20
-19.417557
 30
0.0
 11
186.20128
 21
-19.417557
 31
0.0
  0
LINE
  8
0
  6
CONTINUOUS
 62
     7
  5
144
 10
190.20128
 20
-20.042557
 30
0.0
 11
186.20128
 21
-20.042557
 31
0.0
  0
LINE
  8
0
  6
CONTINUOUS
 62
     7
  5
145
 10
186.20128
 20
-19.417557
 30
0.0
 11
189.57628
 21
-19.417557
 31
0.0
  0
LINE
  8
0
  6
CONTINUOUS
 62
     7
  5
146
 10
186.20128
 20
-20.042557
 30
0.0
 11
182.20128
 21
-20.042557
 31
0.0
  0
LINE
  8
0
  6
CONTINUOUS
 62
     7
  5
147
 10
100.82628
 20
-19.417557
 30
0.0
 11
104.20128
 21
-19.417557
 31
0.0
  0
LINE
  8
0
  6
CONTINUOUS
 62
     7
  5
148
 10
108.20128
 20
-20.042557
 30
0.0
 11
104.20128
 21
-20.042557
 31
0.0
  0
LINE
  8
0
  6
CONTINUOUS
 62
     7
  5
149
 10
104.20128
 20
-19.417557
 30
0.0
 11
107.57628
 21
-19.417557
 31
0.0
  0
LINE
  8
0
  6
CONTINUOUS
 62
     7
  5
14A
 10
104.20128
 20
-20.042557
 30
0.0
 11
100.20128
 21
-20.042557
 31
0.0
  0
ARC
  8
0
  6
CONTINUOUS
 62
     7
  5
14B
 10
160.20128
 20
-38.417557
 30
0.0
 40
4.0
 50
333.748006
 51
11.062708
210
0.0
220
0.0
230
1.0
  0
LINE
  8
0
  6
CONTINUOUS
 62
     7
  5
14C
 10
195.20128
 20
-68.417557
 30
0.0
 11
195.20128
 21
-32.417557
 31
0.0
  0
LINE
  8
0
  6
CONTINUOUS
 62
     7
  5
14D
 10
95.20128
 20
-68.417557
 30
0.0
 11
195.20128
 21
-68.417557
 31
0.0
  0
LINE
  8
0
  6
CONTINUOUS
 62
     7
  5
14E
 10
95.20128
 20
-68.417557
 30
0.0
 11
95.20128
 21
-32.417557
 31
0.0
  0
LINE
  8
0
  6
CONTINUOUS
 62
     7
  5
14F
 10
95.20128
 20
-32.417557
 30
0.0
 11
96.20128
 21
-32.417557
 31
0.0
  0
LINE
  8
0
  6
CONTINUOUS
 62
     7
  5
150
 10
194.20128
 20
-32.417557
 30
0.0
 11
195.20128
 21
-32.417557
 31
0.0
  0
LINE
  8
0
  6
CONTINUOUS
 62
     7
  5
151
 10
190.20128
 20
-20.042557
 30
0.0
 11
189.57628
 21
-19.417557
 31
0.0
  0
LINE
  8
0
  6
CONTINUOUS
 62
     7
  5
152
 10
182.82628
 20
-19.417557
 30
0.0
 11
182.20128
 21
-20.042557
 31
0.0
  0
LINE
  8
0
  6
CONTINUOUS
 62
     7
  5
153
 10
108.20128
 20
-20.042557
 30
0.0
 11
107.57628
 21
-19.417557
 31
0.0
  0
LINE
  8
0
  6
CONTINUOUS
 62
     7
  5
154
 10
100.82628
 20
-19.417557
 30
0.0
 11
100.20128
 21
-20.042557
 31
0.0
  0
LINE
  8
0
  6
CONTINUOUS
 62
     7
  5
155
 10
190.20128
 20
-30.417557
 30
0.0
 11
190.20128
 21
-20.042557
 31
0.0
  0
LINE
  8
0
  6
CONTINUOUS
 62
     7
  5
156
 10
182.20128
 20
-20.042557
 30
0.0
 11
182.20128
 21
-30.417557
 31
0.0
  0
LINE
  8
0
  6
CONTINUOUS
 62
     7
  5
157
 10
108.20128
 20
-30.417557
 30
0.0
 11
108.20128
 21
-20.042557
 31
0.0
  0
LINE
  8
0
  6
CONTINUOUS
 62
     7
  5
158
 10
100.20128
 20
-20.042557
 30
0.0
 11
100.20128
 21
-30.417557
 31
0.0
  0
ENDBLK
  8
0
  5
159
  0
BLOCK
  8
0
  5
15C
  2
AID603
 70
     0
 10
0.0
 20
0.0
 30
0.0
  3
#auxiliary draft view
  0
CIRCLE
  8
0
  6
CONTINUOUS
 62
     7
  5
15D
 10
448.364013
 20
261.887575
 30
0.0
 40
3.375
210
0.0
220
0.0
230
1.0
  0
CIRCLE
  8
0
  6
CONTINUOUS
 62
     7
  5
15E
 10
448.364013
 20
261.887575
 30
0.0
 40
4.0
210
0.0
220
0.0
230
1.0
  0
CIRCLE
  8
0
  6
CONTINUOUS
 62
     7
  5
15F
 10
448.364013
 20
35.887575
 30
0.0
 40
3.375
210
0.0
220
0.0
230
1.0
  0
CIRCLE
  8
0
  6
CONTINUOUS
 62
     7
  5
160
 10
448.364013
 20
35.887575
 30
0.0
 40
4.0
210
0.0
220
0.0
230
1.0
  0
CIRCLE
  8
0
  6
CONTINUOUS
 62
     7
  5
161
 10
366.364013
 20
35.887575
 30
0.0
 40
3.375
210
0.0
220
0.0
230
1.0
  0
CIRCLE
  8
0
  6
CONTINUOUS
 62
     7
  5
162
 10
366.364013
 20
35.887575
 30
0.0
 40
4.0
210
0.0
220
0.0
230
1.0
  0
CIRCLE
  8
0
  6
CONTINUOUS
 62
     7
  5
163
 10
366.364013
 20
261.887575
 30
0.0
 40
3.375
210
0.0
220
0.0
230
1.0
  0
CIRCLE
  8
0
  6
CONTINUOUS
 62
     7
  5
164
 10
366.364013
 20
261.887575
 30
0.0
 40
4.0
210
0.0
220
0.0
230
1.0
  0
CIRCLE
  8
0
  6
CONTINUOUS
 62
     7
  5
165
 10
366.364013
 20
35.887575
 30
0.0
 40
4.25
210
0.0
220
0.0
230
1.0
  0
CIRCLE
  8
0
  6
CONTINUOUS
 62
     7
  5
166
 10
448.364013
 20
35.887575
 30
0.0
 40
4.25
210
0.0
220
0.0
230
1.0
  0
LINE
  8
0
  6
CONTINUOUS
 62
     7
  5
167
 10
456.364013
 20
27.887575
 30
0.0
 11
456.364013
 21
43.887575
 31
0.0
  0
LINE
  8
0
  6
CONTINUOUS
 62
     7
  5
168
 10
358.364013
 20
27.887575
 30
0.0
 11
456.364013
 21
27.887575
 31
0.0
  0
LINE
  8
0
  6
CONTINUOUS
 62
     7
  5
169
 10
358.364013
 20
27.887575
 30
0.0
 11
358.364013
 21
43.887575
 31
0.0
  0
LINE
  8
0
  6
CONTINUOUS
 62
     7
  5
16A
 10
358.364013
 20
43.887575
 30
0.0
 11
456.364013
 21
43.887575
 31
0.0
  0
CIRCLE
  8
0
  6
CONTINUOUS
 62
     7
  5
16B
 10
448.364013
 20
261.887575
 30
0.0
 40
4.25
210
0.0
220
0.0
230
1.0
  0
CIRCLE
  8
0
  6
CONTINUOUS
 62
     7
  5
16C
 10
366.364013
 20
261.887575
 30
0.0
 40
4.25
210
0.0
220
0.0
230
1.0
  0
LINE
  8
0
  6
CONTINUOUS
 62
     7
  5
16D
 10
358.364013
 20
269.887575
 30
0.0
 11
358.364013
 21
253.887575
 31
0.0
  0
LINE
  8
0
  6
CONTINUOUS
 62
     7
  5
16E
 10
456.364013
 20
269.887575
 30
0.0
 11
358.364013
 21
269.887575
 31
0.0
  0
LINE
  8
0
  6
CONTINUOUS
 62
     7
  5
16F
 10
456.364013
 20
253.887575
 30
0.0
 11
358.364013
 21
253.887575
 31
0.0
  0
LINE
  8
0
  6
CONTINUOUS
 62
     7
  5
170
 10
456.364013
 20
269.887575
 30
0.0
 11
456.364013
 21
253.887575
 31
0.0
  0
LINE
  8
0
  6
CONTINUOUS
 62
     7
  5
171
 10
423.364013
 20
276.887575
 30
0.0
 11
423.364013
 21
269.887575
 31
0.0
  0
LINE
  8
0
  6
CONTINUOUS
 62
     9
  5
172
 10
417.364013
 20
269.887575
 30
0.0
 11
417.364013
 21
276.887575
 31
0.0
  0
LINE
  8
0
  6
CONTINUOUS
 62
     7
  5
173
 10
417.364013
 20
276.887575
 30
0.0
 11
423.364013
 21
276.887575
 31
0.0
  0
LINE
  8
0
  6
CONTINUOUS
 62
     9
  5
174
 10
397.364013
 20
276.887575
 30
0.0
 11
397.364013
 21
269.887575
 31
0.0
  0
LINE
  8
0
  6
CONTINUOUS
 62
     7
  5
175
 10
417.364013
 20
276.887575
 30
0.0
 11
397.364013
 21
276.887575
 31
0.0
  0
LINE
  8
0
  6
CONTINUOUS
 62
     7
  5
176
 10
391.364013
 20
269.887575
 30
0.0
 11
391.364013
 21
276.887575
 31
0.0
  0
LINE
  8
0
  6
CONTINUOUS
 62
     7
  5
177
 10
391.364013
 20
276.887575
 30
0.0
 11
397.364013
 21
276.887575
 31
0.0
  0
LINE
  8
0
  6
CONTINUOUS
 62
     7
  5
178
 10
415.864013
 20
59.887575
 30
0.0
 11
398.864013
 21
59.887575
 31
0.0
  0
LINE
  8
0
  6
CONTINUOUS
 62
     7
  5
179
 10
404.364013
 20
289.887575
 30
0.0
 11
407.364013
 21
289.887575
 31
0.0
  0
LINE
  8
0
  6
CONTINUOUS
 62
     7
  5
17A
 10
407.364013
 20
289.887575
 30
0.0
 11
410.364013
 21
289.887575
 31
0.0
  0
CIRCLE
  8
0
  6
CONTINUOUS
 62
     7
  5
17B
 10
451.364013
 20
242.887575
 30
0.0
 40
5.0
210
0.0
220
0.0
230
1.0
  0
CIRCLE
  8
0
  6
CONTINUOUS
 62
     7
  5
17C
 10
451.364013
 20
154.887575
 30
0.0
 40
5.0
210
0.0
220
0.0
230
1.0
  0
CIRCLE
  8
0
  6
CONTINUOUS
 62
     7
  5
17D
 10
363.364013
 20
242.887575
 30
0.0
 40
5.0
210
0.0
220
0.0
230
1.0
  0
CIRCLE
  8
0
  6
CONTINUOUS
 62
     7
  5
17E
 10
363.364013
 20
154.887575
 30
0.0
 40
5.0
210
0.0
220
0.0
230
1.0
  0
LINE
  8
0
  6
CONTINUOUS
 62
     7
  5
17F
 10
357.364013
 20
248.887575
 30
0.0
 11
357.364013
 21
148.887575
 31
0.0
  0
LINE
  8
0
  6
CONTINUOUS
 62
     7
  5
180
 10
457.364013
 20
248.887575
 30
0.0
 11
357.364013
 21
248.887575
 31
0.0
  0
LINE
  8
0
  6
CONTINUOUS
 62
     7
  5
181
 10
357.364013
 20
148.887575
 30
0.0
 11
457.364013
 21
148.887575
 31
0.0
  0
LINE
  8
0
  6
CONTINUOUS
 62
     7
  5
182
 10
457.364013
 20
148.887575
 30
0.0
 11
457.364013
 21
248.887575
 31
0.0
  0
LINE
  8
0
  6
CONTINUOUS
 62
     7
  5
183
 10
423.992158
 20
250.887575
 30
0.0
 11
418.157338
 21
250.887575
 31
0.0
  0
LINE
  8
0
  6
CONTINUOUS
 62
     9
  5
184
 10
418.157338
 20
250.887575
 30
0.0
 11
418.157338
 21
248.887575
 31
0.0
  0
LINE
  8
0
  6
CONTINUOUS
 62
     9
  5
185
 10
423.942158
 20
251.587575
 30
0.0
 11
419.192158
 21
251.587575
 31
0.0
  0
LINE
  8
0
  6
CONTINUOUS
 62
     9
  5
186
 10
419.192158
 20
251.587575
 30
0.0
 11
414.442158
 21
251.587575
 31
0.0
  0
LINE
  8
0
  6
CONTINUOUS
 62
     7
  5
187
 10
416.442158
 20
253.587575
 30
0.0
 11
419.192158
 21
253.587575
 31
0.0
  0
LINE
  8
0
  6
CONTINUOUS
 62
     7
  5
188
 10
419.192158
 20
253.587575
 30
0.0
 11
421.942158
 21
253.587575
 31
0.0
  0
LINE
  8
0
  6
CONTINUOUS
 62
     9
  5
189
 10
404.388906
 20
250.887575
 30
0.0
 11
404.388906
 21
248.887575
 31
0.0
  0
LINE
  8
0
  6
CONTINUOUS
 62
     7
  5
18A
 10
418.157338
 20
250.887575
 30
0.0
 11
404.388906
 21
250.887575
 31
0.0
  0
LINE
  8
0
  6
CONTINUOUS
 62
     7
  5
18B
 10
404.388906
 20
250.887575
 30
0.0
 11
396.364013
 21
250.887575
 31
0.0
  0
CIRCLE
  8
0
  6
CONTINUOUS
 62
     7
  5
18C
 10
451.364013
 20
242.887575
 30
0.0
 40
2.75
210
0.0
220
0.0
230
1.0
  0
CIRCLE
  8
0
  6
CONTINUOUS
 62
     7
  5
18D
 10
451.364013
 20
154.887575
 30
0.0
 40
2.75
210
0.0
220
0.0
230
1.0
  0
CIRCLE
  8
0
  6
CONTINUOUS
 62
     7
  5
18E
 10
363.364013
 20
154.887575
 30
0.0
 40
2.75
210
0.0
220
0.0
230
1.0
  0
CIRCLE
  8
0
  6
CONTINUOUS
 62
     7
  5
18F
 10
363.364013
 20
242.887575
 30
0.0
 40
2.75
210
0.0
220
0.0
230
1.0
  0
CIRCLE
  8
0
  6
CONTINUOUS
 62
     7
  5
190
 10
451.364013
 20
242.887575
 30
0.0
 40
2.459
210
0.0
220
0.0
230
1.0
  0
CIRCLE
  8
0
  6
CONTINUOUS
 62
     7
  5
191
 10
451.364013
 20
154.887575
 30
0.0
 40
2.459
210
0.0
220
0.0
230
1.0
  0
CIRCLE
  8
0
  6
CONTINUOUS
 62
     7
  5
192
 10
363.364013
 20
154.887575
 30
0.0
 40
2.459
210
0.0
220
0.0
230
1.0
  0
CIRCLE
  8
0
  6
CONTINUOUS
 62
     7
  5
193
 10
363.364013
 20
242.887575
 30
0.0
 40
2.459
210
0.0
220
0.0
230
1.0
  0
LINE
  8
0
  6
CONTINUOUS
 62
     9
  5
194
 10
400.285868
 20
251.587575
 30
0.0
 11
396.364013
 21
251.587575
 31
0.0
  0
LINE
  8
0
  6
CONTINUOUS
 62
     7
  5
195
 10
396.364013
 20
253.587575
 30
0.0
 11
398.285868
 21
253.587575
 31
0.0
  0
LINE
  8
0
  6
CONTINUOUS
 62
     7
  5
196
 10
398.864013
 20
59.887575
 30
0.0
 11
398.864013
 21
43.887575
 31
0.0
  0
LINE
  8
0
  6
CONTINUOUS
 62
     7
  5
197
 10
415.864013
 20
43.887575
 30
0.0
 11
415.864013
 21
59.887575
 31
0.0
  0
LINE
  8
0
  6
CONTINUOUS
 62
     7
  5
198
 10
443.364013
 20
43.887575
 30
0.0
 11
443.364013
 21
148.887575
 31
0.0
  0
LINE
  8
0
  6
CONTINUOUS
 62
     7
  5
199
 10
443.364013
 20
248.887575
 30
0.0
 11
443.364013
 21
253.887575
 31
0.0
  0
LINE
  8
0
  6
CONTINUOUS
 62
     7
  5
19A
 10
427.364013
 20
253.887575
 30
0.0
 11
427.364013
 21
248.887575
 31
0.0
  0
LINE
  8
0
  6
CONTINUOUS
 62
     7
  5
19B
 10
427.364013
 20
148.887575
 30
0.0
 11
427.364013
 21
43.887575
 31
0.0
  0
LINE
  8
0
  6
CONTINUOUS
 62
     7
  5
19C
 10
387.364013
 20
43.887575
 30
0.0
 11
387.364013
 21
148.887575
 31
0.0
  0
LINE
  8
0
  6
CONTINUOUS
 62
     7
  5
19D
 10
387.364013
 20
248.887575
 30
0.0
 11
387.364013
 21
253.887575
 31
0.0
  0
LINE
  8
0
  6
CONTINUOUS
 62
     7
  5
19E
 10
371.364013
 20
253.887575
 30
0.0
 11
371.364013
 21
248.887575
 31
0.0
  0
LINE
  8
0
  6
CONTINUOUS
 62
     7
  5
19F
 10
371.364013
 20
148.887575
 30
0.0
 11
371.364013
 21
43.887575
 31
0.0
  0
LINE
  8
0
  6
CONTINUOUS
 62
     7
  5
1A0
 10
413.364013
 20
59.887575
 30
0.0
 11
413.364013
 21
148.887575
 31
0.0
  0
LINE
  8
0
  6
CONTINUOUS
 62
     7
  5
1A1
 10
413.364013
 20
250.887575
 30
0.0
 11
413.364013
 21
253.887575
 31
0.0
  0
LINE
  8
0
  6
CONTINUOUS
 62
     7
  5
1A2
 10
401.364013
 20
253.887575
 30
0.0
 11
401.364013
 21
250.887575
 31
0.0
  0
LINE
  8
0
  6
CONTINUOUS
 62
     7
  5
1A3
 10
401.364013
 20
148.887575
 30
0.0
 11
401.364013
 21
59.887575
 31
0.0
  0
LINE
  8
0
  6
CONTINUOUS
 62
     7
  5
1A4
 10
410.364013
 20
276.887575
 30
0.0
 11
410.364013
 21
289.887575
 31
0.0
  0
LINE
  8
0
  6
CONTINUOUS
 62
     7
  5
1A5
 10
404.364013
 20
289.887575
 30
0.0
 11
404.364013
 21
276.887575
 31
0.0
  0
LINE
  8
0
  6
CONTINUOUS
 62
     7
  5
1A6
 10
423.992158
 20
248.887575
 30
0.0
 11
423.992158
 21
250.887575
 31
0.0
  0
LINE
  8
0
  6
CONTINUOUS
 62
     7
  5
1A7
 10
414.442158
 20
251.587575
 30
0.0
 11
414.442158
 21
250.887575
 31
0.0
  0
LINE
  8
0
  6
CONTINUOUS
 62
     7
  5
1A8
 10
423.942158
 20
250.887575
 30
0.0
 11
423.942158
 21
251.587575
 31
0.0
  0
ARC
  8
0
  6
CONTINUOUS
 62
     7
  5
1A9
 10
416.442158
 20
251.587575
 30
0.0
 40
2.0
 50
90.0
 51
180.0
210
0.0
220
0.0
230
1.0
  0
ARC
  8
0
  6
CONTINUOUS
 62
     7
  5
1AA
 10
421.942158
 20
251.587575
 30
0.0
 40
2.0
 50
0.0
 51
90.0
210
0.0
220
0.0
230
1.0
  0
LINE
  8
0
  6
CONTINUOUS
 62
     7
  5
1AB
 10
388.364013
 20
253.887575
 30
0.0
 11
388.364013
 21
248.887575
 31
0.0
  0
LINE
  8
0
  6
CONTINUOUS
 62
     7
  5
1AC
 10
396.364013
 20
248.887575
 30
0.0
 11
396.364013
 21
253.887575
 31
0.0
  0
LINE
  8
0
  6
CONTINUOUS
 62
     7
  5
1AD
 10
400.285868
 20
250.887575
 30
0.0
 11
400.285868
 21
251.587575
 31
0.0
  0
ARC
  8
0
  6
CONTINUOUS
 62
     7
  5
1AE
 10
398.285868
 20
251.587575
 30
0.0
 40
2.0
 50
0.0
 51
90.0
210
0.0
220
0.0
230
1.0
  0
ENDBLK
  8
0
  5
1AF
  0
ENDSEC
  0
SECTION
  2
ENTITIES
  0
INSERT
  8
0
  5
8E
  2
AID3
 10
0.0
 20
0.0
 30
0.0
  0
INSERT
  8
0
  5
CD
  2
AID211
 10
0.0
 20
0.0
 30
0.0
  0
INSERT
  8
0
  5
110
  2
AID333
 10
0.0
 20
0.0
 30
0.0
  0
INSERT
  8
0
  5
12D
  2
AID463
 10
0.0
 20
0.0
 30
0.0
  0
INSERT
  8
0
  5
15A
  2
AID517
 10
0.0
 20
0.0
 30
0.0
  0
INSERT
  8
0
  5
1B0
  2
AID603
 10
0.0
 20
0.0
 30
0.0
  0
LINE
  8
0
  6
CENTER
 62
     1
  5
1B1
 10
128.40128
 20
358.971295
 30
0.0
 11
139.60128
 21
358.971295
 31
0.0
  0
LINE
  8
0
  6
CENTER
 62
     1
  5
1B2
 10
134.00128
 20
353.371295
 30
0.0
 11
134.00128
 21
364.571295
 31
0.0
  0
LINE
  8
0
  6
CENTER
 62
     1
  5
1B3
 10
128.40128
 20
381.371295
 30
0.0
 11
139.60128
 21
381.371295
 31
0.0
  0
LINE
  8
0
  6
CENTER
 62
     1
  5
1B4
 10
134.00128
 20
375.771295
 30
0.0
 11
134.00128
 21
386.971295
 31
0.0
  0
LINE
  8
0
  6
CENTER
 62
     1
  5
1B5
 10
150.80128
 20
358.971295
 30
0.0
 11
162.00128
 21
358.971295
 31
0.0
  0
LINE
  8
0
  6
CENTER
 62
     1
  5
1B6
 10
156.40128
 20
353.371295
 30
0.0
 11
156.40128
 21
364.571295
 31
0.0
  0
LINE
  8
0
  6
CENTER
 62
     1
  5
1B7
 10
150.80128
 20
381.371295
 30
0.0
 11
162.00128
 21
381.371295
 31
0.0
  0
LINE
  8
0
  6
CENTER
 62
     1
  5
1B8
 10
156.40128
 20
375.771295
 30
0.0
 11
156.40128
 21
386.971295
 31
0.0
  0
LINE
  8
0
  6
CENTER
 62
     1
  5
1B9
 10
186.20128
 20
336.171295
 30
0.0
 11
186.20128
 21
382.171295
 31
0.0
  0
LINE
  8
0
  6
CENTER
 62
     1
  5
1BA
 10
104.20128
 20
336.796295
 30
0.0
 11
104.20128
 21
382.171295
 31
0.0
  0
LINE
  8
0
  6
CENTER
 62
     1
  5
1BB
 10
18.007494
 20
292.887575
 30
0.0
 11
18.007494
 21
273.887575
 31
0.0
  0
LINE
  8
0
  6
CENTER
 62
     1
  5
1BC
 10
-1.992506
 20
35.887575
 30
0.0
 11
52.007494
 21
35.887575
 31
0.0
  0
LINE
  8
0
  6
CENTER
 62
     1
  5
1BD
 10
52.007494
 20
261.887575
 30
0.0
 11
6.007494
 21
261.887575
 31
0.0
  0
LINE
  8
0
  6
CENTER
 62
     1
  5
1BE
 10
18.007494
 20
40.887575
 30
0.0
 11
18.007494
 21
256.887575
 31
0.0
  0
LINE
  8
0
  6
CENTER
 62
     1
  5
1BF
 10
173.20128
 20
256.887575
 30
0.0
 11
173.20128
 21
40.887575
 31
0.0
  0
LINE
  8
0
  6
CENTER
 62
     1
  5
1C0
 10
117.20128
 20
256.887575
 30
0.0
 11
117.20128
 21
40.887575
 31
0.0
  0
LINE
  8
0
  6
CENTER
 62
     1
  5
1C1
 10
145.20128
 20
292.887575
 30
0.0
 11
145.20128
 21
273.887575
 31
0.0
  0
LINE
  8
0
  6
CENTER
 62
     1
  5
1C2
 10
95.20128
 20
154.887575
 30
0.0
 11
107.20128
 21
154.887575
 31
0.0
  0
LINE
  8
0
  6
CENTER
 62
     1
  5
1C3
 10
101.20128
 20
148.887575
 30
0.0
 11
101.20128
 21
160.887575
 31
0.0
  0
LINE
  8
0
  6
CENTER
 62
     1
  5
1C4
 10
95.20128
 20
242.887575
 30
0.0
 11
107.20128
 21
242.887575
 31
0.0
  0
LINE
  8
0
  6
CENTER
 62
     1
  5
1C5
 10
101.20128
 20
236.887575
 30
0.0
 11
101.20128
 21
248.887575
 31
0.0
  0
LINE
  8
0
  6
CENTER
 62
     1
  5
1C6
 10
94.20128
 20
35.887575
 30
0.0
 11
114.20128
 21
35.887575
 31
0.0
  0
LINE
  8
0
  6
CENTER
 62
     1
  5
1C7
 10
104.20128
 20
25.887575
 30
0.0
 11
104.20128
 21
45.887575
 31
0.0
  0
LINE
  8
0
  6
CENTER
 62
     1
  5
1C8
 10
94.20128
 20
261.887575
 30
0.0
 11
114.20128
 21
261.887575
 31
0.0
  0
LINE
  8
0
  6
CENTER
 62
     1
  5
1C9
 10
104.20128
 20
251.887575
 30
0.0
 11
104.20128
 21
271.887575
 31
0.0
  0
LINE
  8
0
  6
CENTER
 62
     1
  5
1CA
 10
176.20128
 20
35.887575
 30
0.0
 11
196.20128
 21
35.887575
 31
0.0
  0
LINE
  8
0
  6
CENTER
 62
     1
  5
1CB
 10
186.20128
 20
25.887575
 30
0.0
 11
186.20128
 21
45.887575
 31
0.0
  0
LINE
  8
0
  6
CENTER
 62
     1
  5
1CC
 10
176.20128
 20
261.887575
 30
0.0
 11
196.20128
 21
261.887575
 31
0.0
  0
LINE
  8
0
  6
CENTER
 62
     1
  5
1CD
 10
186.20128
 20
251.887575
 30
0.0
 11
186.20128
 21
271.887575
 31
0.0
  0
LINE
  8
0
  6
CENTER
 62
     1
  5
1CE
 10
183.20128
 20
154.887575
 30
0.0
 11
195.20128
 21
154.887575
 31
0.0
  0
LINE
  8
0
  6
CENTER
 62
     1
  5
1CF
 10
189.20128
 20
148.887575
 30
0.0
 11
189.20128
 21
160.887575
 31
0.0
  0
LINE
  8
0
  6
CENTER
 62
     1
  5
1D0
 10
183.20128
 20
242.887575
 30
0.0
 11
195.20128
 21
242.887575
 31
0.0
  0
LINE
  8
0
  6
CENTER
 62
     1
  5
1D1
 10
189.20128
 20
236.887575
 30
0.0
 11
189.20128
 21
248.887575
 31
0.0
  0
LINE
  8
0
  6
CENTER
 62
     1
  5
1D2
 10
145.20128
 20
40.887575
 30
0.0
 11
145.20128
 21
256.887575
 31
0.0
  0
LINE
  8
0
  6
CENTER
 62
     1
  5
1D3
 10
280.309413
 20
292.887575
 30
0.0
 11
280.309413
 21
273.887575
 31
0.0
  0
LINE
  8
0
  6
CENTER
 62
     1
  5
1D4
 10
246.309413
 20
35.887575
 30
0.0
 11
292.309413
 21
35.887575
 31
0.0
  0
LINE
  8
0
  6
CENTER
 62
     1
  5
1D5
 10
246.309413
 20
261.887575
 30
0.0
 11
300.309413
 21
261.887575
 31
0.0
  0
LINE
  8
0
  6
CENTER
 62
     1
  5
1D6
 10
280.309413
 20
40.887575
 30
0.0
 11
280.309413
 21
256.887575
 31
0.0
  0
LINE
  8
0
  6
CENTER
 62
     1
  5
1D7
 10
379.364013
 20
256.887575
 30
0.0
 11
379.364013
 21
40.887575
 31
0.0
  0
LINE
  8
0
  6
CENTER
 62
     1
  5
1D8
 10
435.364013
 20
256.887575
 30
0.0
 11
435.364013
 21
40.887575
 31
0.0
  0
LINE
  8
0
  6
CENTER
 62
     1
  5
1D9
 10
407.364013
 20
292.887575
 30
0.0
 11
407.364013
 21
273.887575
 31
0.0
  0
LINE
  8
0
  6
CENTER
 62
     1
  5
1DA
 10
355.364013
 20
154.887575
 30
0.0
 11
371.364013
 21
154.887575
 31
0.0
  0
LINE
  8
0
  6
CENTER
 62
     1
  5
1DB
 10
363.364013
 20
146.887575
 30
0.0
 11
363.364013
 21
162.887575
 31
0.0
  0
LINE
  8
0
  6
CENTER
 62
     1
  5
1DC
 10
355.364013
 20
242.887575
 30
0.0
 11
371.364013
 21
242.887575
 31
0.0
  0
LINE
  8
0
  6
CENTER
 62
     1
  5
1DD
 10
363.364013
 20
234.887575
 30
0.0
 11
363.364013
 21
250.887575
 31
0.0
  0
LINE
  8
0
  6
CENTER
 62
     1
  5
1DE
 10
359.114013
 20
35.887575
 30
0.0
 11
373.614013
 21
35.887575
 31
0.0
  0
LINE
  8
0
  6
CENTER
 62
     1
  5
1DF
 10
366.364013
 20
28.637575
 30
0.0
 11
366.364013
 21
43.137575
 31
0.0
  0
LINE
  8
0
  6
CENTER
 62
     1
  5
1E0
 10
359.114013
 20
261.887575
 30
0.0
 11
373.614013
 21
261.887575
 31
0.0
  0
LINE
  8
0
  6
CENTER
 62
     1
  5
1E1
 10
366.364013
 20
254.637575
 30
0.0
 11
366.364013
 21
269.137575
 31
0.0
  0
LINE
  8
0
  6
CENTER
 62
     1
  5
1E2
 10
441.114013
 20
35.887575
 30
0.0
 11
455.614013
 21
35.887575
 31
0.0
  0
LINE
  8
0
  6
CENTER
 62
     1
  5
1E3
 10
448.364013
 20
28.637575
 30
0.0
 11
448.364013
 21
43.137575
 31
0.0
  0
LINE
  8
0
  6
CENTER
 62
     1
  5
1E4
 10
441.114013
 20
261.887575
 30
0.0
 11
455.614013
 21
261.887575
 31
0.0
  0
LINE
  8
0
  6
CENTER
 62
     1
  5
1E5
 10
448.364013
 20
254.637575
 30
0.0
 11
448.364013
 21
269.137575
 31
0.0
  0
LINE
  8
0
  6
CENTER
 62
     1
  5
1E6
 10
443.364013
 20
154.887575
 30
0.0
 11
459.364013
 21
154.887575
 31
0.0
  0
LINE
  8
0
  6
CENTER
 62
     1
  5
1E7
 10
451.364013
 20
146.887575
 30
0.0
 11
451.364013
 21
162.887575
 31
0.0
  0
LINE
  8
0
  6
CENTER
 62
     1
  5
1E8
 10
443.364013
 20
242.887575
 30
0.0
 11
459.364013
 21
242.887575
 31
0.0
  0
LINE
  8
0
  6
CENTER
 62
     1
  5
1E9
 10
451.364013
 20
234.887575
 30
0.0
 11
451.364013
 21
250.887575
 31
0.0
  0
LINE
  8
0
  6
CENTER
 62
     1
  5
1EA
 10
407.364013
 20
40.887575
 30
0.0
 11
407.364013
 21
256.887575
 31
0.0
  0
LINE
  8
0
  6
CENTER
 62
     1
  5
1EB
 10
118.60128
 20
-61.617557
 30
0.0
 11
129.80128
 21
-61.617557
 31
0.0
  0
LINE
  8
0
  6
CENTER
 62
     1
  5
1EC
 10
124.20128
 20
-67.217557
 30
0.0
 11
124.20128
 21
-56.017557
 31
0.0
  0
LINE
  8
0
  6
CENTER
 62
     1
  5
1ED
 10
118.60128
 20
-39.217557
 30
0.0
 11
129.80128
 21
-39.217557
 31
0.0
  0
LINE
  8
0
  6
CENTER
 62
     1
  5
1EE
 10
124.20128
 20
-44.817557
 30
0.0
 11
124.20128
 21
-33.617557
 31
0.0
  0
LINE
  8
0
  6
CENTER
 62
     1
  5
1EF
 10
121.99128
 20
-44.917557
 30
0.0
 11
131.01128
 21
-44.917557
 31
0.0
  0
LINE
  8
0
  6
CENTER
 62
     1
  5
1F0
 10
126.50128
 20
-49.427557
 30
0.0
 11
126.50128
 21
-40.407557
 31
0.0
  0
LINE
  8
0
  6
CENTER
 62
     1
  5
1F1
 10
139.20128
 20
-50.417557
 30
0.0
 11
151.20128
 21
-50.417557
 31
0.0
  0
LINE
  8
0
  6
CENTER
 62
     1
  5
1F2
 10
145.20128
 20
-56.417557
 30
0.0
 11
145.20128
 21
-44.417557
 31
0.0
  0
LINE
  8
0
  6
CENTER
 62
     1
  5
1F3
 10
159.39128
 20
-55.917557
 30
0.0
 11
168.41128
 21
-55.917557
 31
0.0
  0
LINE
  8
0
  6
CENTER
 62
     1
  5
1F4
 10
163.90128
 20
-60.427557
 30
0.0
 11
163.90128
 21
-51.407557
 31
0.0
  0
LINE
  8
0
  6
CENTER
 62
     1
  5
1F5
 10
160.60128
 20
-61.617557
 30
0.0
 11
171.80128
 21
-61.617557
 31
0.0
  0
LINE
  8
0
  6
CENTER
 62
     1
  5
1F6
 10
166.20128
 20
-67.217557
 30
0.0
 11
166.20128
 21
-56.017557
 31
0.0
  0
LINE
  8
0
  6
CENTER
 62
     1
  5
1F7
 10
160.60128
 20
-39.217557
 30
0.0
 11
171.80128
 21
-39.217557
 31
0.0
  0
LINE
  8
0
  6
CENTER
 62
     1
  5
1F8
 10
166.20128
 20
-44.817557
 30
0.0
 11
166.20128
 21
-33.617557
 31
0.0
  0
LINE
  8
0
  6
CENTER
 62
     1
  5
1F9
 10
104.20128
 20
-17.042557
 30
0.0
 11
104.20128
 21
-70.417557
 31
0.0
  0
LINE
  8
0
  6
CENTER
 62
     1
  5
1FA
 10
186.20128
 20
-16.417557
 30
0.0
 11
186.20128
 21
-62.417557
 31
0.0
  0
LINE
  8
0
  6
CENTER
 62
     1
  5
1FB
 10
189.20128
 20
-29.417557
 30
0.0
 11
189.20128
 21
-56.417557
 31
0.0
  0
ENDSEC
  0
EOF
