  0
SECTION
  2
HEADER
  9
$ACADVER
  1
AC1009
  9
$DWGCODEPAGE
  3
ansi_1252
  9
$INSBASE
 10
0.0
 20
0.0
 30
0.0
  9
$EXTMIN
 10
-17.406853
 20
-124.204151
 30
0.0
  9
$EXTMAX
 10
576.432747
 20
427.363285
 30
5.0
  9
$LIMMIN
 10
-17.406853
 20
-124.204151
  9
$LIMMAX
 10
576.432747
 20
427.363285
  9
$ORTHOMODE
 70
     0
  9
$REGENMODE
 70
     1
  9
$FILLMODE
 70
     1
  9
$QTEXTMODE
 70
     0
  9
$MIRRTEXT
 70
     1
  9
$DRAGMODE
 70
     2
  9
$LTSCALE
 40
10.0
  9
$OSMODE
 70
     0
  9
$ATTMODE
 70
     1
  9
$TEXTSIZE
 40
0.2
  9
$TRACEWID
 40
0.05
  9
$TEXTSTYLE
  7
STANDARD
  9
$CLAYER
  8
0
  9
$CELTYPE
  6
CONTINUOUS
  9
$CECOLOR
 62
   256
  9
$DIMSCALE
 40
1.0
  9
$DIMASZ
 40
1.25
  9
$DIMEXO
 40
1.0
  9
$DIMDLI
 40
0.38
  9
$DIMRND
 40
0.0
  9
$DIMDLE
 40
0.0
  9
$DIMEXE
 40
0.75
  9
$DIMTP
 40
0.0
  9
$DIMTM
 40
0.0
  9
$DIMTXT
 40
2.5
  9
$DIMCEN
 40
0.09
  9
$DIMTSZ
 40
0.0
  9
$DIMTOL
 70
     0
  9
$DIMLIM
 70
     0
  9
$DIMTIH
 70
     0
  9
$DIMTOH
 70
     0
  9
$DIMSE1
 70
     0
  9
$DIMSE2
 70
     0
  9
$DIMTAD
 70
     1
  9
$DIMZIN
 70
     0
  9
$DIMBLK
  1

  9
$DIMASO
 70
     1
  9
$DIMSHO
 70
     1
  9
$DIMPOST
  1

  9
$DIMAPOST
  1

  9
$DIMALT
 70
     0
  9
$DIMALTD
 70
     2
  9
$DIMALTF
 40
25.4
  9
$DIMLFAC
 40
1.0
  9
$DIMTOFL
 70
     0
  9
$DIMTVP
 40
0.0
  9
$DIMTIX
 70
     0
  9
$DIMSOXD
 70
     0
  9
$DIMSAH
 70
     0
  9
$DIMBLK1
  1

  9
$DIMBLK2
  1

  9
$DIMSTYLE
  2
STANDARD
  9
$DIMCLRD
 70
     7
  9
$DIMCLRE
 70
     7
  9
$DIMCLRT
 70
     7
  9
$DIMTFAC
 40
0.8
  9
$DIMGAP
 40
1.25
  9
$LUNITS
 70
     2
  9
$LUPREC
 70
     4
  9
$AXISMODE
 70
     0
  9
$AXISUNIT
 10
0.0
 20
0.0
  9
$SKETCHINC
 40
0.1
  9
$FILLETRAD
 40
0.0
  9
$AUNITS
 70
     0
  9
$AUPREC
 70
     0
  9
$MENU
  1
acad
  9
$ELEVATION
 40
0.0
  9
$PELEVATION
 40
0.0
  9
$THICKNESS
 40
0.0
  9
$LIMCHECK
 70
     0
  9
$BLIPMODE
 70
     1
  9
$CHAMFERA
 40
0.0
  9
$CHAMFERB
 40
0.0
  9
$SKPOLY
 70
     0
  9
$TDCREATE
 40
2454285.614456018
  9
$TDUPDATE
 40
2454285.529965278
  9
$TDINDWG
 40
0.0000000000
  9
$TDUSRTIMER
 40
0.0000000000
  9
$USRTIMER
 70
     1
  9
$ANGBASE
 50
0.0
  9
$ANGDIR
 70
     0
  9
$PDMODE
 70
     0
  9
$PDSIZE
 40
0.0
  9
$PLINEWID
 40
0.0
  9
$COORDS
 70
     0
  9
$SPLFRAME
 70
     0
  9
$SPLINETYPE
 70
     6
  9
$SPLINESEGS
 70
     8
  9
$ATTDIA
 70
     0
  9
$ATTREQ
 70
     1
  9
$HANDLING
 70
     1
  9
$HANDSEED
  5
200
  9
$SURFTAB1
 70
     6
  9
$SURFTAB2
 70
     6
  9
$SURFTYPE
 70
     6
  9
$SURFU
 70
     6
  9
$SURFV
 70
     6
  9
$UCSNAME
  2

  9
$UCSORG
 10
0.0
 20
0.0
 30
0.0
  9
$UCSXDIR
 10
1.0
 20
0.0
 30
0.0
  9
$UCSYDIR
 10
0.0
 20
1.0
 30
0.0
  9
$PUCSNAME
  2

  9
$PUCSORG
 10
0.0
 20
0.0
 30
0.0
  9
$PUCSXDIR
 10
1.0
 20
0.0
 30
0.0
  9
$PUCSYDIR
 10
0.0
 20
1.0
 30
0.0
  9
$USERI1
 70
     0
  9
$USERI2
 70
     0
  9
$USERI3
 70
     0
  9
$USERI4
 70
     0
  9
$USERI5
 70
     0
  9
$USERR1
 40
0.0
  9
$USERR2
 40
0.0
  9
$USERR3
 40
0.0
  9
$USERR4
 40
0.0
  9
$USERR5
 40
0.0
  9
$WORLDVIEW
 70
     1
  9
$SHADEDGE
 70
     3
  9
$SHADEDIF
 70
    70
  9
$TILEMODE
 70
     1
  9
$MAXACTVP
 70
    16
  9
$PINSBASE
 10
0.0
 20
0.0
 30
0.0
  9
$PLIMCHECK
 70
     0
  9
$PEXTMIN
 10
1.000000E+20
 20
1.000000E+20
 30
1.000000E+20
  9
$PEXTMAX
 10
-1.000000E+20
 20
-1.000000E+20
 30
-1.000000E+20
  9
$PLIMMIN
 10
0.0
 20
0.0
  9
$PLIMMAX
 10
12.0
 20
9.0
  9
$UNITMODE
 70
     0
  9
$VISRETAIN
 70
     0
  9
$PLINEGEN
 70
     1
  9
$PSLTSCALE
 70
     0
  9
$TREEDEPTH
 70
  3020
  0
ENDSEC
  0
SECTION
  2
TABLES
  0
TABLE
  2
VPORT
 70
     1
  0
VPORT
  2
*ACTIVE
 70
     0
 10
0.0
 20
0.0
 11
1.0
 21
1.0
 12
6.591288
 22
4.579184
 13
0.0
 23
0.0
 14
1.0
 24
1.0
 15
0.0
 25
0.0
 16
0.0
 26
0.0
 36
1.0
 17
0.0
 27
0.0
 37
0.0
 40
9.158369
 41
0.688564
 42
50.0
 43
0.0
 44
0.0
 50
0.0
 51
0.0
 71
     0
 72
   100
 73
     1
 74
     1
 75
     0
 76
     0
 77
     0
 78
     0
  0
ENDTAB
  0
TABLE
  2
LTYPE
 70
     2
  0
LTYPE
  2
CONTINUOUS
 70
    64
  3
Solid line
 72
    65
 73
     0
 40
0.0
  0
LTYPE
  2
CENTER
 70
    64
  3
____ _ ____ _ ____ _ ____ _ ____ _ ____ _ ____
 72
    65
 73
     4
 40
2.0
 49
1.25
 49
-0.25
 49
0.25
 49
-0.25
  0
ENDTAB
  0
TABLE
  2
LAYER
 70
     1
  0
LAYER
  2
0
 70
     0
 62
     7
  6
CONTINUOUS
  0
ENDTAB
  0
TABLE
  2
STYLE
 70
     1
  0
STYLE
  2
STANDARD
 70
     0
 40
0.0
 41
1.0
 50
0.0
 71
     0
 42
0.0
  3
IsonormD
  4

  0
ENDTAB
  0
TABLE
  2
VIEW
 70
     0
  0
ENDTAB
  0
TABLE
  2
UCS
 70
     0
  0
ENDTAB
  0
TABLE
  2
APPID
 70
     2
  0
APPID
  2
ACAD
 70
     0
  0
APPID
  2
TopSolid_Draft
 70
     0
  0
ENDTAB
  0
TABLE
  2
DIMSTYLE
 70
     1
  0
DIMSTYLE
  2
STANDARD
 70
     0
  3

  4

  5

  6

  7

 40
1.0
 41
1.25
 42
1.0
 43
0.38
 44
0.75
 45
0.0
 46
0.0
 47
0.0
 48
0.0
 71
     0
 72
     0
 73
     0
 74
     0
 75
     0
 76
     0
 77
     1
 78
     0
140
2.5
141
0.09
142
0.0
143
25.4
144
1.0
145
0.0
146
0.8
147
1.25
170
     0
171
     2
172
     0
173
     0
174
     0
175
     0
176
     7
177
     7
178
     7
  0
ENDTAB
  0
ENDSEC
  0
SECTION
  2
BLOCKS
  0
BLOCK
  8
0
  5
26
  2
AID3
 70
     0
 10
0.0
 20
0.0
 30
0.0
  3
#draft view
  0
CIRCLE
  8
0
  6
CONTINUOUS
 62
     7
  5
27
 10
214.04068
 20
278.387575
 30
0.0
 40
9.0
210
0.0
220
0.0
230
1.0
  0
LINE
  8
0
  6
CONTINUOUS
 62
     7
  5
28
 10
224.04068
 20
288.387575
 30
0.0
 11
224.04068
 21
268.387575
 31
0.0
  0
LINE
  8
0
  6
CONTINUOUS
 62
     7
  5
29
 10
224.04068
 20
268.387575
 30
0.0
 11
96.04068
 21
268.387575
 31
0.0
  0
LINE
  8
0
  6
CONTINUOUS
 62
     7
  5
2A
 10
224.04068
 20
288.387575
 30
0.0
 11
96.04068
 21
288.387575
 31
0.0
  0
LINE
  8
0
  6
CONTINUOUS
 62
     7
  5
2B
 10
96.04068
 20
288.387575
 30
0.0
 11
96.04068
 21
268.387575
 31
0.0
  0
CIRCLE
  8
0
  6
CONTINUOUS
 62
     7
  5
2C
 10
106.04068
 20
278.387575
 30
0.0
 40
9.0
210
0.0
220
0.0
230
1.0
  0
LINE
  8
0
  6
CONTINUOUS
 62
     7
  5
2D
 10
96.04068
 20
6.387575
 30
0.0
 11
224.04068
 21
6.387575
 31
0.0
  0
LINE
  8
0
  6
CONTINUOUS
 62
     7
  5
2E
 10
96.04068
 20
6.387575
 30
0.0
 11
96.04068
 21
26.387575
 31
0.0
  0
LINE
  8
0
  6
CONTINUOUS
 62
     7
  5
2F
 10
224.04068
 20
6.387575
 30
0.0
 11
224.04068
 21
26.387575
 31
0.0
  0
CIRCLE
  8
0
  6
CONTINUOUS
 62
     7
  5
30
 10
214.04068
 20
16.387575
 30
0.0
 40
9.0
210
0.0
220
0.0
230
1.0
  0
LINE
  8
0
  6
CONTINUOUS
 62
     7
  5
31
 10
96.04068
 20
26.387575
 30
0.0
 11
224.04068
 21
26.387575
 31
0.0
  0
CIRCLE
  8
0
  6
CONTINUOUS
 62
     7
  5
32
 10
106.04068
 20
16.387575
 30
0.0
 40
9.0
210
0.0
220
0.0
230
1.0
  0
LINE
  8
0
  6
CONTINUOUS
 62
     7
  5
33
 10
211.731279
 20
12.387575
 30
0.0
 11
209.421878
 21
16.387575
 31
0.0
  0
LINE
  8
0
  6
CONTINUOUS
 62
     7
  5
34
 10
216.350081
 20
12.387575
 30
0.0
 11
211.731279
 21
12.387575
 31
0.0
  0
LINE
  8
0
  6
CONTINUOUS
 62
     7
  5
35
 10
218.659482
 20
16.387575
 30
0.0
 11
216.350081
 21
12.387575
 31
0.0
  0
LINE
  8
0
  6
CONTINUOUS
 62
     7
  5
36
 10
216.350081
 20
20.387575
 30
0.0
 11
218.659482
 21
16.387575
 31
0.0
  0
LINE
  8
0
  6
CONTINUOUS
 62
     7
  5
37
 10
211.731279
 20
20.387575
 30
0.0
 11
216.350081
 21
20.387575
 31
0.0
  0
LINE
  8
0
  6
CONTINUOUS
 62
     7
  5
38
 10
209.421878
 20
16.387575
 30
0.0
 11
211.731279
 21
20.387575
 31
0.0
  0
CIRCLE
  8
0
  6
CONTINUOUS
 62
     7
  5
39
 10
214.04068
 20
16.387575
 30
0.0
 40
8.0
210
0.0
220
0.0
230
1.0
  0
LINE
  8
0
  6
CONTINUOUS
 62
     7
  5
3A
 10
211.731279
 20
274.387575
 30
0.0
 11
209.421878
 21
278.387575
 31
0.0
  0
CIRCLE
  8
0
  6
CONTINUOUS
 62
     7
  5
3B
 10
214.04068
 20
278.387575
 30
0.0
 40
8.0
210
0.0
220
0.0
230
1.0
  0
LINE
  8
0
  6
CONTINUOUS
 62
     7
  5
3C
 10
209.421878
 20
278.387575
 30
0.0
 11
211.731279
 21
282.387575
 31
0.0
  0
LINE
  8
0
  6
CONTINUOUS
 62
     7
  5
3D
 10
216.350081
 20
282.387575
 30
0.0
 11
218.659482
 21
278.387575
 31
0.0
  0
LINE
  8
0
  6
CONTINUOUS
 62
     7
  5
3E
 10
218.659482
 20
278.387575
 30
0.0
 11
216.350081
 21
274.387575
 31
0.0
  0
LINE
  8
0
  6
CONTINUOUS
 62
     7
  5
3F
 10
211.731279
 20
282.387575
 30
0.0
 11
216.350081
 21
282.387575
 31
0.0
  0
LINE
  8
0
  6
CONTINUOUS
 62
     7
  5
40
 10
216.350081
 20
274.387575
 30
0.0
 11
211.731279
 21
274.387575
 31
0.0
  0
LINE
  8
0
  6
CONTINUOUS
 62
     7
  5
41
 10
103.731279
 20
12.387575
 30
0.0
 11
101.421878
 21
16.387575
 31
0.0
  0
LINE
  8
0
  6
CONTINUOUS
 62
     7
  5
42
 10
101.421878
 20
16.387575
 30
0.0
 11
103.731279
 21
20.387575
 31
0.0
  0
LINE
  8
0
  6
CONTINUOUS
 62
     7
  5
43
 10
108.350081
 20
20.387575
 30
0.0
 11
110.659482
 21
16.387575
 31
0.0
  0
LINE
  8
0
  6
CONTINUOUS
 62
     7
  5
44
 10
108.350081
 20
12.387575
 30
0.0
 11
103.731279
 21
12.387575
 31
0.0
  0
LINE
  8
0
  6
CONTINUOUS
 62
     7
  5
45
 10
110.659482
 20
16.387575
 30
0.0
 11
108.350081
 21
12.387575
 31
0.0
  0
LINE
  8
0
  6
CONTINUOUS
 62
     7
  5
46
 10
103.731279
 20
20.387575
 30
0.0
 11
108.350081
 21
20.387575
 31
0.0
  0
CIRCLE
  8
0
  6
CONTINUOUS
 62
     7
  5
47
 10
106.04068
 20
16.387575
 30
0.0
 40
8.0
210
0.0
220
0.0
230
1.0
  0
LINE
  8
0
  6
CONTINUOUS
 62
     7
  5
48
 10
101.421878
 20
278.387575
 30
0.0
 11
103.731279
 21
282.387575
 31
0.0
  0
LINE
  8
0
  6
CONTINUOUS
 62
     7
  5
49
 10
103.731279
 20
274.387575
 30
0.0
 11
101.421878
 21
278.387575
 31
0.0
  0
LINE
  8
0
  6
CONTINUOUS
 62
     7
  5
4A
 10
110.659482
 20
278.387575
 30
0.0
 11
108.350081
 21
274.387575
 31
0.0
  0
CIRCLE
  8
0
  6
CONTINUOUS
 62
     7
  5
4B
 10
106.04068
 20
278.387575
 30
0.0
 40
8.0
210
0.0
220
0.0
230
1.0
  0
LINE
  8
0
  6
CONTINUOUS
 62
     7
  5
4C
 10
103.731279
 20
282.387575
 30
0.0
 11
108.350081
 21
282.387575
 31
0.0
  0
LINE
  8
0
  6
CONTINUOUS
 62
     7
  5
4D
 10
108.350081
 20
282.387575
 30
0.0
 11
110.659482
 21
278.387575
 31
0.0
  0
LINE
  8
0
  6
CONTINUOUS
 62
     7
  5
4E
 10
108.350081
 20
274.387575
 30
0.0
 11
103.731279
 21
274.387575
 31
0.0
  0
LINE
  8
0
  6
CONTINUOUS
 62
     9
  5
4F
 10
146.29068
 20
296.387575
 30
0.0
 11
146.29068
 21
288.387575
 31
0.0
  0
LINE
  8
0
  6
CONTINUOUS
 62
     7
  5
50
 10
139.29068
 20
288.387575
 30
0.0
 11
139.29068
 21
296.387575
 31
0.0
  0
LINE
  8
0
  6
CONTINUOUS
 62
     7
  5
51
 10
139.29068
 20
296.387575
 30
0.0
 11
146.29068
 21
296.387575
 31
0.0
  0
LINE
  8
0
  6
CONTINUOUS
 62
     7
  5
52
 10
180.79068
 20
296.387575
 30
0.0
 11
180.79068
 21
288.387575
 31
0.0
  0
LINE
  8
0
  6
CONTINUOUS
 62
     9
  5
53
 10
173.79068
 20
288.387575
 30
0.0
 11
173.79068
 21
296.387575
 31
0.0
  0
LINE
  8
0
  6
CONTINUOUS
 62
     7
  5
54
 10
173.79068
 20
296.387575
 30
0.0
 11
180.79068
 21
296.387575
 31
0.0
  0
LINE
  8
0
  6
CONTINUOUS
 62
     7
  5
55
 10
173.79068
 20
296.387575
 30
0.0
 11
146.29068
 21
296.387575
 31
0.0
  0
LINE
  8
0
  6
CONTINUOUS
 62
     7
  5
56
 10
171.04068
 20
46.387575
 30
0.0
 11
160.04068
 21
46.387575
 31
0.0
  0
LINE
  8
0
  6
CONTINUOUS
 62
     7
  5
57
 10
160.04068
 20
46.387575
 30
0.0
 11
149.04068
 21
46.387575
 31
0.0
  0
LINE
  8
0
  6
CONTINUOUS
 62
     7
  5
58
 10
156.04068
 20
311.387575
 30
0.0
 11
164.04068
 21
311.387575
 31
0.0
  0
CIRCLE
  8
0
  6
CONTINUOUS
 62
     7
  5
59
 10
102.54068
 20
139.887575
 30
0.0
 40
3.3235
210
0.0
220
0.0
230
1.0
  0
CIRCLE
  8
0
  6
CONTINUOUS
 62
     7
  5
5A
 10
102.54068
 20
139.887575
 30
0.0
 40
4.0
210
0.0
220
0.0
230
1.0
  0
CIRCLE
  8
0
  6
CONTINUOUS
 62
     7
  5
5B
 10
217.54068
 20
139.887575
 30
0.0
 40
3.3235
210
0.0
220
0.0
230
1.0
  0
CIRCLE
  8
0
  6
CONTINUOUS
 62
     7
  5
5C
 10
217.54068
 20
139.887575
 30
0.0
 40
4.0
210
0.0
220
0.0
230
1.0
  0
CIRCLE
  8
0
  6
CONTINUOUS
 62
     7
  5
5D
 10
102.54068
 20
254.887575
 30
0.0
 40
3.3235
210
0.0
220
0.0
230
1.0
  0
CIRCLE
  8
0
  6
CONTINUOUS
 62
     7
  5
5E
 10
102.54068
 20
254.887575
 30
0.0
 40
4.0
210
0.0
220
0.0
230
1.0
  0
CIRCLE
  8
0
  6
CONTINUOUS
 62
     7
  5
5F
 10
217.54068
 20
254.887575
 30
0.0
 40
3.3235
210
0.0
220
0.0
230
1.0
  0
CIRCLE
  8
0
  6
CONTINUOUS
 62
     7
  5
60
 10
217.54068
 20
254.887575
 30
0.0
 40
4.0
210
0.0
220
0.0
230
1.0
  0
LINE
  8
0
  6
CONTINUOUS
 62
     7
  5
61
 10
225.04068
 20
262.387575
 30
0.0
 11
225.04068
 21
132.387575
 31
0.0
  0
LINE
  8
0
  6
CONTINUOUS
 62
     7
  5
62
 10
95.04068
 20
262.387575
 30
0.0
 11
225.04068
 21
262.387575
 31
0.0
  0
LINE
  8
0
  6
CONTINUOUS
 62
     7
  5
63
 10
225.04068
 20
132.387575
 30
0.0
 11
95.04068
 21
132.387575
 31
0.0
  0
LINE
  8
0
  6
CONTINUOUS
 62
     7
  5
64
 10
95.04068
 20
132.387575
 30
0.0
 11
95.04068
 21
262.387575
 31
0.0
  0
LINE
  8
0
  6
CONTINUOUS
 62
     9
  5
65
 10
179.54068
 20
264.887575
 30
0.0
 11
179.54068
 21
262.387575
 31
0.0
  0
LINE
  8
0
  6
CONTINUOUS
 62
     7
  5
66
 10
179.54068
 20
264.887575
 30
0.0
 11
184.84068
 21
264.887575
 31
0.0
  0
LINE
  8
0
  6
CONTINUOUS
 62
     9
  5
67
 10
138.783102
 20
264.887575
 30
0.0
 11
138.783102
 21
262.387575
 31
0.0
  0
LINE
  8
0
  6
CONTINUOUS
 62
     9
  5
68
 10
160.04068
 20
264.887575
 30
0.0
 11
160.04068
 21
262.387575
 31
0.0
  0
LINE
  8
0
  6
CONTINUOUS
 62
     7
  5
69
 10
138.783102
 20
264.887575
 30
0.0
 11
160.04068
 21
264.887575
 31
0.0
  0
LINE
  8
0
  6
CONTINUOUS
 62
     7
  5
6A
 10
160.04068
 20
264.887575
 30
0.0
 11
179.54068
 21
264.887575
 31
0.0
  0
LINE
  8
0
  6
CONTINUOUS
 62
     9
  5
6B
 10
184.79068
 20
265.687575
 30
0.0
 11
174.29068
 21
265.687575
 31
0.0
  0
LINE
  8
0
  6
CONTINUOUS
 62
     7
  5
6C
 10
176.59068
 20
267.987575
 30
0.0
 11
182.49068
 21
267.987575
 31
0.0
  0
LINE
  8
0
  6
CONTINUOUS
 62
     9
  5
6D
 10
135.3247
 20
264.887575
 30
0.0
 11
135.3247
 21
262.387575
 31
0.0
  0
LINE
  8
0
  6
CONTINUOUS
 62
     7
  5
6E
 10
135.3247
 20
264.887575
 30
0.0
 11
138.783102
 21
264.887575
 31
0.0
  0
CIRCLE
  8
0
  6
CONTINUOUS
 62
     7
  5
6F
 10
217.54068
 20
254.887575
 30
0.0
 40
3.25
210
0.0
220
0.0
230
1.0
  0
CIRCLE
  8
0
  6
CONTINUOUS
 62
     7
  5
70
 10
102.54068
 20
139.887575
 30
0.0
 40
3.25
210
0.0
220
0.0
230
1.0
  0
CIRCLE
  8
0
  6
CONTINUOUS
 62
     7
  5
71
 10
217.54068
 20
139.887575
 30
0.0
 40
3.25
210
0.0
220
0.0
230
1.0
  0
CIRCLE
  8
0
  6
CONTINUOUS
 62
     7
  5
72
 10
102.54068
 20
254.887575
 30
0.0
 40
3.25
210
0.0
220
0.0
230
1.0
  0
LINE
  8
0
  6
CONTINUOUS
 62
     9
  5
73
 10
145.79068
 20
265.687575
 30
0.0
 11
135.29068
 21
265.687575
 31
0.0
  0
LINE
  8
0
  6
CONTINUOUS
 62
     7
  5
74
 10
137.59068
 20
267.987575
 30
0.0
 11
143.49068
 21
267.987575
 31
0.0
  0
LINE
  8
0
  6
CONTINUOUS
 62
     7
  5
75
 10
135.24068
 20
264.887575
 30
0.0
 11
135.3247
 21
264.887575
 31
0.0
  0
LINE
  8
0
  6
CONTINUOUS
 62
     7
  5
76
 10
149.04068
 20
46.387575
 30
0.0
 11
149.04068
 21
26.387575
 31
0.0
  0
LINE
  8
0
  6
CONTINUOUS
 62
     7
  5
77
 10
171.04068
 20
26.387575
 30
0.0
 11
171.04068
 21
46.387575
 31
0.0
  0
LINE
  8
0
  6
CONTINUOUS
 62
     7
  5
78
 10
134.04068
 20
26.387575
 30
0.0
 11
134.04068
 21
132.387575
 31
0.0
  0
LINE
  8
0
  6
CONTINUOUS
 62
     7
  5
79
 10
134.04068
 20
262.387575
 30
0.0
 11
134.04068
 21
268.387575
 31
0.0
  0
LINE
  8
0
  6
CONTINUOUS
 62
     7
  5
7A
 10
114.04068
 20
268.387575
 30
0.0
 11
114.04068
 21
262.387575
 31
0.0
  0
LINE
  8
0
  6
CONTINUOUS
 62
     7
  5
7B
 10
114.04068
 20
132.387575
 30
0.0
 11
114.04068
 21
26.387575
 31
0.0
  0
LINE
  8
0
  6
CONTINUOUS
 62
     7
  5
7C
 10
206.04068
 20
26.387575
 30
0.0
 11
206.04068
 21
132.387575
 31
0.0
  0
LINE
  8
0
  6
CONTINUOUS
 62
     7
  5
7D
 10
206.04068
 20
262.387575
 30
0.0
 11
206.04068
 21
268.387575
 31
0.0
  0
LINE
  8
0
  6
CONTINUOUS
 62
     7
  5
7E
 10
186.04068
 20
268.387575
 30
0.0
 11
186.04068
 21
262.387575
 31
0.0
  0
LINE
  8
0
  6
CONTINUOUS
 62
     7
  5
7F
 10
186.04068
 20
132.387575
 30
0.0
 11
186.04068
 21
26.387575
 31
0.0
  0
LINE
  8
0
  6
CONTINUOUS
 62
     7
  5
80
 10
168.04068
 20
46.387575
 30
0.0
 11
168.04068
 21
132.387575
 31
0.0
  0
LINE
  8
0
  6
CONTINUOUS
 62
     7
  5
81
 10
168.04068
 20
264.887575
 30
0.0
 11
168.04068
 21
268.387575
 31
0.0
  0
LINE
  8
0
  6
CONTINUOUS
 62
     7
  5
82
 10
152.04068
 20
268.387575
 30
0.0
 11
152.04068
 21
264.887575
 31
0.0
  0
LINE
  8
0
  6
CONTINUOUS
 62
     7
  5
83
 10
152.04068
 20
132.387575
 30
0.0
 11
152.04068
 21
46.387575
 31
0.0
  0
LINE
  8
0
  6
CONTINUOUS
 62
     7
  5
84
 10
164.04068
 20
296.387575
 30
0.0
 11
164.04068
 21
311.387575
 31
0.0
  0
LINE
  8
0
  6
CONTINUOUS
 62
     7
  5
85
 10
156.04068
 20
311.387575
 30
0.0
 11
156.04068
 21
296.387575
 31
0.0
  0
LINE
  8
0
  6
CONTINUOUS
 62
     7
  5
86
 10
184.84068
 20
262.387575
 30
0.0
 11
184.84068
 21
264.887575
 31
0.0
  0
ARC
  8
0
  6
CONTINUOUS
 62
     7
  5
87
 10
176.59068
 20
265.687575
 30
0.0
 40
2.3
 50
90.0
 51
180.0
210
0.0
220
0.0
230
1.0
  0
ARC
  8
0
  6
CONTINUOUS
 62
     7
  5
88
 10
182.49068
 20
265.687575
 30
0.0
 40
2.3
 50
0.0
 51
90.0
210
0.0
220
0.0
230
1.0
  0
LINE
  8
0
  6
CONTINUOUS
 62
     7
  5
89
 10
174.29068
 20
265.687575
 30
0.0
 11
174.29068
 21
264.887575
 31
0.0
  0
LINE
  8
0
  6
CONTINUOUS
 62
     7
  5
8A
 10
184.79068
 20
264.887575
 30
0.0
 11
184.79068
 21
265.687575
 31
0.0
  0
LINE
  8
0
  6
CONTINUOUS
 62
     7
  5
8B
 10
135.29068
 20
265.687575
 30
0.0
 11
135.29068
 21
264.887575
 31
0.0
  0
LINE
  8
0
  6
CONTINUOUS
 62
     7
  5
8C
 10
145.79068
 20
264.887575
 30
0.0
 11
145.79068
 21
265.687575
 31
0.0
  0
ARC
  8
0
  6
CONTINUOUS
 62
     7
  5
8D
 10
137.59068
 20
265.687575
 30
0.0
 40
2.3
 50
90.0
 51
180.0
210
0.0
220
0.0
230
1.0
  0
ARC
  8
0
  6
CONTINUOUS
 62
     7
  5
8E
 10
143.49068
 20
265.687575
 30
0.0
 40
2.3
 50
0.0
 51
90.0
210
0.0
220
0.0
230
1.0
  0
LINE
  8
0
  6
CONTINUOUS
 62
     7
  5
8F
 10
177.04068
 20
268.387575
 30
0.0
 11
177.04068
 21
267.987575
 31
0.0
  0
LINE
  8
0
  6
CONTINUOUS
 62
     7
  5
90
 10
185.04068
 20
262.387575
 30
0.0
 11
185.04068
 21
268.387575
 31
0.0
  0
LINE
  8
0
  6
CONTINUOUS
 62
     7
  5
91
 10
135.24068
 20
264.887575
 30
0.0
 11
135.24068
 21
262.387575
 31
0.0
  0
ENDBLK
  8
0
  5
92
  0
BLOCK
  8
0
  5
95
  2
AID221
 70
     0
 10
0.0
 20
0.0
 30
0.0
  3
#auxiliary draft view
  0
LINE
  8
0
  6
CONTINUOUS
 62
     7
  5
96
 10
-13.406853
 20
6.387575
 30
0.0
 11
33.593147
 21
6.387575
 31
0.0
  0
LINE
  8
0
  6
CONTINUOUS
 62
     7
  5
97
 10
-13.406853
 20
6.387575
 30
0.0
 11
-13.406853
 21
26.387575
 31
0.0
  0
LINE
  8
0
  6
CONTINUOUS
 62
     7
  5
98
 10
-13.406853
 20
26.387575
 30
0.0
 11
33.593147
 21
26.387575
 31
0.0
  0
LINE
  8
0
  6
CONTINUOUS
 62
     7
  5
99
 10
33.593147
 20
6.387575
 30
0.0
 11
33.593147
 21
26.387575
 31
0.0
  0
LINE
  8
0
  6
CONTINUOUS
 62
     7
  5
9A
 10
33.593147
 20
268.387575
 30
0.0
 11
-13.406853
 21
268.387575
 31
0.0
  0
LINE
  8
0
  6
CONTINUOUS
 62
     7
  5
9B
 10
33.593147
 20
288.387575
 30
0.0
 11
33.593147
 21
268.387575
 31
0.0
  0
LINE
  8
0
  6
CONTINUOUS
 62
     7
  5
9C
 10
33.593147
 20
288.387575
 30
0.0
 11
-13.406853
 21
288.387575
 31
0.0
  0
LINE
  8
0
  6
CONTINUOUS
 62
     7
  5
9D
 10
-13.406853
 20
288.387575
 30
0.0
 11
-13.406853
 21
268.387575
 31
0.0
  0
LINE
  8
0
  6
CONTINUOUS
 62
     7
  5
9E
 10
46.843147
 20
11.387575
 30
0.0
 11
46.843147
 21
21.387575
 31
0.0
  0
LINE
  8
0
  6
CONTINUOUS
 62
     7
  5
9F
 10
47.593147
 20
20.637575
 30
0.0
 11
47.593147
 21
12.137575
 31
0.0
  0
LINE
  8
0
  6
CONTINUOUS
 62
     7
  5
A0
 10
46.843147
 20
273.387575
 30
0.0
 11
46.843147
 21
283.387575
 31
0.0
  0
LINE
  8
0
  6
CONTINUOUS
 62
     7
  5
A1
 10
47.593147
 20
282.637575
 30
0.0
 11
47.593147
 21
274.137575
 31
0.0
  0
LINE
  8
0
  6
CONTINUOUS
 62
     9
  5
A2
 10
22.343147
 20
288.387575
 30
0.0
 11
22.343147
 21
296.387575
 31
0.0
  0
LINE
  8
0
  6
CONTINUOUS
 62
     9
  5
A3
 10
-5.156853
 20
296.387575
 30
0.0
 11
-5.156853
 21
288.387575
 31
0.0
  0
LINE
  8
0
  6
CONTINUOUS
 62
     7
  5
A4
 10
22.343147
 20
296.387575
 30
0.0
 11
-5.156853
 21
296.387575
 31
0.0
  0
LINE
  8
0
  6
CONTINUOUS
 62
     7
  5
A5
 10
29.343147
 20
296.387575
 30
0.0
 11
29.343147
 21
288.387575
 31
0.0
  0
LINE
  8
0
  6
CONTINUOUS
 62
     7
  5
A6
 10
22.343147
 20
296.387575
 30
0.0
 11
29.343147
 21
296.387575
 31
0.0
  0
LINE
  8
0
  6
CONTINUOUS
 62
     7
  5
A7
 10
-12.156853
 20
288.387575
 30
0.0
 11
-12.156853
 21
296.387575
 31
0.0
  0
LINE
  8
0
  6
CONTINUOUS
 62
     7
  5
A8
 10
-12.156853
 20
296.387575
 30
0.0
 11
-5.156853
 21
296.387575
 31
0.0
  0
LINE
  8
0
  6
CONTINUOUS
 62
     7
  5
A9
 10
19.593147
 20
46.387575
 30
0.0
 11
18.593147
 21
46.387575
 31
0.0
  0
LINE
  8
0
  6
CONTINUOUS
 62
     7
  5
AA
 10
-1.406853
 20
46.387575
 30
0.0
 11
-2.406853
 21
46.387575
 31
0.0
  0
LINE
  8
0
  6
CONTINUOUS
 62
     7
  5
AB
 10
4.593147
 20
311.387575
 30
0.0
 11
12.593147
 21
311.387575
 31
0.0
  0
LINE
  8
0
  6
CONTINUOUS
 62
     7
  5
AC
 10
-14.406853
 20
262.387575
 30
0.0
 11
-14.406853
 21
132.387575
 31
0.0
  0
LINE
  8
0
  6
CONTINUOUS
 62
     7
  5
AD
 10
-14.406853
 20
262.387575
 30
0.0
 11
31.593147
 21
262.387575
 31
0.0
  0
LINE
  8
0
  6
CONTINUOUS
 62
     7
  5
AE
 10
-14.406853
 20
132.387575
 30
0.0
 11
31.593147
 21
132.387575
 31
0.0
  0
LINE
  8
0
  6
CONTINUOUS
 62
     7
  5
AF
 10
31.593147
 20
262.387575
 30
0.0
 11
31.593147
 21
132.387575
 31
0.0
  0
LINE
  8
0
  6
CONTINUOUS
 62
     7
  5
B0
 10
-13.006853
 20
264.887575
 30
0.0
 11
-13.006853
 21
262.387575
 31
0.0
  0
LINE
  8
0
  6
CONTINUOUS
 62
     7
  5
B1
 10
-13.006853
 20
264.887575
 30
0.0
 11
-6.766877
 21
264.887575
 31
0.0
  0
LINE
  8
0
  6
CONTINUOUS
 62
     9
  5
B2
 10
-6.766877
 20
264.887575
 30
0.0
 11
-6.766877
 21
262.387575
 31
0.0
  0
LINE
  8
0
  6
CONTINUOUS
 62
     7
  5
B3
 10
-10.656853
 20
267.987575
 30
0.0
 11
-4.756853
 21
267.987575
 31
0.0
  0
LINE
  8
0
  6
CONTINUOUS
 62
     9
  5
B4
 10
-2.456853
 20
265.687575
 30
0.0
 11
-12.956853
 21
265.687575
 31
0.0
  0
LINE
  8
0
  6
CONTINUOUS
 62
     7
  5
B5
 10
-6.766877
 20
264.887575
 30
0.0
 11
-1.406853
 21
264.887575
 31
0.0
  0
LINE
  8
0
  6
CONTINUOUS
 62
     7
  5
B6
 10
30.193147
 20
264.887575
 30
0.0
 11
30.193147
 21
262.387575
 31
0.0
  0
LINE
  8
0
  6
CONTINUOUS
 62
     7
  5
B7
 10
18.593147
 20
264.887575
 30
0.0
 11
21.593147
 21
264.887575
 31
0.0
  0
LINE
  8
0
  6
CONTINUOUS
 62
     7
  5
B8
 10
29.593147
 20
264.887575
 30
0.0
 11
30.193147
 21
264.887575
 31
0.0
  0
LINE
  8
0
  6
CONTINUOUS
 62
     9
  5
B9
 10
30.143147
 20
265.687575
 30
0.0
 11
29.593147
 21
265.687575
 31
0.0
  0
LINE
  8
0
  6
CONTINUOUS
 62
     9
  5
BA
 10
21.593147
 20
265.687575
 30
0.0
 11
19.643147
 21
265.687575
 31
0.0
  0
LINE
  8
0
  6
CONTINUOUS
 62
     7
  5
BB
 10
33.593147
 20
11.387575
 30
0.0
 11
46.843147
 21
11.387575
 31
0.0
  0
LINE
  8
0
  6
CONTINUOUS
 62
     7
  5
BC
 10
46.843147
 20
21.387575
 30
0.0
 11
33.593147
 21
21.387575
 31
0.0
  0
LINE
  8
0
  6
CONTINUOUS
 62
     7
  5
BD
 10
46.843147
 20
11.387575
 30
0.0
 11
47.593147
 21
12.137575
 31
0.0
  0
LINE
  8
0
  6
CONTINUOUS
 62
     7
  5
BE
 10
47.593147
 20
20.637575
 30
0.0
 11
46.843147
 21
21.387575
 31
0.0
  0
LINE
  8
0
  6
CONTINUOUS
 62
     7
  5
BF
 10
33.593147
 20
273.387575
 30
0.0
 11
46.843147
 21
273.387575
 31
0.0
  0
LINE
  8
0
  6
CONTINUOUS
 62
     7
  5
C0
 10
46.843147
 20
283.387575
 30
0.0
 11
33.593147
 21
283.387575
 31
0.0
  0
LINE
  8
0
  6
CONTINUOUS
 62
     7
  5
C1
 10
46.843147
 20
273.387575
 30
0.0
 11
47.593147
 21
274.137575
 31
0.0
  0
LINE
  8
0
  6
CONTINUOUS
 62
     7
  5
C2
 10
47.593147
 20
282.637575
 30
0.0
 11
46.843147
 21
283.387575
 31
0.0
  0
LINE
  8
0
  6
CONTINUOUS
 62
     7
  5
C3
 10
18.593147
 20
26.387575
 30
0.0
 11
18.593147
 21
132.387575
 31
0.0
  0
LINE
  8
0
  6
CONTINUOUS
 62
     7
  5
C4
 10
18.593147
 20
262.387575
 30
0.0
 11
18.593147
 21
268.387575
 31
0.0
  0
LINE
  8
0
  6
CONTINUOUS
 62
     7
  5
C5
 10
-1.406853
 20
268.387575
 30
0.0
 11
-1.406853
 21
262.387575
 31
0.0
  0
LINE
  8
0
  6
CONTINUOUS
 62
     7
  5
C6
 10
-1.406853
 20
132.387575
 30
0.0
 11
-1.406853
 21
26.387575
 31
0.0
  0
LINE
  8
0
  6
CONTINUOUS
 62
     7
  5
C7
 10
-2.406853
 20
46.387575
 30
0.0
 11
-2.406853
 21
26.387575
 31
0.0
  0
LINE
  8
0
  6
CONTINUOUS
 62
     7
  5
C8
 10
19.593147
 20
26.387575
 30
0.0
 11
19.593147
 21
46.387575
 31
0.0
  0
LINE
  8
0
  6
CONTINUOUS
 62
     7
  5
C9
 10
12.593147
 20
296.387575
 30
0.0
 11
12.593147
 21
311.387575
 31
0.0
  0
LINE
  8
0
  6
CONTINUOUS
 62
     7
  5
CA
 10
4.593147
 20
311.387575
 30
0.0
 11
4.593147
 21
296.387575
 31
0.0
  0
LINE
  8
0
  6
CONTINUOUS
 62
     7
  5
CB
 10
21.593147
 20
268.387575
 30
0.0
 11
21.593147
 21
262.387575
 31
0.0
  0
LINE
  8
0
  6
CONTINUOUS
 62
     7
  5
CC
 10
29.593147
 20
262.387575
 30
0.0
 11
29.593147
 21
268.387575
 31
0.0
  0
ARC
  8
0
  6
CONTINUOUS
 62
     7
  5
CD
 10
-10.656853
 20
265.687575
 30
0.0
 40
2.3
 50
90.0
 51
180.0
210
0.0
220
0.0
230
1.0
  0
ARC
  8
0
  6
CONTINUOUS
 62
     7
  5
CE
 10
-4.756853
 20
265.687575
 30
0.0
 40
2.3
 50
0.0
 51
90.0
210
0.0
220
0.0
230
1.0
  0
LINE
  8
0
  6
CONTINUOUS
 62
     7
  5
CF
 10
-12.956853
 20
265.687575
 30
0.0
 11
-12.956853
 21
264.887575
 31
0.0
  0
LINE
  8
0
  6
CONTINUOUS
 62
     7
  5
D0
 10
-2.456853
 20
264.887575
 30
0.0
 11
-2.456853
 21
265.687575
 31
0.0
  0
LINE
  8
0
  6
CONTINUOUS
 62
     7
  5
D1
 10
19.643147
 20
265.687575
 30
0.0
 11
19.643147
 21
264.887575
 31
0.0
  0
LINE
  8
0
  6
CONTINUOUS
 62
     7
  5
D2
 10
30.143147
 20
264.887575
 30
0.0
 11
30.143147
 21
265.687575
 31
0.0
  0
ARC
  8
0
  6
CONTINUOUS
 62
     7
  5
D3
 10
21.943147
 20
265.687575
 30
0.0
 40
2.3
 50
98.752929
 51
180.0
210
0.0
220
0.0
230
1.0
  0
ARC
  8
0
  6
CONTINUOUS
 62
     7
  5
D4
 10
27.843147
 20
265.687575
 30
0.0
 40
2.3
 50
0.0
 51
40.459083
210
0.0
220
0.0
230
1.0
  0
ENDBLK
  8
0
  5
D5
  0
BLOCK
  8
0
  5
D8
  2
AID351
 70
     0
 10
0.0
 20
0.0
 30
0.0
  3
#auxiliary draft view
  0
LINE
  8
0
  6
CONTINUOUS
 62
     7
  5
D9
 10
355.252667
 20
6.387575
 30
0.0
 11
355.252667
 21
26.387575
 31
0.0
  0
LINE
  8
0
  6
CONTINUOUS
 62
     7
  5
DA
 10
308.252667
 20
6.387575
 30
0.0
 11
355.252667
 21
6.387575
 31
0.0
  0
LINE
  8
0
  6
CONTINUOUS
 62
     7
  5
DB
 10
308.252667
 20
6.387575
 30
0.0
 11
308.252667
 21
26.387575
 31
0.0
  0
LINE
  8
0
  6
CONTINUOUS
 62
     7
  5
DC
 10
308.252667
 20
26.387575
 30
0.0
 11
355.252667
 21
26.387575
 31
0.0
  0
LINE
  8
0
  6
CONTINUOUS
 62
     7
  5
DD
 10
308.252667
 20
288.387575
 30
0.0
 11
308.252667
 21
268.387575
 31
0.0
  0
LINE
  8
0
  6
CONTINUOUS
 62
     7
  5
DE
 10
355.252667
 20
288.387575
 30
0.0
 11
308.252667
 21
288.387575
 31
0.0
  0
LINE
  8
0
  6
CONTINUOUS
 62
     7
  5
DF
 10
355.252667
 20
288.387575
 30
0.0
 11
355.252667
 21
268.387575
 31
0.0
  0
LINE
  8
0
  6
CONTINUOUS
 62
     7
  5
E0
 10
355.252667
 20
268.387575
 30
0.0
 11
308.252667
 21
268.387575
 31
0.0
  0
LINE
  8
0
  6
CONTINUOUS
 62
     7
  5
E1
 10
295.002667
 20
21.387575
 30
0.0
 11
295.002667
 21
11.387575
 31
0.0
  0
LINE
  8
0
  6
CONTINUOUS
 62
     7
  5
E2
 10
294.252667
 20
12.137575
 30
0.0
 11
294.252667
 21
20.637575
 31
0.0
  0
LINE
  8
0
  6
CONTINUOUS
 62
     7
  5
E3
 10
294.252667
 20
274.137575
 30
0.0
 11
294.252667
 21
282.637575
 31
0.0
  0
LINE
  8
0
  6
CONTINUOUS
 62
     7
  5
E4
 10
295.002667
 20
283.387575
 30
0.0
 11
295.002667
 21
273.387575
 31
0.0
  0
LINE
  8
0
  6
CONTINUOUS
 62
     7
  5
E5
 10
354.002667
 20
296.387575
 30
0.0
 11
354.002667
 21
288.387575
 31
0.0
  0
LINE
  8
0
  6
CONTINUOUS
 62
     9
  5
E6
 10
347.002667
 20
288.387575
 30
0.0
 11
347.002667
 21
296.387575
 31
0.0
  0
LINE
  8
0
  6
CONTINUOUS
 62
     7
  5
E7
 10
347.002667
 20
296.387575
 30
0.0
 11
354.002667
 21
296.387575
 31
0.0
  0
LINE
  8
0
  6
CONTINUOUS
 62
     9
  5
E8
 10
319.502667
 20
296.387575
 30
0.0
 11
319.502667
 21
288.387575
 31
0.0
  0
LINE
  8
0
  6
CONTINUOUS
 62
     7
  5
E9
 10
347.002667
 20
296.387575
 30
0.0
 11
319.502667
 21
296.387575
 31
0.0
  0
LINE
  8
0
  6
CONTINUOUS
 62
     7
  5
EA
 10
312.502667
 20
288.387575
 30
0.0
 11
312.502667
 21
296.387575
 31
0.0
  0
LINE
  8
0
  6
CONTINUOUS
 62
     7
  5
EB
 10
312.502667
 20
296.387575
 30
0.0
 11
319.502667
 21
296.387575
 31
0.0
  0
LINE
  8
0
  6
CONTINUOUS
 62
     7
  5
EC
 10
344.252667
 20
46.387575
 30
0.0
 11
343.252667
 21
46.387575
 31
0.0
  0
LINE
  8
0
  6
CONTINUOUS
 62
     7
  5
ED
 10
323.252667
 20
46.387575
 30
0.0
 11
322.252667
 21
46.387575
 31
0.0
  0
LINE
  8
0
  6
CONTINUOUS
 62
     7
  5
EE
 10
329.252667
 20
311.387575
 30
0.0
 11
337.252667
 21
311.387575
 31
0.0
  0
LINE
  8
0
  6
CONTINUOUS
 62
     7
  5
EF
 10
356.252667
 20
262.387575
 30
0.0
 11
310.252667
 21
262.387575
 31
0.0
  0
LINE
  8
0
  6
CONTINUOUS
 62
     7
  5
F0
 10
356.252667
 20
132.387575
 30
0.0
 11
356.252667
 21
262.387575
 31
0.0
  0
LINE
  8
0
  6
CONTINUOUS
 62
     7
  5
F1
 10
356.252667
 20
132.387575
 30
0.0
 11
310.252667
 21
132.387575
 31
0.0
  0
LINE
  8
0
  6
CONTINUOUS
 62
     7
  5
F2
 10
310.252667
 20
132.387575
 30
0.0
 11
310.252667
 21
262.387575
 31
0.0
  0
LINE
  8
0
  6
CONTINUOUS
 62
     7
  5
F3
 10
311.652667
 20
264.887575
 30
0.0
 11
311.652667
 21
262.387575
 31
0.0
  0
LINE
  8
0
  6
CONTINUOUS
 62
     9
  5
F4
 10
317.892642
 20
264.887575
 30
0.0
 11
317.892642
 21
262.387575
 31
0.0
  0
LINE
  8
0
  6
CONTINUOUS
 62
     7
  5
F5
 10
311.652667
 20
264.887575
 30
0.0
 11
317.892642
 21
264.887575
 31
0.0
  0
LINE
  8
0
  6
CONTINUOUS
 62
     9
  5
F6
 10
322.202667
 20
265.687575
 30
0.0
 11
311.702667
 21
265.687575
 31
0.0
  0
LINE
  8
0
  6
CONTINUOUS
 62
     7
  5
F7
 10
314.002667
 20
267.987575
 30
0.0
 11
319.902667
 21
267.987575
 31
0.0
  0
LINE
  8
0
  6
CONTINUOUS
 62
     7
  5
F8
 10
317.892642
 20
264.887575
 30
0.0
 11
323.252667
 21
264.887575
 31
0.0
  0
LINE
  8
0
  6
CONTINUOUS
 62
     7
  5
F9
 10
354.852667
 20
264.887575
 30
0.0
 11
354.852667
 21
262.387575
 31
0.0
  0
LINE
  8
0
  6
CONTINUOUS
 62
     7
  5
FA
 10
343.252667
 20
264.887575
 30
0.0
 11
354.852667
 21
264.887575
 31
0.0
  0
LINE
  8
0
  6
CONTINUOUS
 62
     9
  5
FB
 10
354.802667
 20
265.687575
 30
0.0
 11
344.302667
 21
265.687575
 31
0.0
  0
LINE
  8
0
  6
CONTINUOUS
 62
     7
  5
FC
 10
346.602667
 20
267.987575
 30
0.0
 11
352.502667
 21
267.987575
 31
0.0
  0
LINE
  8
0
  6
CONTINUOUS
 62
     7
  5
FD
 10
308.252667
 20
21.387575
 30
0.0
 11
295.002667
 21
21.387575
 31
0.0
  0
LINE
  8
0
  6
CONTINUOUS
 62
     7
  5
FE
 10
295.002667
 20
11.387575
 30
0.0
 11
308.252667
 21
11.387575
 31
0.0
  0
LINE
  8
0
  6
CONTINUOUS
 62
     7
  5
FF
 10
295.002667
 20
21.387575
 30
0.0
 11
294.252667
 21
20.637575
 31
0.0
  0
LINE
  8
0
  6
CONTINUOUS
 62
     7
  5
100
 10
294.252667
 20
12.137575
 30
0.0
 11
295.002667
 21
11.387575
 31
0.0
  0
LINE
  8
0
  6
CONTINUOUS
 62
     7
  5
101
 10
295.002667
 20
283.387575
 30
0.0
 11
294.252667
 21
282.637575
 31
0.0
  0
LINE
  8
0
  6
CONTINUOUS
 62
     7
  5
102
 10
294.252667
 20
274.137575
 30
0.0
 11
295.002667
 21
273.387575
 31
0.0
  0
LINE
  8
0
  6
CONTINUOUS
 62
     7
  5
103
 10
308.252667
 20
283.387575
 30
0.0
 11
295.002667
 21
283.387575
 31
0.0
  0
LINE
  8
0
  6
CONTINUOUS
 62
     7
  5
104
 10
295.002667
 20
273.387575
 30
0.0
 11
308.252667
 21
273.387575
 31
0.0
  0
LINE
  8
0
  6
CONTINUOUS
 62
     7
  5
105
 10
343.252667
 20
26.387575
 30
0.0
 11
343.252667
 21
132.387575
 31
0.0
  0
LINE
  8
0
  6
CONTINUOUS
 62
     7
  5
106
 10
343.252667
 20
262.387575
 30
0.0
 11
343.252667
 21
268.387575
 31
0.0
  0
LINE
  8
0
  6
CONTINUOUS
 62
     7
  5
107
 10
323.252667
 20
268.387575
 30
0.0
 11
323.252667
 21
262.387575
 31
0.0
  0
LINE
  8
0
  6
CONTINUOUS
 62
     7
  5
108
 10
323.252667
 20
132.387575
 30
0.0
 11
323.252667
 21
26.387575
 31
0.0
  0
LINE
  8
0
  6
CONTINUOUS
 62
     7
  5
109
 10
322.252667
 20
46.387575
 30
0.0
 11
322.252667
 21
26.387575
 31
0.0
  0
LINE
  8
0
  6
CONTINUOUS
 62
     7
  5
10A
 10
344.252667
 20
26.387575
 30
0.0
 11
344.252667
 21
46.387575
 31
0.0
  0
LINE
  8
0
  6
CONTINUOUS
 62
     7
  5
10B
 10
337.252667
 20
296.387575
 30
0.0
 11
337.252667
 21
311.387575
 31
0.0
  0
LINE
  8
0
  6
CONTINUOUS
 62
     7
  5
10C
 10
329.252667
 20
311.387575
 30
0.0
 11
329.252667
 21
296.387575
 31
0.0
  0
ARC
  8
0
  6
CONTINUOUS
 62
     7
  5
10D
 10
314.002667
 20
265.687575
 30
0.0
 40
2.3
 50
90.0
 51
180.0
210
0.0
220
0.0
230
1.0
  0
ARC
  8
0
  6
CONTINUOUS
 62
     7
  5
10E
 10
319.902667
 20
265.687575
 30
0.0
 40
2.3
 50
0.0
 51
90.0
210
0.0
220
0.0
230
1.0
  0
LINE
  8
0
  6
CONTINUOUS
 62
     7
  5
10F
 10
311.702667
 20
265.687575
 30
0.0
 11
311.702667
 21
264.887575
 31
0.0
  0
LINE
  8
0
  6
CONTINUOUS
 62
     7
  5
110
 10
322.202667
 20
264.887575
 30
0.0
 11
322.202667
 21
265.687575
 31
0.0
  0
ARC
  8
0
  6
CONTINUOUS
 62
     7
  5
111
 10
346.602667
 20
265.687575
 30
0.0
 40
2.3
 50
90.0
 51
180.0
210
0.0
220
0.0
230
1.0
  0
ARC
  8
0
  6
CONTINUOUS
 62
     7
  5
112
 10
352.502667
 20
265.687575
 30
0.0
 40
2.3
 50
0.0
 51
90.0
210
0.0
220
0.0
230
1.0
  0
LINE
  8
0
  6
CONTINUOUS
 62
     7
  5
113
 10
344.302667
 20
265.687575
 30
0.0
 11
344.302667
 21
264.887575
 31
0.0
  0
LINE
  8
0
  6
CONTINUOUS
 62
     7
  5
114
 10
354.802667
 20
264.887575
 30
0.0
 11
354.802667
 21
265.687575
 31
0.0
  0
LINE
  8
0
  6
CONTINUOUS
 62
     7
  5
115
 10
312.252667
 20
268.387575
 30
0.0
 11
312.252667
 21
267.180057
 31
0.0
  0
LINE
  8
0
  6
CONTINUOUS
 62
     7
  5
116
 10
320.252667
 20
267.960789
 30
0.0
 11
320.252667
 21
268.387575
 31
0.0
  0
ENDBLK
  8
0
  5
117
  0
BLOCK
  8
0
  5
11A
  2
AID479
 70
     0
 10
0.0
 20
0.0
 30
0.0
  3
#auxiliary draft view
  0
CIRCLE
  8
0
  6
CONTINUOUS
 62
     7
  5
11B
 10
175.04068
 20
419.363285
 30
0.0
 40
3.1
210
0.0
220
0.0
230
1.0
  0
CIRCLE
  8
0
  6
CONTINUOUS
 62
     7
  5
11C
 10
145.04068
 20
419.363285
 30
0.0
 40
3.1
210
0.0
220
0.0
230
1.0
  0
CIRCLE
  8
0
  6
CONTINUOUS
 62
     7
  5
11D
 10
175.04068
 20
389.363285
 30
0.0
 40
3.1
210
0.0
220
0.0
230
1.0
  0
CIRCLE
  8
0
  6
CONTINUOUS
 62
     7
  5
11E
 10
145.04068
 20
389.363285
 30
0.0
 40
3.1
210
0.0
220
0.0
230
1.0
  0
LINE
  8
0
  6
CONTINUOUS
 62
     7
  5
11F
 10
96.04068
 20
379.363285
 30
0.0
 11
96.04068
 21
426.363285
 31
0.0
  0
LINE
  8
0
  6
CONTINUOUS
 62
     7
  5
120
 10
96.04068
 20
426.363285
 30
0.0
 11
224.04068
 21
426.363285
 31
0.0
  0
LINE
  8
0
  6
CONTINUOUS
 62
     7
  5
121
 10
224.04068
 20
426.363285
 30
0.0
 11
224.04068
 21
379.363285
 31
0.0
  0
LINE
  8
0
  6
CONTINUOUS
 62
     7
  5
122
 10
224.04068
 20
379.363285
 30
0.0
 11
96.04068
 21
379.363285
 31
0.0
  0
LINE
  8
0
  6
CONTINUOUS
 62
     7
  5
123
 10
110.29068
 20
365.363285
 30
0.0
 11
101.79068
 21
365.363285
 31
0.0
  0
LINE
  8
0
  6
CONTINUOUS
 62
     7
  5
124
 10
101.04068
 20
366.113285
 30
0.0
 11
111.04068
 21
366.113285
 31
0.0
  0
LINE
  8
0
  6
CONTINUOUS
 62
     7
  5
125
 10
209.04068
 20
366.113285
 30
0.0
 11
219.04068
 21
366.113285
 31
0.0
  0
LINE
  8
0
  6
CONTINUOUS
 62
     7
  5
126
 10
218.29068
 20
365.363285
 30
0.0
 11
209.79068
 21
365.363285
 31
0.0
  0
LINE
  8
0
  6
CONTINUOUS
 62
     7
  5
127
 10
95.04068
 20
427.363285
 30
0.0
 11
95.04068
 21
381.363285
 31
0.0
  0
LINE
  8
0
  6
CONTINUOUS
 62
     7
  5
128
 10
225.04068
 20
427.363285
 30
0.0
 11
95.04068
 21
427.363285
 31
0.0
  0
LINE
  8
0
  6
CONTINUOUS
 62
     7
  5
129
 10
225.04068
 20
427.363285
 30
0.0
 11
225.04068
 21
381.363285
 31
0.0
  0
LINE
  8
0
  6
CONTINUOUS
 62
     7
  5
12A
 10
225.04068
 20
381.363285
 30
0.0
 11
224.04068
 21
381.363285
 31
0.0
  0
LINE
  8
0
  6
CONTINUOUS
 62
     7
  5
12B
 10
96.04068
 20
381.363285
 30
0.0
 11
95.04068
 21
381.363285
 31
0.0
  0
LINE
  8
0
  6
CONTINUOUS
 62
     7
  5
12C
 10
101.04068
 20
366.113285
 30
0.0
 11
101.79068
 21
365.363285
 31
0.0
  0
LINE
  8
0
  6
CONTINUOUS
 62
     7
  5
12D
 10
110.29068
 20
365.363285
 30
0.0
 11
111.04068
 21
366.113285
 31
0.0
  0
LINE
  8
0
  6
CONTINUOUS
 62
     7
  5
12E
 10
101.04068
 20
379.363285
 30
0.0
 11
101.04068
 21
366.113285
 31
0.0
  0
LINE
  8
0
  6
CONTINUOUS
 62
     7
  5
12F
 10
111.04068
 20
366.113285
 30
0.0
 11
111.04068
 21
379.363285
 31
0.0
  0
LINE
  8
0
  6
CONTINUOUS
 62
     7
  5
130
 10
209.04068
 20
379.363285
 30
0.0
 11
209.04068
 21
366.113285
 31
0.0
  0
LINE
  8
0
  6
CONTINUOUS
 62
     7
  5
131
 10
219.04068
 20
366.113285
 30
0.0
 11
219.04068
 21
379.363285
 31
0.0
  0
LINE
  8
0
  6
CONTINUOUS
 62
     7
  5
132
 10
209.04068
 20
366.113285
 30
0.0
 11
209.79068
 21
365.363285
 31
0.0
  0
LINE
  8
0
  6
CONTINUOUS
 62
     7
  5
133
 10
218.29068
 20
365.363285
 30
0.0
 11
219.04068
 21
366.113285
 31
0.0
  0
ENDBLK
  8
0
  5
134
  0
BLOCK
  8
0
  5
137
  2
AID533
 70
     0
 10
0.0
 20
0.0
 30
0.0
  3
#auxiliary draft view
  0
CIRCLE
  8
0
  6
CONTINUOUS
 62
     7
  5
138
 10
160.04068
 20
-101.204151
 30
0.0
 40
4.0
210
0.0
220
0.0
230
1.0
  0
LINE
  8
0
  6
CONTINUOUS
 62
     7
  5
139
 10
146.29068
 20
-80.454151
 30
0.0
 11
173.79068
 21
-80.454151
 31
0.0
  0
LINE
  8
0
  6
CONTINUOUS
 62
     7
  5
13A
 10
180.79068
 20
-87.454151
 30
0.0
 11
180.79068
 21
-114.954151
 31
0.0
  0
ARC
  8
0
  6
CONTINUOUS
 62
     7
  5
13B
 10
146.29068
 20
-114.954151
 30
0.0
 40
7.0
 50
180.0
 51
270.0
210
0.0
220
0.0
230
1.0
  0
LINE
  8
0
  6
CONTINUOUS
 62
     7
  5
13C
 10
139.29068
 20
-114.954151
 30
0.0
 11
139.29068
 21
-87.454151
 31
0.0
  0
ARC
  8
0
  6
CONTINUOUS
 62
     7
  5
13D
 10
173.79068
 20
-87.454151
 30
0.0
 40
7.0
 50
0.0
 51
90.0
210
0.0
220
0.0
230
1.0
  0
ARC
  8
0
  6
CONTINUOUS
 62
     7
  5
13E
 10
173.79068
 20
-114.954151
 30
0.0
 40
7.0
 50
270.0
 51
360.0
210
0.0
220
0.0
230
1.0
  0
LINE
  8
0
  6
CONTINUOUS
 62
     7
  5
13F
 10
173.79068
 20
-121.954151
 30
0.0
 11
146.29068
 21
-121.954151
 31
0.0
  0
ARC
  8
0
  6
CONTINUOUS
 62
     7
  5
140
 10
146.29068
 20
-87.454151
 30
0.0
 40
7.0
 50
90.0
 51
180.0
210
0.0
220
0.0
230
1.0
  0
CIRCLE
  8
0
  6
CONTINUOUS
 62
     7
  5
141
 10
135.54068
 20
-93.204151
 30
0.0
 40
2.01
210
0.0
220
0.0
230
1.0
  0
CIRCLE
  8
0
  6
CONTINUOUS
 62
     7
  5
142
 10
184.54068
 20
-109.204151
 30
0.0
 40
2.01
210
0.0
220
0.0
230
1.0
  0
CIRCLE
  8
0
  6
CONTINUOUS
 62
     7
  5
143
 10
133.04068
 20
-116.204151
 30
0.0
 40
3.1
210
0.0
220
0.0
230
1.0
  0
CIRCLE
  8
0
  6
CONTINUOUS
 62
     7
  5
144
 10
187.04068
 20
-116.204151
 30
0.0
 40
3.1
210
0.0
220
0.0
230
1.0
  0
LINE
  8
0
  6
CONTINUOUS
 62
     7
  5
145
 10
224.04068
 20
-76.204151
 30
0.0
 11
224.04068
 21
-123.204151
 31
0.0
  0
LINE
  8
0
  6
CONTINUOUS
 62
     7
  5
146
 10
224.04068
 20
-123.204151
 30
0.0
 11
96.04068
 21
-123.204151
 31
0.0
  0
LINE
  8
0
  6
CONTINUOUS
 62
     7
  5
147
 10
96.04068
 20
-123.204151
 30
0.0
 11
96.04068
 21
-76.204151
 31
0.0
  0
LINE
  8
0
  6
CONTINUOUS
 62
     7
  5
148
 10
96.04068
 20
-76.204151
 30
0.0
 11
224.04068
 21
-76.204151
 31
0.0
  0
CIRCLE
  8
0
  6
CONTINUOUS
 62
     7
  5
149
 10
187.04068
 20
-86.204151
 30
0.0
 40
3.1
210
0.0
220
0.0
230
1.0
  0
CIRCLE
  8
0
  6
CONTINUOUS
 62
     7
  5
14A
 10
133.04068
 20
-86.204151
 30
0.0
 40
3.1
210
0.0
220
0.0
230
1.0
  0
LINE
  8
0
  6
CONTINUOUS
 62
     7
  5
14B
 10
219.04068
 20
-62.954151
 30
0.0
 11
214.04068
 21
-62.954151
 31
0.0
  0
LINE
  8
0
  6
CONTINUOUS
 62
     7
  5
14C
 10
214.04068
 20
-62.954151
 30
0.0
 11
209.04068
 21
-62.954151
 31
0.0
  0
LINE
  8
0
  6
CONTINUOUS
 62
     7
  5
14D
 10
111.04068
 20
-62.954151
 30
0.0
 11
106.04068
 21
-62.954151
 31
0.0
  0
LINE
  8
0
  6
CONTINUOUS
 62
     7
  5
14E
 10
106.04068
 20
-62.954151
 30
0.0
 11
101.04068
 21
-62.954151
 31
0.0
  0
LINE
  8
0
  6
CONTINUOUS
 62
     7
  5
14F
 10
209.79068
 20
-62.204151
 30
0.0
 11
214.04068
 21
-62.204151
 31
0.0
  0
LINE
  8
0
  6
CONTINUOUS
 62
     7
  5
150
 10
214.04068
 20
-62.204151
 30
0.0
 11
218.29068
 21
-62.204151
 31
0.0
  0
LINE
  8
0
  6
CONTINUOUS
 62
     7
  5
151
 10
101.79068
 20
-62.204151
 30
0.0
 11
106.04068
 21
-62.204151
 31
0.0
  0
LINE
  8
0
  6
CONTINUOUS
 62
     7
  5
152
 10
106.04068
 20
-62.204151
 30
0.0
 11
110.29068
 21
-62.204151
 31
0.0
  0
LINE
  8
0
  6
CONTINUOUS
 62
     7
  5
153
 10
225.04068
 20
-124.204151
 30
0.0
 11
225.04068
 21
-78.204151
 31
0.0
  0
LINE
  8
0
  6
CONTINUOUS
 62
     7
  5
154
 10
95.04068
 20
-124.204151
 30
0.0
 11
225.04068
 21
-124.204151
 31
0.0
  0
LINE
  8
0
  6
CONTINUOUS
 62
     7
  5
155
 10
95.04068
 20
-124.204151
 30
0.0
 11
95.04068
 21
-78.204151
 31
0.0
  0
LINE
  8
0
  6
CONTINUOUS
 62
     7
  5
156
 10
95.04068
 20
-78.204151
 30
0.0
 11
96.04068
 21
-78.204151
 31
0.0
  0
LINE
  8
0
  6
CONTINUOUS
 62
     7
  5
157
 10
224.04068
 20
-78.204151
 30
0.0
 11
225.04068
 21
-78.204151
 31
0.0
  0
LINE
  8
0
  6
CONTINUOUS
 62
     7
  5
158
 10
219.04068
 20
-76.204151
 30
0.0
 11
219.04068
 21
-62.954151
 31
0.0
  0
LINE
  8
0
  6
CONTINUOUS
 62
     7
  5
159
 10
209.04068
 20
-62.954151
 30
0.0
 11
209.04068
 21
-76.204151
 31
0.0
  0
LINE
  8
0
  6
CONTINUOUS
 62
     7
  5
15A
 10
111.04068
 20
-76.204151
 30
0.0
 11
111.04068
 21
-62.954151
 31
0.0
  0
LINE
  8
0
  6
CONTINUOUS
 62
     7
  5
15B
 10
101.04068
 20
-62.954151
 30
0.0
 11
101.04068
 21
-76.204151
 31
0.0
  0
LINE
  8
0
  6
CONTINUOUS
 62
     7
  5
15C
 10
219.04068
 20
-62.954151
 30
0.0
 11
218.29068
 21
-62.204151
 31
0.0
  0
LINE
  8
0
  6
CONTINUOUS
 62
     7
  5
15D
 10
209.79068
 20
-62.204151
 30
0.0
 11
209.04068
 21
-62.954151
 31
0.0
  0
LINE
  8
0
  6
CONTINUOUS
 62
     7
  5
15E
 10
111.04068
 20
-62.954151
 30
0.0
 11
110.29068
 21
-62.204151
 31
0.0
  0
LINE
  8
0
  6
CONTINUOUS
 62
     7
  5
15F
 10
101.79068
 20
-62.204151
 30
0.0
 11
101.04068
 21
-62.954151
 31
0.0
  0
ENDBLK
  8
0
  5
160
  0
BLOCK
  8
0
  5
163
  2
AID631
 70
     0
 10
0.0
 20
0.0
 30
0.0
  3
#auxiliary draft view
  0
CIRCLE
  8
0
  6
CONTINUOUS
 62
     7
  5
164
 10
564.432747
 20
278.387575
 30
0.0
 40
4.25
210
0.0
220
0.0
230
1.0
  0
CIRCLE
  8
0
  6
CONTINUOUS
 62
     7
  5
165
 10
564.432747
 20
278.387575
 30
0.0
 40
5.0
210
0.0
220
0.0
230
1.0
  0
CIRCLE
  8
0
  6
CONTINUOUS
 62
     7
  5
166
 10
564.432747
 20
16.387575
 30
0.0
 40
4.25
210
0.0
220
0.0
230
1.0
  0
CIRCLE
  8
0
  6
CONTINUOUS
 62
     7
  5
167
 10
564.432747
 20
16.387575
 30
0.0
 40
5.0
210
0.0
220
0.0
230
1.0
  0
CIRCLE
  8
0
  6
CONTINUOUS
 62
     7
  5
168
 10
456.432747
 20
16.387575
 30
0.0
 40
4.25
210
0.0
220
0.0
230
1.0
  0
CIRCLE
  8
0
  6
CONTINUOUS
 62
     7
  5
169
 10
456.432747
 20
16.387575
 30
0.0
 40
5.0
210
0.0
220
0.0
230
1.0
  0
CIRCLE
  8
0
  6
CONTINUOUS
 62
     7
  5
16A
 10
456.432747
 20
278.387575
 30
0.0
 40
4.25
210
0.0
220
0.0
230
1.0
  0
CIRCLE
  8
0
  6
CONTINUOUS
 62
     7
  5
16B
 10
456.432747
 20
278.387575
 30
0.0
 40
5.0
210
0.0
220
0.0
230
1.0
  0
CIRCLE
  8
0
  6
CONTINUOUS
 62
     7
  5
16C
 10
564.432747
 20
278.387575
 30
0.0
 40
5.5
210
0.0
220
0.0
230
1.0
  0
CIRCLE
  8
0
  6
CONTINUOUS
 62
     7
  5
16D
 10
456.432747
 20
278.387575
 30
0.0
 40
5.5
210
0.0
220
0.0
230
1.0
  0
LINE
  8
0
  6
CONTINUOUS
 62
     7
  5
16E
 10
446.432747
 20
288.387575
 30
0.0
 11
446.432747
 21
268.387575
 31
0.0
  0
LINE
  8
0
  6
CONTINUOUS
 62
     7
  5
16F
 10
574.432747
 20
288.387575
 30
0.0
 11
446.432747
 21
288.387575
 31
0.0
  0
LINE
  8
0
  6
CONTINUOUS
 62
     7
  5
170
 10
574.432747
 20
288.387575
 30
0.0
 11
574.432747
 21
268.387575
 31
0.0
  0
LINE
  8
0
  6
CONTINUOUS
 62
     7
  5
171
 10
574.432747
 20
268.387575
 30
0.0
 11
446.432747
 21
268.387575
 31
0.0
  0
CIRCLE
  8
0
  6
CONTINUOUS
 62
     7
  5
172
 10
456.432747
 20
16.387575
 30
0.0
 40
5.5
210
0.0
220
0.0
230
1.0
  0
CIRCLE
  8
0
  6
CONTINUOUS
 62
     7
  5
173
 10
564.432747
 20
16.387575
 30
0.0
 40
5.5
210
0.0
220
0.0
230
1.0
  0
LINE
  8
0
  6
CONTINUOUS
 62
     7
  5
174
 10
574.432747
 20
6.387575
 30
0.0
 11
574.432747
 21
26.387575
 31
0.0
  0
LINE
  8
0
  6
CONTINUOUS
 62
     7
  5
175
 10
446.432747
 20
6.387575
 30
0.0
 11
574.432747
 21
6.387575
 31
0.0
  0
LINE
  8
0
  6
CONTINUOUS
 62
     7
  5
176
 10
446.432747
 20
6.387575
 30
0.0
 11
446.432747
 21
26.387575
 31
0.0
  0
LINE
  8
0
  6
CONTINUOUS
 62
     7
  5
177
 10
446.432747
 20
26.387575
 30
0.0
 11
574.432747
 21
26.387575
 31
0.0
  0
LINE
  8
0
  6
CONTINUOUS
 62
     7
  5
178
 10
531.182747
 20
296.387575
 30
0.0
 11
531.182747
 21
288.387575
 31
0.0
  0
LINE
  8
0
  6
CONTINUOUS
 62
     9
  5
179
 10
524.182747
 20
288.387575
 30
0.0
 11
524.182747
 21
296.387575
 31
0.0
  0
LINE
  8
0
  6
CONTINUOUS
 62
     7
  5
17A
 10
524.182747
 20
296.387575
 30
0.0
 11
531.182747
 21
296.387575
 31
0.0
  0
LINE
  8
0
  6
CONTINUOUS
 62
     9
  5
17B
 10
496.682747
 20
296.387575
 30
0.0
 11
496.682747
 21
288.387575
 31
0.0
  0
LINE
  8
0
  6
CONTINUOUS
 62
     7
  5
17C
 10
524.182747
 20
296.387575
 30
0.0
 11
496.682747
 21
296.387575
 31
0.0
  0
LINE
  8
0
  6
CONTINUOUS
 62
     7
  5
17D
 10
489.682747
 20
288.387575
 30
0.0
 11
489.682747
 21
296.387575
 31
0.0
  0
LINE
  8
0
  6
CONTINUOUS
 62
     7
  5
17E
 10
489.682747
 20
296.387575
 30
0.0
 11
496.682747
 21
296.387575
 31
0.0
  0
LINE
  8
0
  6
CONTINUOUS
 62
     7
  5
17F
 10
521.432747
 20
46.387575
 30
0.0
 11
499.432747
 21
46.387575
 31
0.0
  0
LINE
  8
0
  6
CONTINUOUS
 62
     7
  5
180
 10
506.432747
 20
311.387575
 30
0.0
 11
510.432747
 21
311.387575
 31
0.0
  0
LINE
  8
0
  6
CONTINUOUS
 62
     7
  5
181
 10
510.432747
 20
311.387575
 30
0.0
 11
514.432747
 21
311.387575
 31
0.0
  0
CIRCLE
  8
0
  6
CONTINUOUS
 62
     7
  5
182
 10
567.932747
 20
254.887575
 30
0.0
 40
5.5
210
0.0
220
0.0
230
1.0
  0
CIRCLE
  8
0
  6
CONTINUOUS
 62
     7
  5
183
 10
567.932747
 20
139.887575
 30
0.0
 40
5.5
210
0.0
220
0.0
230
1.0
  0
CIRCLE
  8
0
  6
CONTINUOUS
 62
     7
  5
184
 10
452.932747
 20
254.887575
 30
0.0
 40
5.5
210
0.0
220
0.0
230
1.0
  0
CIRCLE
  8
0
  6
CONTINUOUS
 62
     7
  5
185
 10
452.932747
 20
139.887575
 30
0.0
 40
5.5
210
0.0
220
0.0
230
1.0
  0
LINE
  8
0
  6
CONTINUOUS
 62
     7
  5
186
 10
445.432747
 20
262.387575
 30
0.0
 11
445.432747
 21
132.387575
 31
0.0
  0
LINE
  8
0
  6
CONTINUOUS
 62
     7
  5
187
 10
575.432747
 20
262.387575
 30
0.0
 11
445.432747
 21
262.387575
 31
0.0
  0
LINE
  8
0
  6
CONTINUOUS
 62
     7
  5
188
 10
445.432747
 20
132.387575
 30
0.0
 11
575.432747
 21
132.387575
 31
0.0
  0
LINE
  8
0
  6
CONTINUOUS
 62
     7
  5
189
 10
575.432747
 20
132.387575
 30
0.0
 11
575.432747
 21
262.387575
 31
0.0
  0
LINE
  8
0
  6
CONTINUOUS
 62
     9
  5
18A
 10
529.932747
 20
264.887575
 30
0.0
 11
529.932747
 21
262.387575
 31
0.0
  0
LINE
  8
0
  6
CONTINUOUS
 62
     7
  5
18B
 10
529.932747
 20
264.887575
 30
0.0
 11
535.232747
 21
264.887575
 31
0.0
  0
LINE
  8
0
  6
CONTINUOUS
 62
     9
  5
18C
 10
510.432747
 20
264.887575
 30
0.0
 11
510.432747
 21
262.387575
 31
0.0
  0
LINE
  8
0
  6
CONTINUOUS
 62
     7
  5
18D
 10
510.432747
 20
264.887575
 30
0.0
 11
529.932747
 21
264.887575
 31
0.0
  0
LINE
  8
0
  6
CONTINUOUS
 62
     7
  5
18E
 10
493.432747
 20
264.887575
 30
0.0
 11
510.432747
 21
264.887575
 31
0.0
  0
LINE
  8
0
  6
CONTINUOUS
 62
     9
  5
18F
 10
535.182747
 20
265.687575
 30
0.0
 11
529.932747
 21
265.687575
 31
0.0
  0
LINE
  8
0
  6
CONTINUOUS
 62
     9
  5
190
 10
529.932747
 20
265.687575
 30
0.0
 11
524.682747
 21
265.687575
 31
0.0
  0
LINE
  8
0
  6
CONTINUOUS
 62
     7
  5
191
 10
526.982747
 20
267.987575
 30
0.0
 11
529.932747
 21
267.987575
 31
0.0
  0
LINE
  8
0
  6
CONTINUOUS
 62
     7
  5
192
 10
529.932747
 20
267.987575
 30
0.0
 11
532.882747
 21
267.987575
 31
0.0
  0
CIRCLE
  8
0
  6
CONTINUOUS
 62
     7
  5
193
 10
567.932747
 20
254.887575
 30
0.0
 40
3.25
210
0.0
220
0.0
230
1.0
  0
CIRCLE
  8
0
  6
CONTINUOUS
 62
     7
  5
194
 10
567.932747
 20
139.887575
 30
0.0
 40
3.25
210
0.0
220
0.0
230
1.0
  0
CIRCLE
  8
0
  6
CONTINUOUS
 62
     7
  5
195
 10
452.932747
 20
254.887575
 30
0.0
 40
3.25
210
0.0
220
0.0
230
1.0
  0
CIRCLE
  8
0
  6
CONTINUOUS
 62
     7
  5
196
 10
452.932747
 20
139.887575
 30
0.0
 40
3.25
210
0.0
220
0.0
230
1.0
  0
LINE
  8
0
  6
CONTINUOUS
 62
     9
  5
197
 10
496.182747
 20
265.687575
 30
0.0
 11
493.432747
 21
265.687575
 31
0.0
  0
LINE
  8
0
  6
CONTINUOUS
 62
     7
  5
198
 10
493.432747
 20
267.987575
 30
0.0
 11
493.882747
 21
267.987575
 31
0.0
  0
LINE
  8
0
  6
CONTINUOUS
 62
     7
  5
199
 10
499.432747
 20
46.387575
 30
0.0
 11
499.432747
 21
26.387575
 31
0.0
  0
LINE
  8
0
  6
CONTINUOUS
 62
     7
  5
19A
 10
521.432747
 20
26.387575
 30
0.0
 11
521.432747
 21
46.387575
 31
0.0
  0
LINE
  8
0
  6
CONTINUOUS
 62
     7
  5
19B
 10
556.432747
 20
26.387575
 30
0.0
 11
556.432747
 21
132.387575
 31
0.0
  0
LINE
  8
0
  6
CONTINUOUS
 62
     7
  5
19C
 10
556.432747
 20
262.387575
 30
0.0
 11
556.432747
 21
268.387575
 31
0.0
  0
LINE
  8
0
  6
CONTINUOUS
 62
     7
  5
19D
 10
536.432747
 20
268.387575
 30
0.0
 11
536.432747
 21
262.387575
 31
0.0
  0
LINE
  8
0
  6
CONTINUOUS
 62
     7
  5
19E
 10
536.432747
 20
132.387575
 30
0.0
 11
536.432747
 21
26.387575
 31
0.0
  0
LINE
  8
0
  6
CONTINUOUS
 62
     7
  5
19F
 10
484.432747
 20
26.387575
 30
0.0
 11
484.432747
 21
132.387575
 31
0.0
  0
LINE
  8
0
  6
CONTINUOUS
 62
     7
  5
1A0
 10
484.432747
 20
262.387575
 30
0.0
 11
484.432747
 21
268.387575
 31
0.0
  0
LINE
  8
0
  6
CONTINUOUS
 62
     7
  5
1A1
 10
464.432747
 20
268.387575
 30
0.0
 11
464.432747
 21
262.387575
 31
0.0
  0
LINE
  8
0
  6
CONTINUOUS
 62
     7
  5
1A2
 10
464.432747
 20
132.387575
 30
0.0
 11
464.432747
 21
26.387575
 31
0.0
  0
LINE
  8
0
  6
CONTINUOUS
 62
     7
  5
1A3
 10
518.432747
 20
46.387575
 30
0.0
 11
518.432747
 21
132.387575
 31
0.0
  0
LINE
  8
0
  6
CONTINUOUS
 62
     7
  5
1A4
 10
518.432747
 20
264.887575
 30
0.0
 11
518.432747
 21
268.387575
 31
0.0
  0
LINE
  8
0
  6
CONTINUOUS
 62
     7
  5
1A5
 10
502.432747
 20
268.387575
 30
0.0
 11
502.432747
 21
264.887575
 31
0.0
  0
LINE
  8
0
  6
CONTINUOUS
 62
     7
  5
1A6
 10
502.432747
 20
132.387575
 30
0.0
 11
502.432747
 21
46.387575
 31
0.0
  0
LINE
  8
0
  6
CONTINUOUS
 62
     7
  5
1A7
 10
514.432747
 20
296.387575
 30
0.0
 11
514.432747
 21
311.387575
 31
0.0
  0
LINE
  8
0
  6
CONTINUOUS
 62
     7
  5
1A8
 10
506.432747
 20
311.387575
 30
0.0
 11
506.432747
 21
296.387575
 31
0.0
  0
LINE
  8
0
  6
CONTINUOUS
 62
     7
  5
1A9
 10
535.232747
 20
262.387575
 30
0.0
 11
535.232747
 21
264.887575
 31
0.0
  0
LINE
  8
0
  6
CONTINUOUS
 62
     7
  5
1AA
 10
524.682747
 20
265.687575
 30
0.0
 11
524.682747
 21
264.887575
 31
0.0
  0
LINE
  8
0
  6
CONTINUOUS
 62
     7
  5
1AB
 10
535.182747
 20
264.887575
 30
0.0
 11
535.182747
 21
265.687575
 31
0.0
  0
ARC
  8
0
  6
CONTINUOUS
 62
     7
  5
1AC
 10
526.982747
 20
265.687575
 30
0.0
 40
2.3
 50
90.0
 51
180.0
210
0.0
220
0.0
230
1.0
  0
ARC
  8
0
  6
CONTINUOUS
 62
     7
  5
1AD
 10
532.882747
 20
265.687575
 30
0.0
 40
2.3
 50
0.0
 51
90.0
210
0.0
220
0.0
230
1.0
  0
LINE
  8
0
  6
CONTINUOUS
 62
     7
  5
1AE
 10
485.432747
 20
268.387575
 30
0.0
 11
485.432747
 21
262.387575
 31
0.0
  0
LINE
  8
0
  6
CONTINUOUS
 62
     7
  5
1AF
 10
493.432747
 20
262.387575
 30
0.0
 11
493.432747
 21
268.387575
 31
0.0
  0
ARC
  8
0
  6
CONTINUOUS
 62
     7
  5
1B0
 10
493.882747
 20
265.687575
 30
0.0
 40
2.3
 50
0.0
 51
90.0
210
0.0
220
0.0
230
1.0
  0
LINE
  8
0
  6
CONTINUOUS
 62
     7
  5
1B1
 10
496.182747
 20
264.887575
 30
0.0
 11
496.182747
 21
265.687575
 31
0.0
  0
ENDBLK
  8
0
  5
1B2
  0
ENDSEC
  0
SECTION
  2
ENTITIES
  0
INSERT
  8
0
  5
93
  2
AID3
 10
0.0
 20
0.0
 30
0.0
  0
INSERT
  8
0
  5
D6
  2
AID221
 10
0.0
 20
0.0
 30
0.0
  0
INSERT
  8
0
  5
118
  2
AID351
 10
0.0
 20
0.0
 30
0.0
  0
INSERT
  8
0
  5
135
  2
AID479
 10
0.0
 20
0.0
 30
0.0
  0
INSERT
  8
0
  5
161
  2
AID533
 10
0.0
 20
0.0
 30
0.0
  0
INSERT
  8
0
  5
1B3
  2
AID631
 10
0.0
 20
0.0
 30
0.0
  0
LINE
  8
0
  6
CENTER
 62
     1
  5
1B4
 10
138.94068
 20
389.363285
 30
0.0
 11
151.14068
 21
389.363285
 31
0.0
  0
LINE
  8
0
  6
CENTER
 62
     1
  5
1B5
 10
145.04068
 20
383.263285
 30
0.0
 11
145.04068
 21
395.463285
 31
0.0
  0
LINE
  8
0
  6
CENTER
 62
     1
  5
1B6
 10
138.94068
 20
419.363285
 30
0.0
 11
151.14068
 21
419.363285
 31
0.0
  0
LINE
  8
0
  6
CENTER
 62
     1
  5
1B7
 10
145.04068
 20
413.263285
 30
0.0
 11
145.04068
 21
425.463285
 31
0.0
  0
LINE
  8
0
  6
CENTER
 62
     1
  5
1B8
 10
168.94068
 20
389.363285
 30
0.0
 11
181.14068
 21
389.363285
 31
0.0
  0
LINE
  8
0
  6
CENTER
 62
     1
  5
1B9
 10
175.04068
 20
383.263285
 30
0.0
 11
175.04068
 21
395.463285
 31
0.0
  0
LINE
  8
0
  6
CENTER
 62
     1
  5
1BA
 10
168.94068
 20
419.363285
 30
0.0
 11
181.14068
 21
419.363285
 31
0.0
  0
LINE
  8
0
  6
CENTER
 62
     1
  5
1BB
 10
175.04068
 20
413.263285
 30
0.0
 11
175.04068
 21
425.463285
 31
0.0
  0
LINE
  8
0
  6
CENTER
 62
     1
  5
1BC
 10
214.04068
 20
362.363285
 30
0.0
 11
214.04068
 21
418.363285
 31
0.0
  0
LINE
  8
0
  6
CENTER
 62
     1
  5
1BD
 10
106.04068
 20
362.363285
 30
0.0
 11
106.04068
 21
418.363285
 31
0.0
  0
LINE
  8
0
  6
CENTER
 62
     1
  5
1BE
 10
8.593147
 20
314.387575
 30
0.0
 11
8.593147
 21
293.387575
 31
0.0
  0
LINE
  8
0
  6
CENTER
 62
     1
  5
1BF
 10
-5.406853
 20
16.387575
 30
0.0
 11
50.593147
 21
16.387575
 31
0.0
  0
LINE
  8
0
  6
CENTER
 62
     1
  5
1C0
 10
50.593147
 20
278.387575
 30
0.0
 11
-5.406853
 21
278.387575
 31
0.0
  0
LINE
  8
0
  6
CENTER
 62
     1
  5
1C1
 10
8.593147
 20
23.387575
 30
0.0
 11
8.593147
 21
271.387575
 31
0.0
  0
LINE
  8
0
  6
CENTER
 62
     1
  5
1C2
 10
124.04068
 20
271.387575
 30
0.0
 11
124.04068
 21
23.387575
 31
0.0
  0
LINE
  8
0
  6
CENTER
 62
     1
  5
1C3
 10
196.04068
 20
271.387575
 30
0.0
 11
196.04068
 21
23.387575
 31
0.0
  0
LINE
  8
0
  6
CENTER
 62
     1
  5
1C4
 10
160.04068
 20
314.387575
 30
0.0
 11
160.04068
 21
293.387575
 31
0.0
  0
LINE
  8
0
  6
CENTER
 62
     1
  5
1C5
 10
95.54068
 20
139.887575
 30
0.0
 11
109.54068
 21
139.887575
 31
0.0
  0
LINE
  8
0
  6
CENTER
 62
     1
  5
1C6
 10
102.54068
 20
132.887575
 30
0.0
 11
102.54068
 21
146.887575
 31
0.0
  0
LINE
  8
0
  6
CENTER
 62
     1
  5
1C7
 10
95.54068
 20
254.887575
 30
0.0
 11
109.54068
 21
254.887575
 31
0.0
  0
LINE
  8
0
  6
CENTER
 62
     1
  5
1C8
 10
102.54068
 20
247.887575
 30
0.0
 11
102.54068
 21
261.887575
 31
0.0
  0
LINE
  8
0
  6
CENTER
 62
     1
  5
1C9
 10
94.04068
 20
16.387575
 30
0.0
 11
118.04068
 21
16.387575
 31
0.0
  0
LINE
  8
0
  6
CENTER
 62
     1
  5
1CA
 10
106.04068
 20
4.387575
 30
0.0
 11
106.04068
 21
28.387575
 31
0.0
  0
LINE
  8
0
  6
CENTER
 62
     1
  5
1CB
 10
94.04068
 20
278.387575
 30
0.0
 11
118.04068
 21
278.387575
 31
0.0
  0
LINE
  8
0
  6
CENTER
 62
     1
  5
1CC
 10
106.04068
 20
266.387575
 30
0.0
 11
106.04068
 21
290.387575
 31
0.0
  0
LINE
  8
0
  6
CENTER
 62
     1
  5
1CD
 10
202.04068
 20
16.387575
 30
0.0
 11
226.04068
 21
16.387575
 31
0.0
  0
LINE
  8
0
  6
CENTER
 62
     1
  5
1CE
 10
214.04068
 20
4.387575
 30
0.0
 11
214.04068
 21
28.387575
 31
0.0
  0
LINE
  8
0
  6
CENTER
 62
     1
  5
1CF
 10
202.04068
 20
278.387575
 30
0.0
 11
226.04068
 21
278.387575
 31
0.0
  0
LINE
  8
0
  6
CENTER
 62
     1
  5
1D0
 10
214.04068
 20
266.387575
 30
0.0
 11
214.04068
 21
290.387575
 31
0.0
  0
LINE
  8
0
  6
CENTER
 62
     1
  5
1D1
 10
210.54068
 20
139.887575
 30
0.0
 11
224.54068
 21
139.887575
 31
0.0
  0
LINE
  8
0
  6
CENTER
 62
     1
  5
1D2
 10
217.54068
 20
132.887575
 30
0.0
 11
217.54068
 21
146.887575
 31
0.0
  0
LINE
  8
0
  6
CENTER
 62
     1
  5
1D3
 10
210.54068
 20
254.887575
 30
0.0
 11
224.54068
 21
254.887575
 31
0.0
  0
LINE
  8
0
  6
CENTER
 62
     1
  5
1D4
 10
217.54068
 20
247.887575
 30
0.0
 11
217.54068
 21
261.887575
 31
0.0
  0
LINE
  8
0
  6
CENTER
 62
     1
  5
1D5
 10
160.04068
 20
23.387575
 30
0.0
 11
160.04068
 21
271.387575
 31
0.0
  0
LINE
  8
0
  6
CENTER
 62
     1
  5
1D6
 10
333.252667
 20
314.387575
 30
0.0
 11
333.252667
 21
293.387575
 31
0.0
  0
LINE
  8
0
  6
CENTER
 62
     1
  5
1D7
 10
291.252667
 20
16.387575
 30
0.0
 11
358.252667
 21
16.387575
 31
0.0
  0
LINE
  8
0
  6
CENTER
 62
     1
  5
1D8
 10
291.252667
 20
278.387575
 30
0.0
 11
347.252667
 21
278.387575
 31
0.0
  0
LINE
  8
0
  6
CENTER
 62
     1
  5
1D9
 10
333.252667
 20
23.387575
 30
0.0
 11
333.252667
 21
271.387575
 31
0.0
  0
LINE
  8
0
  6
CENTER
 62
     1
  5
1DA
 10
546.432747
 20
271.387575
 30
0.0
 11
546.432747
 21
23.387575
 31
0.0
  0
LINE
  8
0
  6
CENTER
 62
     1
  5
1DB
 10
474.432747
 20
271.387575
 30
0.0
 11
474.432747
 21
23.387575
 31
0.0
  0
LINE
  8
0
  6
CENTER
 62
     1
  5
1DC
 10
510.432747
 20
314.387575
 30
0.0
 11
510.432747
 21
293.387575
 31
0.0
  0
LINE
  8
0
  6
CENTER
 62
     1
  5
1DD
 10
444.432747
 20
139.887575
 30
0.0
 11
461.432747
 21
139.887575
 31
0.0
  0
LINE
  8
0
  6
CENTER
 62
     1
  5
1DE
 10
452.932747
 20
131.387575
 30
0.0
 11
452.932747
 21
148.387575
 31
0.0
  0
LINE
  8
0
  6
CENTER
 62
     1
  5
1DF
 10
444.432747
 20
254.887575
 30
0.0
 11
461.432747
 21
254.887575
 31
0.0
  0
LINE
  8
0
  6
CENTER
 62
     1
  5
1E0
 10
452.932747
 20
246.387575
 30
0.0
 11
452.932747
 21
263.387575
 31
0.0
  0
LINE
  8
0
  6
CENTER
 62
     1
  5
1E1
 10
447.932747
 20
16.387575
 30
0.0
 11
464.932747
 21
16.387575
 31
0.0
  0
LINE
  8
0
  6
CENTER
 62
     1
  5
1E2
 10
456.432747
 20
7.887575
 30
0.0
 11
456.432747
 21
24.887575
 31
0.0
  0
LINE
  8
0
  6
CENTER
 62
     1
  5
1E3
 10
447.932747
 20
278.387575
 30
0.0
 11
464.932747
 21
278.387575
 31
0.0
  0
LINE
  8
0
  6
CENTER
 62
     1
  5
1E4
 10
456.432747
 20
269.887575
 30
0.0
 11
456.432747
 21
286.887575
 31
0.0
  0
LINE
  8
0
  6
CENTER
 62
     1
  5
1E5
 10
555.932747
 20
16.387575
 30
0.0
 11
572.932747
 21
16.387575
 31
0.0
  0
LINE
  8
0
  6
CENTER
 62
     1
  5
1E6
 10
564.432747
 20
7.887575
 30
0.0
 11
564.432747
 21
24.887575
 31
0.0
  0
LINE
  8
0
  6
CENTER
 62
     1
  5
1E7
 10
555.932747
 20
278.387575
 30
0.0
 11
572.932747
 21
278.387575
 31
0.0
  0
LINE
  8
0
  6
CENTER
 62
     1
  5
1E8
 10
564.432747
 20
269.887575
 30
0.0
 11
564.432747
 21
286.887575
 31
0.0
  0
LINE
  8
0
  6
CENTER
 62
     1
  5
1E9
 10
559.432747
 20
139.887575
 30
0.0
 11
576.432747
 21
139.887575
 31
0.0
  0
LINE
  8
0
  6
CENTER
 62
     1
  5
1EA
 10
567.932747
 20
131.387575
 30
0.0
 11
567.932747
 21
148.387575
 31
0.0
  0
LINE
  8
0
  6
CENTER
 62
     1
  5
1EB
 10
559.432747
 20
254.887575
 30
0.0
 11
576.432747
 21
254.887575
 31
0.0
  0
LINE
  8
0
  6
CENTER
 62
     1
  5
1EC
 10
567.932747
 20
246.387575
 30
0.0
 11
567.932747
 21
263.387575
 31
0.0
  0
LINE
  8
0
  6
CENTER
 62
     1
  5
1ED
 10
510.432747
 20
23.387575
 30
0.0
 11
510.432747
 21
271.387575
 31
0.0
  0
LINE
  8
0
  6
CENTER
 62
     1
  5
1EE
 10
126.94068
 20
-116.204151
 30
0.0
 11
139.14068
 21
-116.204151
 31
0.0
  0
LINE
  8
0
  6
CENTER
 62
     1
  5
1EF
 10
133.04068
 20
-122.304151
 30
0.0
 11
133.04068
 21
-110.104151
 31
0.0
  0
LINE
  8
0
  6
CENTER
 62
     1
  5
1F0
 10
126.94068
 20
-86.204151
 30
0.0
 11
139.14068
 21
-86.204151
 31
0.0
  0
LINE
  8
0
  6
CENTER
 62
     1
  5
1F1
 10
133.04068
 20
-92.304151
 30
0.0
 11
133.04068
 21
-80.104151
 31
0.0
  0
LINE
  8
0
  6
CENTER
 62
     1
  5
1F2
 10
130.53068
 20
-93.204151
 30
0.0
 11
140.55068
 21
-93.204151
 31
0.0
  0
LINE
  8
0
  6
CENTER
 62
     1
  5
1F3
 10
135.54068
 20
-98.214151
 30
0.0
 11
135.54068
 21
-88.194151
 31
0.0
  0
LINE
  8
0
  6
CENTER
 62
     1
  5
1F4
 10
153.04068
 20
-101.204151
 30
0.0
 11
167.04068
 21
-101.204151
 31
0.0
  0
LINE
  8
0
  6
CENTER
 62
     1
  5
1F5
 10
160.04068
 20
-108.204151
 30
0.0
 11
160.04068
 21
-94.204151
 31
0.0
  0
LINE
  8
0
  6
CENTER
 62
     1
  5
1F6
 10
179.53068
 20
-109.204151
 30
0.0
 11
189.55068
 21
-109.204151
 31
0.0
  0
LINE
  8
0
  6
CENTER
 62
     1
  5
1F7
 10
184.54068
 20
-114.214151
 30
0.0
 11
184.54068
 21
-104.194151
 31
0.0
  0
LINE
  8
0
  6
CENTER
 62
     1
  5
1F8
 10
180.94068
 20
-116.204151
 30
0.0
 11
193.14068
 21
-116.204151
 31
0.0
  0
LINE
  8
0
  6
CENTER
 62
     1
  5
1F9
 10
187.04068
 20
-122.304151
 30
0.0
 11
187.04068
 21
-110.104151
 31
0.0
  0
LINE
  8
0
  6
CENTER
 62
     1
  5
1FA
 10
180.94068
 20
-86.204151
 30
0.0
 11
193.14068
 21
-86.204151
 31
0.0
  0
LINE
  8
0
  6
CENTER
 62
     1
  5
1FB
 10
187.04068
 20
-92.304151
 30
0.0
 11
187.04068
 21
-80.104151
 31
0.0
  0
LINE
  8
0
  6
CENTER
 62
     1
  5
1FC
 10
106.04068
 20
-59.204151
 30
0.0
 11
106.04068
 21
-115.204151
 31
0.0
  0
LINE
  8
0
  6
CENTER
 62
     1
  5
1FD
 10
214.04068
 20
-59.204151
 30
0.0
 11
214.04068
 21
-115.204151
 31
0.0
  0
ENDSEC
  0
EOF
