  0
SECTION
  2
HEADER
  9
$ACADVER
  1
AC1009
  9
$DWGCODEPAGE
  3
ansi_1252
  9
$INSBASE
 10
0.0
 20
0.0
 30
0.0
  9
$EXTMIN
 10
-43.364659
 20
-156.474429
 30
0.0
  9
$EXTMAX
 10
652.798997
 20
459.98397
 30
5.0
  9
$LIMMIN
 10
-43.364659
 20
-156.474429
  9
$LIMMAX
 10
652.798997
 20
459.98397
  9
$ORTHOMODE
 70
     0
  9
$REGENMODE
 70
     1
  9
$FILLMODE
 70
     1
  9
$QTEXTMODE
 70
     0
  9
$MIRRTEXT
 70
     1
  9
$DRAGMODE
 70
     2
  9
$LTSCALE
 40
10.0
  9
$OSMODE
 70
     0
  9
$ATTMODE
 70
     1
  9
$TEXTSIZE
 40
0.2
  9
$TRACEWID
 40
0.05
  9
$TEXTSTYLE
  7
STANDARD
  9
$CLAYER
  8
0
  9
$CELTYPE
  6
CONTINUOUS
  9
$CECOLOR
 62
   256
  9
$DIMSCALE
 40
1.0
  9
$DIMASZ
 40
1.25
  9
$DIMEXO
 40
1.0
  9
$DIMDLI
 40
0.38
  9
$DIMRND
 40
0.0
  9
$DIMDLE
 40
0.0
  9
$DIMEXE
 40
0.75
  9
$DIMTP
 40
0.0
  9
$DIMTM
 40
0.0
  9
$DIMTXT
 40
2.5
  9
$DIMCEN
 40
0.09
  9
$DIMTSZ
 40
0.0
  9
$DIMTOL
 70
     0
  9
$DIMLIM
 70
     0
  9
$DIMTIH
 70
     0
  9
$DIMTOH
 70
     0
  9
$DIMSE1
 70
     0
  9
$DIMSE2
 70
     0
  9
$DIMTAD
 70
     1
  9
$DIMZIN
 70
     0
  9
$DIMBLK
  1

  9
$DIMASO
 70
     1
  9
$DIMSHO
 70
     1
  9
$DIMPOST
  1

  9
$DIMAPOST
  1

  9
$DIMALT
 70
     0
  9
$DIMALTD
 70
     2
  9
$DIMALTF
 40
25.4
  9
$DIMLFAC
 40
1.0
  9
$DIMTOFL
 70
     0
  9
$DIMTVP
 40
0.0
  9
$DIMTIX
 70
     0
  9
$DIMSOXD
 70
     0
  9
$DIMSAH
 70
     0
  9
$DIMBLK1
  1

  9
$DIMBLK2
  1

  9
$DIMSTYLE
  2
STANDARD
  9
$DIMCLRD
 70
     7
  9
$DIMCLRE
 70
     7
  9
$DIMCLRT
 70
     7
  9
$DIMTFAC
 40
0.8
  9
$DIMGAP
 40
1.25
  9
$LUNITS
 70
     2
  9
$LUPREC
 70
     4
  9
$AXISMODE
 70
     0
  9
$AXISUNIT
 10
0.0
 20
0.0
  9
$SKETCHINC
 40
0.1
  9
$FILLETRAD
 40
0.0
  9
$AUNITS
 70
     0
  9
$AUPREC
 70
     0
  9
$MENU
  1
acad
  9
$ELEVATION
 40
0.0
  9
$PELEVATION
 40
0.0
  9
$THICKNESS
 40
0.0
  9
$LIMCHECK
 70
     0
  9
$BLIPMODE
 70
     1
  9
$CHAMFERA
 40
0.0
  9
$CHAMFERB
 40
0.0
  9
$SKPOLY
 70
     0
  9
$TDCREATE
 40
2454285.616840278
  9
$TDUPDATE
 40
2454285.533067130
  9
$TDINDWG
 40
0.0000000000
  9
$TDUSRTIMER
 40
0.0000000000
  9
$USRTIMER
 70
     1
  9
$ANGBASE
 50
0.0
  9
$ANGDIR
 70
     0
  9
$PDMODE
 70
     0
  9
$PDSIZE
 40
0.0
  9
$PLINEWID
 40
0.0
  9
$COORDS
 70
     0
  9
$SPLFRAME
 70
     0
  9
$SPLINETYPE
 70
     6
  9
$SPLINESEGS
 70
     8
  9
$ATTDIA
 70
     0
  9
$ATTREQ
 70
     1
  9
$HANDLING
 70
     1
  9
$HANDSEED
  5
1F2
  9
$SURFTAB1
 70
     6
  9
$SURFTAB2
 70
     6
  9
$SURFTYPE
 70
     6
  9
$SURFU
 70
     6
  9
$SURFV
 70
     6
  9
$UCSNAME
  2

  9
$UCSORG
 10
0.0
 20
0.0
 30
0.0
  9
$UCSXDIR
 10
1.0
 20
0.0
 30
0.0
  9
$UCSYDIR
 10
0.0
 20
1.0
 30
0.0
  9
$PUCSNAME
  2

  9
$PUCSORG
 10
0.0
 20
0.0
 30
0.0
  9
$PUCSXDIR
 10
1.0
 20
0.0
 30
0.0
  9
$PUCSYDIR
 10
0.0
 20
1.0
 30
0.0
  9
$USERI1
 70
     0
  9
$USERI2
 70
     0
  9
$USERI3
 70
     0
  9
$USERI4
 70
     0
  9
$USERI5
 70
     0
  9
$USERR1
 40
0.0
  9
$USERR2
 40
0.0
  9
$USERR3
 40
0.0
  9
$USERR4
 40
0.0
  9
$USERR5
 40
0.0
  9
$WORLDVIEW
 70
     1
  9
$SHADEDGE
 70
     3
  9
$SHADEDIF
 70
    70
  9
$TILEMODE
 70
     1
  9
$MAXACTVP
 70
    16
  9
$PINSBASE
 10
0.0
 20
0.0
 30
0.0
  9
$PLIMCHECK
 70
     0
  9
$PEXTMIN
 10
1.000000E+20
 20
1.000000E+20
 30
1.000000E+20
  9
$PEXTMAX
 10
-1.000000E+20
 20
-1.000000E+20
 30
-1.000000E+20
  9
$PLIMMIN
 10
0.0
 20
0.0
  9
$PLIMMAX
 10
12.0
 20
9.0
  9
$UNITMODE
 70
     0
  9
$VISRETAIN
 70
     0
  9
$PLINEGEN
 70
     1
  9
$PSLTSCALE
 70
     0
  9
$TREEDEPTH
 70
  3020
  0
ENDSEC
  0
SECTION
  2
TABLES
  0
TABLE
  2
VPORT
 70
     1
  0
VPORT
  2
*ACTIVE
 70
     0
 10
0.0
 20
0.0
 11
1.0
 21
1.0
 12
6.591288
 22
4.579184
 13
0.0
 23
0.0
 14
1.0
 24
1.0
 15
0.0
 25
0.0
 16
0.0
 26
0.0
 36
1.0
 17
0.0
 27
0.0
 37
0.0
 40
9.158369
 41
0.688564
 42
50.0
 43
0.0
 44
0.0
 50
0.0
 51
0.0
 71
     0
 72
   100
 73
     1
 74
     1
 75
     0
 76
     0
 77
     0
 78
     0
  0
ENDTAB
  0
TABLE
  2
LTYPE
 70
     2
  0
LTYPE
  2
CONTINUOUS
 70
    64
  3
Solid line
 72
    65
 73
     0
 40
0.0
  0
LTYPE
  2
CENTER
 70
    64
  3
____ _ ____ _ ____ _ ____ _ ____ _ ____ _ ____
 72
    65
 73
     4
 40
2.0
 49
1.25
 49
-0.25
 49
0.25
 49
-0.25
  0
ENDTAB
  0
TABLE
  2
LAYER
 70
     1
  0
LAYER
  2
0
 70
     0
 62
     7
  6
CONTINUOUS
  0
ENDTAB
  0
TABLE
  2
STYLE
 70
     1
  0
STYLE
  2
STANDARD
 70
     0
 40
0.0
 41
1.0
 50
0.0
 71
     0
 42
0.0
  3
IsonormD
  4

  0
ENDTAB
  0
TABLE
  2
VIEW
 70
     0
  0
ENDTAB
  0
TABLE
  2
UCS
 70
     0
  0
ENDTAB
  0
TABLE
  2
APPID
 70
     2
  0
APPID
  2
ACAD
 70
     0
  0
APPID
  2
TopSolid_Draft
 70
     0
  0
ENDTAB
  0
TABLE
  2
DIMSTYLE
 70
     1
  0
DIMSTYLE
  2
STANDARD
 70
     0
  3

  4

  5

  6

  7

 40
1.0
 41
1.25
 42
1.0
 43
0.38
 44
0.75
 45
0.0
 46
0.0
 47
0.0
 48
0.0
 71
     0
 72
     0
 73
     0
 74
     0
 75
     0
 76
     0
 77
     1
 78
     0
140
2.5
141
0.09
142
0.0
143
25.4
144
1.0
145
0.0
146
0.8
147
1.25
170
     0
171
     2
172
     0
173
     0
174
     0
175
     0
176
     7
177
     7
178
     7
  0
ENDTAB
  0
ENDSEC
  0
SECTION
  2
BLOCKS
  0
BLOCK
  8
0
  5
26
  2
AID3
 70
     0
 10
0.0
 20
0.0
 30
0.0
  3
#draft view
  0
CIRCLE
  8
0
  6
CONTINUOUS
 62
     7
  5
27
 10
237.9122
 20
-10.016065
 30
0.0
 40
10.0
210
0.0
220
0.0
230
1.0
  0
CIRCLE
  8
0
  6
CONTINUOUS
 62
     7
  5
28
 10
105.9122
 20
-10.016065
 30
0.0
 40
10.0
210
0.0
220
0.0
230
1.0
  0
LINE
  8
0
  6
CONTINUOUS
 62
     7
  5
29
 10
93.9122
 20
-22.516065
 30
0.0
 11
249.9122
 21
-22.516065
 31
0.0
  0
LINE
  8
0
  6
CONTINUOUS
 62
     7
  5
2A
 10
93.9122
 20
-22.516065
 30
0.0
 11
93.9122
 21
2.483935
 31
0.0
  0
LINE
  8
0
  6
CONTINUOUS
 62
     7
  5
2B
 10
93.9122
 20
2.483935
 30
0.0
 11
249.9122
 21
2.483935
 31
0.0
  0
LINE
  8
0
  6
CONTINUOUS
 62
     7
  5
2C
 10
249.9122
 20
-22.516065
 30
0.0
 11
249.9122
 21
2.483935
 31
0.0
  0
LINE
  8
0
  6
CONTINUOUS
 62
     7
  5
2D
 10
235.025449
 20
-15.016065
 30
0.0
 11
232.138698
 21
-10.016065
 31
0.0
  0
LINE
  8
0
  6
CONTINUOUS
 62
     7
  5
2E
 10
240.798952
 20
-15.016065
 30
0.0
 11
235.025449
 21
-15.016065
 31
0.0
  0
LINE
  8
0
  6
CONTINUOUS
 62
     7
  5
2F
 10
243.685703
 20
-10.016065
 30
0.0
 11
240.798952
 21
-15.016065
 31
0.0
  0
LINE
  8
0
  6
CONTINUOUS
 62
     7
  5
30
 10
240.798952
 20
-5.016065
 30
0.0
 11
243.685703
 21
-10.016065
 31
0.0
  0
LINE
  8
0
  6
CONTINUOUS
 62
     7
  5
31
 10
235.025449
 20
-5.016065
 30
0.0
 11
240.798952
 21
-5.016065
 31
0.0
  0
LINE
  8
0
  6
CONTINUOUS
 62
     7
  5
32
 10
232.138698
 20
-10.016065
 30
0.0
 11
235.025449
 21
-5.016065
 31
0.0
  0
CIRCLE
  8
0
  6
CONTINUOUS
 62
     7
  5
33
 10
237.9122
 20
-10.016065
 30
0.0
 40
9.0
210
0.0
220
0.0
230
1.0
  0
LINE
  8
0
  6
CONTINUOUS
 62
     7
  5
34
 10
103.025449
 20
-15.016065
 30
0.0
 11
100.138698
 21
-10.016065
 31
0.0
  0
LINE
  8
0
  6
CONTINUOUS
 62
     7
  5
35
 10
108.798952
 20
-15.016065
 30
0.0
 11
103.025449
 21
-15.016065
 31
0.0
  0
LINE
  8
0
  6
CONTINUOUS
 62
     7
  5
36
 10
111.685703
 20
-10.016065
 30
0.0
 11
108.798952
 21
-15.016065
 31
0.0
  0
LINE
  8
0
  6
CONTINUOUS
 62
     7
  5
37
 10
103.025449
 20
-5.016065
 30
0.0
 11
108.798952
 21
-5.016065
 31
0.0
  0
LINE
  8
0
  6
CONTINUOUS
 62
     7
  5
38
 10
100.138698
 20
-10.016065
 30
0.0
 11
103.025449
 21
-5.016065
 31
0.0
  0
CIRCLE
  8
0
  6
CONTINUOUS
 62
     7
  5
39
 10
105.9122
 20
-10.016065
 30
0.0
 40
9.0
210
0.0
220
0.0
230
1.0
  0
LINE
  8
0
  6
CONTINUOUS
 62
     7
  5
3A
 10
108.798952
 20
-5.016065
 30
0.0
 11
111.685703
 21
-10.016065
 31
0.0
  0
LINE
  8
0
  6
CONTINUOUS
 62
     7
  5
3B
 10
93.9122
 20
299.483935
 30
0.0
 11
93.9122
 21
274.483935
 31
0.0
  0
LINE
  8
0
  6
CONTINUOUS
 62
     7
  5
3C
 10
249.9122
 20
299.483935
 30
0.0
 11
93.9122
 21
299.483935
 31
0.0
  0
LINE
  8
0
  6
CONTINUOUS
 62
     7
  5
3D
 10
249.9122
 20
274.483935
 30
0.0
 11
93.9122
 21
274.483935
 31
0.0
  0
LINE
  8
0
  6
CONTINUOUS
 62
     7
  5
3E
 10
249.9122
 20
299.483935
 30
0.0
 11
249.9122
 21
274.483935
 31
0.0
  0
CIRCLE
  8
0
  6
CONTINUOUS
 62
     7
  5
3F
 10
237.9122
 20
286.983935
 30
0.0
 40
10.0
210
0.0
220
0.0
230
1.0
  0
CIRCLE
  8
0
  6
CONTINUOUS
 62
     7
  5
40
 10
105.9122
 20
286.983935
 30
0.0
 40
10.0
210
0.0
220
0.0
230
1.0
  0
LINE
  8
0
  6
CONTINUOUS
 62
     7
  5
41
 10
235.025449
 20
281.983935
 30
0.0
 11
232.138698
 21
286.983935
 31
0.0
  0
LINE
  8
0
  6
CONTINUOUS
 62
     7
  5
42
 10
240.798952
 20
281.983935
 30
0.0
 11
235.025449
 21
281.983935
 31
0.0
  0
LINE
  8
0
  6
CONTINUOUS
 62
     7
  5
43
 10
240.798952
 20
291.983935
 30
0.0
 11
243.685703
 21
286.983935
 31
0.0
  0
LINE
  8
0
  6
CONTINUOUS
 62
     7
  5
44
 10
232.138698
 20
286.983935
 30
0.0
 11
235.025449
 21
291.983935
 31
0.0
  0
CIRCLE
  8
0
  6
CONTINUOUS
 62
     7
  5
45
 10
237.9122
 20
286.983935
 30
0.0
 40
9.0
210
0.0
220
0.0
230
1.0
  0
LINE
  8
0
  6
CONTINUOUS
 62
     7
  5
46
 10
235.025449
 20
291.983935
 30
0.0
 11
240.798952
 21
291.983935
 31
0.0
  0
LINE
  8
0
  6
CONTINUOUS
 62
     7
  5
47
 10
243.685703
 20
286.983935
 30
0.0
 11
240.798952
 21
281.983935
 31
0.0
  0
LINE
  8
0
  6
CONTINUOUS
 62
     7
  5
48
 10
103.025449
 20
281.983935
 30
0.0
 11
100.138698
 21
286.983935
 31
0.0
  0
LINE
  8
0
  6
CONTINUOUS
 62
     7
  5
49
 10
108.798952
 20
281.983935
 30
0.0
 11
103.025449
 21
281.983935
 31
0.0
  0
LINE
  8
0
  6
CONTINUOUS
 62
     7
  5
4A
 10
111.685703
 20
286.983935
 30
0.0
 11
108.798952
 21
281.983935
 31
0.0
  0
LINE
  8
0
  6
CONTINUOUS
 62
     7
  5
4B
 10
108.798952
 20
291.983935
 30
0.0
 11
111.685703
 21
286.983935
 31
0.0
  0
LINE
  8
0
  6
CONTINUOUS
 62
     7
  5
4C
 10
103.025449
 20
291.983935
 30
0.0
 11
108.798952
 21
291.983935
 31
0.0
  0
LINE
  8
0
  6
CONTINUOUS
 62
     7
  5
4D
 10
100.138698
 20
286.983935
 30
0.0
 11
103.025449
 21
291.983935
 31
0.0
  0
CIRCLE
  8
0
  6
CONTINUOUS
 62
     7
  5
4E
 10
105.9122
 20
286.983935
 30
0.0
 40
9.0
210
0.0
220
0.0
230
1.0
  0
LINE
  8
0
  6
CONTINUOUS
 62
     7
  5
4F
 10
194.6622
 20
307.483935
 30
0.0
 11
194.6622
 21
299.483935
 31
0.0
  0
LINE
  8
0
  6
CONTINUOUS
 62
     9
  5
50
 10
187.6622
 20
299.483935
 30
0.0
 11
187.6622
 21
307.483935
 31
0.0
  0
LINE
  8
0
  6
CONTINUOUS
 62
     7
  5
51
 10
187.6622
 20
307.483935
 30
0.0
 11
194.6622
 21
307.483935
 31
0.0
  0
LINE
  8
0
  6
CONTINUOUS
 62
     9
  5
52
 10
156.1622
 20
307.483935
 30
0.0
 11
156.1622
 21
299.483935
 31
0.0
  0
LINE
  8
0
  6
CONTINUOUS
 62
     7
  5
53
 10
149.1622
 20
299.483935
 30
0.0
 11
149.1622
 21
307.483935
 31
0.0
  0
LINE
  8
0
  6
CONTINUOUS
 62
     7
  5
54
 10
149.1622
 20
307.483935
 30
0.0
 11
156.1622
 21
307.483935
 31
0.0
  0
LINE
  8
0
  6
CONTINUOUS
 62
     7
  5
55
 10
187.6622
 20
307.483935
 30
0.0
 11
156.1622
 21
307.483935
 31
0.0
  0
LINE
  8
0
  6
CONTINUOUS
 62
     7
  5
56
 10
182.9122
 20
22.483935
 30
0.0
 11
171.9122
 21
22.483935
 31
0.0
  0
LINE
  8
0
  6
CONTINUOUS
 62
     7
  5
57
 10
171.9122
 20
22.483935
 30
0.0
 11
160.9122
 21
22.483935
 31
0.0
  0
LINE
  8
0
  6
CONTINUOUS
 62
     7
  5
58
 10
167.9122
 20
322.483935
 30
0.0
 11
175.9122
 21
322.483935
 31
0.0
  0
CIRCLE
  8
0
  6
CONTINUOUS
 62
     7
  5
59
 10
101.9122
 20
258.483935
 30
0.0
 40
4.188
210
0.0
220
0.0
230
1.0
  0
CIRCLE
  8
0
  6
CONTINUOUS
 62
     7
  5
5A
 10
101.9122
 20
258.483935
 30
0.0
 40
5.0
210
0.0
220
0.0
230
1.0
  0
CIRCLE
  8
0
  6
CONTINUOUS
 62
     7
  5
5B
 10
101.9122
 20
118.483935
 30
0.0
 40
5.0
210
0.0
220
0.0
230
1.0
  0
CIRCLE
  8
0
  6
CONTINUOUS
 62
     7
  5
5C
 10
241.9122
 20
258.483935
 30
0.0
 40
5.0
210
0.0
220
0.0
230
1.0
  0
CIRCLE
  8
0
  6
CONTINUOUS
 62
     7
  5
5D
 10
241.9122
 20
118.483935
 30
0.0
 40
5.0
210
0.0
220
0.0
230
1.0
  0
LINE
  8
0
  6
CONTINUOUS
 62
     7
  5
5E
 10
91.9122
 20
108.483935
 30
0.0
 11
91.9122
 21
268.483935
 31
0.0
  0
LINE
  8
0
  6
CONTINUOUS
 62
     7
  5
5F
 10
251.9122
 20
268.483935
 30
0.0
 11
251.9122
 21
108.483935
 31
0.0
  0
LINE
  8
0
  6
CONTINUOUS
 62
     7
  5
60
 10
91.9122
 20
268.483935
 30
0.0
 11
251.9122
 21
268.483935
 31
0.0
  0
LINE
  8
0
  6
CONTINUOUS
 62
     7
  5
61
 10
251.9122
 20
108.483935
 30
0.0
 11
91.9122
 21
108.483935
 31
0.0
  0
CIRCLE
  8
0
  6
CONTINUOUS
 62
     7
  5
62
 10
241.9122
 20
118.483935
 30
0.0
 40
4.188
210
0.0
220
0.0
230
1.0
  0
CIRCLE
  8
0
  6
CONTINUOUS
 62
     7
  5
63
 10
241.9122
 20
258.483935
 30
0.0
 40
4.188
210
0.0
220
0.0
230
1.0
  0
CIRCLE
  8
0
  6
CONTINUOUS
 62
     7
  5
64
 10
101.9122
 20
118.483935
 30
0.0
 40
4.188
210
0.0
220
0.0
230
1.0
  0
LINE
  8
0
  6
CONTINUOUS
 62
     9
  5
65
 10
150.654622
 20
270.983935
 30
0.0
 11
150.654622
 21
268.483935
 31
0.0
  0
LINE
  8
0
  6
CONTINUOUS
 62
     9
  5
66
 10
171.9122
 20
270.983935
 30
0.0
 11
171.9122
 21
268.483935
 31
0.0
  0
LINE
  8
0
  6
CONTINUOUS
 62
     7
  5
67
 10
150.654622
 20
270.983935
 30
0.0
 11
171.9122
 21
270.983935
 31
0.0
  0
LINE
  8
0
  6
CONTINUOUS
 62
     9
  5
68
 10
191.4122
 20
270.983935
 30
0.0
 11
191.4122
 21
268.483935
 31
0.0
  0
LINE
  8
0
  6
CONTINUOUS
 62
     7
  5
69
 10
191.4122
 20
270.983935
 30
0.0
 11
196.7122
 21
270.983935
 31
0.0
  0
LINE
  8
0
  6
CONTINUOUS
 62
     7
  5
6A
 10
171.9122
 20
270.983935
 30
0.0
 11
191.4122
 21
270.983935
 31
0.0
  0
LINE
  8
0
  6
CONTINUOUS
 62
     9
  5
6B
 10
196.6622
 20
271.783935
 30
0.0
 11
186.1622
 21
271.783935
 31
0.0
  0
LINE
  8
0
  6
CONTINUOUS
 62
     7
  5
6C
 10
188.4622
 20
274.083935
 30
0.0
 11
194.3622
 21
274.083935
 31
0.0
  0
LINE
  8
0
  6
CONTINUOUS
 62
     9
  5
6D
 10
147.19622
 20
270.983935
 30
0.0
 11
147.19622
 21
268.483935
 31
0.0
  0
LINE
  8
0
  6
CONTINUOUS
 62
     7
  5
6E
 10
147.19622
 20
270.983935
 30
0.0
 11
150.654622
 21
270.983935
 31
0.0
  0
LINE
  8
0
  6
CONTINUOUS
 62
     9
  5
6F
 10
157.6622
 20
271.783935
 30
0.0
 11
147.1622
 21
271.783935
 31
0.0
  0
LINE
  8
0
  6
CONTINUOUS
 62
     7
  5
70
 10
149.4622
 20
274.083935
 30
0.0
 11
155.3622
 21
274.083935
 31
0.0
  0
LINE
  8
0
  6
CONTINUOUS
 62
     7
  5
71
 10
147.1122
 20
270.983935
 30
0.0
 11
147.19622
 21
270.983935
 31
0.0
  0
LINE
  8
0
  6
CONTINUOUS
 62
     7
  5
72
 10
228.4122
 20
2.483935
 30
0.0
 11
228.4122
 21
108.483935
 31
0.0
  0
LINE
  8
0
  6
CONTINUOUS
 62
     7
  5
73
 10
228.4122
 20
268.483935
 30
0.0
 11
228.4122
 21
274.483935
 31
0.0
  0
LINE
  8
0
  6
CONTINUOUS
 62
     7
  5
74
 10
203.4122
 20
274.483935
 30
0.0
 11
203.4122
 21
268.483935
 31
0.0
  0
LINE
  8
0
  6
CONTINUOUS
 62
     7
  5
75
 10
203.4122
 20
108.483935
 30
0.0
 11
203.4122
 21
2.483935
 31
0.0
  0
LINE
  8
0
  6
CONTINUOUS
 62
     7
  5
76
 10
140.4122
 20
2.483935
 30
0.0
 11
140.4122
 21
108.483935
 31
0.0
  0
LINE
  8
0
  6
CONTINUOUS
 62
     7
  5
77
 10
140.4122
 20
268.483935
 30
0.0
 11
140.4122
 21
274.483935
 31
0.0
  0
LINE
  8
0
  6
CONTINUOUS
 62
     7
  5
78
 10
115.4122
 20
274.483935
 30
0.0
 11
115.4122
 21
268.483935
 31
0.0
  0
LINE
  8
0
  6
CONTINUOUS
 62
     7
  5
79
 10
115.4122
 20
108.483935
 30
0.0
 11
115.4122
 21
2.483935
 31
0.0
  0
LINE
  8
0
  6
CONTINUOUS
 62
     7
  5
7A
 10
160.9122
 20
22.483935
 30
0.0
 11
160.9122
 21
2.483935
 31
0.0
  0
LINE
  8
0
  6
CONTINUOUS
 62
     7
  5
7B
 10
182.9122
 20
2.483935
 30
0.0
 11
182.9122
 21
22.483935
 31
0.0
  0
LINE
  8
0
  6
CONTINUOUS
 62
     7
  5
7C
 10
179.9122
 20
22.483935
 30
0.0
 11
179.9122
 21
108.483935
 31
0.0
  0
LINE
  8
0
  6
CONTINUOUS
 62
     7
  5
7D
 10
179.9122
 20
270.983935
 30
0.0
 11
179.9122
 21
274.483935
 31
0.0
  0
LINE
  8
0
  6
CONTINUOUS
 62
     7
  5
7E
 10
163.9122
 20
274.483935
 30
0.0
 11
163.9122
 21
270.983935
 31
0.0
  0
LINE
  8
0
  6
CONTINUOUS
 62
     7
  5
7F
 10
163.9122
 20
108.483935
 30
0.0
 11
163.9122
 21
22.483935
 31
0.0
  0
LINE
  8
0
  6
CONTINUOUS
 62
     7
  5
80
 10
175.9122
 20
307.483935
 30
0.0
 11
175.9122
 21
322.483935
 31
0.0
  0
LINE
  8
0
  6
CONTINUOUS
 62
     7
  5
81
 10
167.9122
 20
322.483935
 30
0.0
 11
167.9122
 21
307.483935
 31
0.0
  0
LINE
  8
0
  6
CONTINUOUS
 62
     7
  5
82
 10
196.7122
 20
268.483935
 30
0.0
 11
196.7122
 21
270.983935
 31
0.0
  0
LINE
  8
0
  6
CONTINUOUS
 62
     7
  5
83
 10
186.1622
 20
271.783935
 30
0.0
 11
186.1622
 21
270.983935
 31
0.0
  0
LINE
  8
0
  6
CONTINUOUS
 62
     7
  5
84
 10
196.6622
 20
270.983935
 30
0.0
 11
196.6622
 21
271.783935
 31
0.0
  0
ARC
  8
0
  6
CONTINUOUS
 62
     7
  5
85
 10
188.4622
 20
271.783935
 30
0.0
 40
2.3
 50
90.0
 51
180.0
210
0.0
220
0.0
230
1.0
  0
ARC
  8
0
  6
CONTINUOUS
 62
     7
  5
86
 10
194.3622
 20
271.783935
 30
0.0
 40
2.3
 50
0.0
 51
90.0
210
0.0
220
0.0
230
1.0
  0
LINE
  8
0
  6
CONTINUOUS
 62
     7
  5
87
 10
147.1622
 20
271.783935
 30
0.0
 11
147.1622
 21
270.983935
 31
0.0
  0
LINE
  8
0
  6
CONTINUOUS
 62
     7
  5
88
 10
157.6622
 20
270.983935
 30
0.0
 11
157.6622
 21
271.783935
 31
0.0
  0
ARC
  8
0
  6
CONTINUOUS
 62
     7
  5
89
 10
149.4622
 20
271.783935
 30
0.0
 40
2.3
 50
90.0
 51
180.0
210
0.0
220
0.0
230
1.0
  0
ARC
  8
0
  6
CONTINUOUS
 62
     7
  5
8A
 10
155.3622
 20
271.783935
 30
0.0
 40
2.3
 50
0.0
 51
90.0
210
0.0
220
0.0
230
1.0
  0
LINE
  8
0
  6
CONTINUOUS
 62
     7
  5
8B
 10
147.1122
 20
270.983935
 30
0.0
 11
147.1122
 21
268.483935
 31
0.0
  0
LINE
  8
0
  6
CONTINUOUS
 62
     7
  5
8C
 10
191.9122
 20
274.483935
 30
0.0
 11
191.9122
 21
274.083935
 31
0.0
  0
LINE
  8
0
  6
CONTINUOUS
 62
     7
  5
8D
 10
199.9122
 20
268.483935
 30
0.0
 11
199.9122
 21
274.483935
 31
0.0
  0
ENDBLK
  8
0
  5
8E
  0
BLOCK
  8
0
  5
91
  2
AID213
 70
     0
 10
0.0
 20
0.0
 30
0.0
  3
#auxiliary draft view
  0
LINE
  8
0
  6
CONTINUOUS
 62
     7
  5
92
 10
-40.176659
 20
299.483935
 30
0.0
 11
-40.176659
 21
274.483935
 31
0.0
  0
LINE
  8
0
  6
CONTINUOUS
 62
     7
  5
93
 10
16.823341
 20
299.483935
 30
0.0
 11
-40.176659
 21
299.483935
 31
0.0
  0
LINE
  8
0
  6
CONTINUOUS
 62
     7
  5
94
 10
16.823341
 20
299.483935
 30
0.0
 11
16.823341
 21
274.483935
 31
0.0
  0
LINE
  8
0
  6
CONTINUOUS
 62
     7
  5
95
 10
16.823341
 20
274.483935
 30
0.0
 11
-40.176659
 21
274.483935
 31
0.0
  0
LINE
  8
0
  6
CONTINUOUS
 62
     7
  5
96
 10
-40.176659
 20
-22.516065
 30
0.0
 11
16.823341
 21
-22.516065
 31
0.0
  0
LINE
  8
0
  6
CONTINUOUS
 62
     7
  5
97
 10
16.823341
 20
-22.516065
 30
0.0
 11
16.823341
 21
2.483935
 31
0.0
  0
LINE
  8
0
  6
CONTINUOUS
 62
     7
  5
98
 10
-40.176659
 20
2.483935
 30
0.0
 11
16.823341
 21
2.483935
 31
0.0
  0
LINE
  8
0
  6
CONTINUOUS
 62
     7
  5
99
 10
-40.176659
 20
-22.516065
 30
0.0
 11
-40.176659
 21
2.483935
 31
0.0
  0
LINE
  8
0
  6
CONTINUOUS
 62
     7
  5
9A
 10
30.948341
 20
-16.016065
 30
0.0
 11
30.948341
 21
-4.016065
 31
0.0
  0
LINE
  8
0
  6
CONTINUOUS
 62
     7
  5
9B
 10
31.823341
 20
-4.891065
 30
0.0
 11
31.823341
 21
-15.141065
 31
0.0
  0
LINE
  8
0
  6
CONTINUOUS
 62
     7
  5
9C
 10
30.948341
 20
280.983935
 30
0.0
 11
30.948341
 21
292.983935
 31
0.0
  0
LINE
  8
0
  6
CONTINUOUS
 62
     7
  5
9D
 10
31.823341
 20
292.108935
 30
0.0
 11
31.823341
 21
281.858935
 31
0.0
  0
LINE
  8
0
  6
CONTINUOUS
 62
     9
  5
9E
 10
2.573341
 20
299.483935
 30
0.0
 11
2.573341
 21
307.483935
 31
0.0
  0
LINE
  8
0
  6
CONTINUOUS
 62
     9
  5
9F
 10
-28.926659
 20
307.483935
 30
0.0
 11
-28.926659
 21
299.483935
 31
0.0
  0
LINE
  8
0
  6
CONTINUOUS
 62
     7
  5
A0
 10
2.573341
 20
307.483935
 30
0.0
 11
-28.926659
 21
307.483935
 31
0.0
  0
LINE
  8
0
  6
CONTINUOUS
 62
     7
  5
A1
 10
-35.926659
 20
299.483935
 30
0.0
 11
-35.926659
 21
307.483935
 31
0.0
  0
LINE
  8
0
  6
CONTINUOUS
 62
     7
  5
A2
 10
-35.926659
 20
307.483935
 30
0.0
 11
-28.926659
 21
307.483935
 31
0.0
  0
LINE
  8
0
  6
CONTINUOUS
 62
     7
  5
A3
 10
9.573341
 20
307.483935
 30
0.0
 11
9.573341
 21
299.483935
 31
0.0
  0
LINE
  8
0
  6
CONTINUOUS
 62
     7
  5
A4
 10
2.573341
 20
307.483935
 30
0.0
 11
9.573341
 21
307.483935
 31
0.0
  0
LINE
  8
0
  6
CONTINUOUS
 62
     7
  5
A5
 10
-17.176659
 20
322.483935
 30
0.0
 11
-9.176659
 21
322.483935
 31
0.0
  0
LINE
  8
0
  6
CONTINUOUS
 62
     7
  5
A6
 10
14.823341
 20
268.483935
 30
0.0
 11
14.823341
 21
108.483935
 31
0.0
  0
LINE
  8
0
  6
CONTINUOUS
 62
     7
  5
A7
 10
-41.176659
 20
268.483935
 30
0.0
 11
14.823341
 21
268.483935
 31
0.0
  0
LINE
  8
0
  6
CONTINUOUS
 62
     7
  5
A8
 10
-41.176659
 20
108.483935
 30
0.0
 11
14.823341
 21
108.483935
 31
0.0
  0
LINE
  8
0
  6
CONTINUOUS
 62
     7
  5
A9
 10
-41.176659
 20
268.483935
 30
0.0
 11
-41.176659
 21
108.483935
 31
0.0
  0
LINE
  8
0
  6
CONTINUOUS
 62
     7
  5
AA
 10
-34.776659
 20
270.983935
 30
0.0
 11
-34.776659
 21
268.483935
 31
0.0
  0
LINE
  8
0
  6
CONTINUOUS
 62
     9
  5
AB
 10
-28.536684
 20
270.983935
 30
0.0
 11
-28.536684
 21
268.483935
 31
0.0
  0
LINE
  8
0
  6
CONTINUOUS
 62
     7
  5
AC
 10
-34.776659
 20
270.983935
 30
0.0
 11
-28.536684
 21
270.983935
 31
0.0
  0
LINE
  8
0
  6
CONTINUOUS
 62
     7
  5
AD
 10
-32.426659
 20
274.083935
 30
0.0
 11
-26.526659
 21
274.083935
 31
0.0
  0
LINE
  8
0
  6
CONTINUOUS
 62
     9
  5
AE
 10
-25.676659
 20
271.783935
 30
0.0
 11
-34.726659
 21
271.783935
 31
0.0
  0
LINE
  8
0
  6
CONTINUOUS
 62
     7
  5
AF
 10
-28.536684
 20
270.983935
 30
0.0
 11
-25.676659
 21
270.983935
 31
0.0
  0
LINE
  8
0
  6
CONTINUOUS
 62
     7
  5
B0
 10
-0.676659
 20
270.983935
 30
0.0
 11
2.823341
 21
270.983935
 31
0.0
  0
LINE
  8
0
  6
CONTINUOUS
 62
     7
  5
B1
 10
0.173341
 20
274.083935
 30
0.0
 11
2.823341
 21
274.083935
 31
0.0
  0
LINE
  8
0
  6
CONTINUOUS
 62
     9
  5
B2
 10
2.823341
 20
271.783935
 30
0.0
 11
-0.676659
 21
271.783935
 31
0.0
  0
LINE
  8
0
  6
CONTINUOUS
 62
     7
  5
B3
 10
30.948341
 20
-16.016065
 30
0.0
 11
31.823341
 21
-15.141065
 31
0.0
  0
LINE
  8
0
  6
CONTINUOUS
 62
     7
  5
B4
 10
31.823341
 20
-4.891065
 30
0.0
 11
30.948341
 21
-4.016065
 31
0.0
  0
LINE
  8
0
  6
CONTINUOUS
 62
     7
  5
B5
 10
16.823341
 20
-16.016065
 30
0.0
 11
30.948341
 21
-16.016065
 31
0.0
  0
LINE
  8
0
  6
CONTINUOUS
 62
     7
  5
B6
 10
30.948341
 20
-4.016065
 30
0.0
 11
16.823341
 21
-4.016065
 31
0.0
  0
LINE
  8
0
  6
CONTINUOUS
 62
     7
  5
B7
 10
30.948341
 20
280.983935
 30
0.0
 11
31.823341
 21
281.858935
 31
0.0
  0
LINE
  8
0
  6
CONTINUOUS
 62
     7
  5
B8
 10
31.823341
 20
292.108935
 30
0.0
 11
30.948341
 21
292.983935
 31
0.0
  0
LINE
  8
0
  6
CONTINUOUS
 62
     7
  5
B9
 10
16.823341
 20
280.983935
 30
0.0
 11
30.948341
 21
280.983935
 31
0.0
  0
LINE
  8
0
  6
CONTINUOUS
 62
     7
  5
BA
 10
30.948341
 20
292.983935
 30
0.0
 11
16.823341
 21
292.983935
 31
0.0
  0
LINE
  8
0
  6
CONTINUOUS
 62
     7
  5
BB
 10
-0.676659
 20
2.483935
 30
0.0
 11
-0.676659
 21
108.483935
 31
0.0
  0
LINE
  8
0
  6
CONTINUOUS
 62
     7
  5
BC
 10
-0.676659
 20
268.483935
 30
0.0
 11
-0.676659
 21
274.483935
 31
0.0
  0
LINE
  8
0
  6
CONTINUOUS
 62
     7
  5
BD
 10
-25.676659
 20
274.483935
 30
0.0
 11
-25.676659
 21
268.483935
 31
0.0
  0
LINE
  8
0
  6
CONTINUOUS
 62
     7
  5
BE
 10
-25.676659
 20
108.483935
 30
0.0
 11
-25.676659
 21
2.483935
 31
0.0
  0
LINE
  8
0
  6
CONTINUOUS
 62
     7
  5
BF
 10
-9.176659
 20
307.483935
 30
0.0
 11
-9.176659
 21
322.483935
 31
0.0
  0
LINE
  8
0
  6
CONTINUOUS
 62
     7
  5
C0
 10
-17.176659
 20
322.483935
 30
0.0
 11
-17.176659
 21
307.483935
 31
0.0
  0
LINE
  8
0
  6
CONTINUOUS
 62
     7
  5
C1
 10
2.823341
 20
274.483935
 30
0.0
 11
2.823341
 21
268.483935
 31
0.0
  0
LINE
  8
0
  6
CONTINUOUS
 62
     7
  5
C2
 10
10.823341
 20
268.483935
 30
0.0
 11
10.823341
 21
274.483935
 31
0.0
  0
ARC
  8
0
  6
CONTINUOUS
 62
     7
  5
C3
 10
-32.426659
 20
271.783935
 30
0.0
 40
2.3
 50
90.0
 51
180.0
210
0.0
220
0.0
230
1.0
  0
ARC
  8
0
  6
CONTINUOUS
 62
     7
  5
C4
 10
-26.526659
 20
271.783935
 30
0.0
 40
2.3
 50
68.311194
 51
90.0
210
0.0
220
0.0
230
0.9999999999999999
  0
LINE
  8
0
  6
CONTINUOUS
 62
     7
  5
C5
 10
-34.726659
 20
271.783935
 30
0.0
 11
-34.726659
 21
270.983935
 31
0.0
  0
ARC
  8
0
  6
CONTINUOUS
 62
     7
  5
C6
 10
0.173341
 20
271.783935
 30
0.0
 40
2.3
 50
90.0
 51
111.688806
210
0.0
220
0.0
230
1.0
  0
ENDBLK
  8
0
  5
C7
  0
BLOCK
  8
0
  5
CA
  2
AID323
 70
     0
 10
0.0
 20
0.0
 30
0.0
  3
#auxiliary draft view
  0
LINE
  8
0
  6
CONTINUOUS
 62
     7
  5
CB
 10
344.907269
 20
-22.516065
 30
0.0
 11
401.907269
 21
-22.516065
 31
0.0
  0
LINE
  8
0
  6
CONTINUOUS
 62
     7
  5
CC
 10
344.907269
 20
-22.516065
 30
0.0
 11
344.907269
 21
2.483935
 31
0.0
  0
LINE
  8
0
  6
CONTINUOUS
 62
     7
  5
CD
 10
344.907269
 20
2.483935
 30
0.0
 11
401.907269
 21
2.483935
 31
0.0
  0
LINE
  8
0
  6
CONTINUOUS
 62
     7
  5
CE
 10
401.907269
 20
-22.516065
 30
0.0
 11
401.907269
 21
2.483935
 31
0.0
  0
LINE
  8
0
  6
CONTINUOUS
 62
     7
  5
CF
 10
344.907269
 20
299.483935
 30
0.0
 11
344.907269
 21
274.483935
 31
0.0
  0
LINE
  8
0
  6
CONTINUOUS
 62
     7
  5
D0
 10
401.907269
 20
299.483935
 30
0.0
 11
344.907269
 21
299.483935
 31
0.0
  0
LINE
  8
0
  6
CONTINUOUS
 62
     7
  5
D1
 10
401.907269
 20
299.483935
 30
0.0
 11
401.907269
 21
274.483935
 31
0.0
  0
LINE
  8
0
  6
CONTINUOUS
 62
     7
  5
D2
 10
401.907269
 20
274.483935
 30
0.0
 11
344.907269
 21
274.483935
 31
0.0
  0
LINE
  8
0
  6
CONTINUOUS
 62
     7
  5
D3
 10
329.907269
 20
-15.141065
 30
0.0
 11
329.907269
 21
-4.891065
 31
0.0
  0
LINE
  8
0
  6
CONTINUOUS
 62
     7
  5
D4
 10
330.782269
 20
-4.016065
 30
0.0
 11
330.782269
 21
-16.016065
 31
0.0
  0
LINE
  8
0
  6
CONTINUOUS
 62
     7
  5
D5
 10
329.907269
 20
281.858935
 30
0.0
 11
329.907269
 21
292.108935
 31
0.0
  0
LINE
  8
0
  6
CONTINUOUS
 62
     7
  5
D6
 10
330.782269
 20
292.983935
 30
0.0
 11
330.782269
 21
280.983935
 31
0.0
  0
LINE
  8
0
  6
CONTINUOUS
 62
     7
  5
D7
 10
397.657269
 20
307.483935
 30
0.0
 11
397.657269
 21
299.483935
 31
0.0
  0
LINE
  8
0
  6
CONTINUOUS
 62
     9
  5
D8
 10
390.657269
 20
299.483935
 30
0.0
 11
390.657269
 21
307.483935
 31
0.0
  0
LINE
  8
0
  6
CONTINUOUS
 62
     7
  5
D9
 10
390.657269
 20
307.483935
 30
0.0
 11
397.657269
 21
307.483935
 31
0.0
  0
LINE
  8
0
  6
CONTINUOUS
 62
     9
  5
DA
 10
359.157269
 20
307.483935
 30
0.0
 11
359.157269
 21
299.483935
 31
0.0
  0
LINE
  8
0
  6
CONTINUOUS
 62
     7
  5
DB
 10
390.657269
 20
307.483935
 30
0.0
 11
359.157269
 21
307.483935
 31
0.0
  0
LINE
  8
0
  6
CONTINUOUS
 62
     7
  5
DC
 10
352.157269
 20
299.483935
 30
0.0
 11
352.157269
 21
307.483935
 31
0.0
  0
LINE
  8
0
  6
CONTINUOUS
 62
     7
  5
DD
 10
352.157269
 20
307.483935
 30
0.0
 11
359.157269
 21
307.483935
 31
0.0
  0
LINE
  8
0
  6
CONTINUOUS
 62
     7
  5
DE
 10
370.907269
 20
322.483935
 30
0.0
 11
378.907269
 21
322.483935
 31
0.0
  0
LINE
  8
0
  6
CONTINUOUS
 62
     7
  5
DF
 10
402.907269
 20
268.483935
 30
0.0
 11
346.907269
 21
268.483935
 31
0.0
  0
LINE
  8
0
  6
CONTINUOUS
 62
     7
  5
E0
 10
402.907269
 20
108.483935
 30
0.0
 11
402.907269
 21
268.483935
 31
0.0
  0
LINE
  8
0
  6
CONTINUOUS
 62
     7
  5
E1
 10
402.907269
 20
108.483935
 30
0.0
 11
346.907269
 21
108.483935
 31
0.0
  0
LINE
  8
0
  6
CONTINUOUS
 62
     7
  5
E2
 10
346.907269
 20
108.483935
 30
0.0
 11
346.907269
 21
268.483935
 31
0.0
  0
LINE
  8
0
  6
CONTINUOUS
 62
     7
  5
E3
 10
353.307269
 20
270.983935
 30
0.0
 11
353.307269
 21
268.483935
 31
0.0
  0
LINE
  8
0
  6
CONTINUOUS
 62
     9
  5
E4
 10
359.547245
 20
270.983935
 30
0.0
 11
359.547245
 21
268.483935
 31
0.0
  0
LINE
  8
0
  6
CONTINUOUS
 62
     7
  5
E5
 10
353.307269
 20
270.983935
 30
0.0
 11
359.547245
 21
270.983935
 31
0.0
  0
LINE
  8
0
  6
CONTINUOUS
 62
     9
  5
E6
 10
362.407269
 20
271.783935
 30
0.0
 11
353.357269
 21
271.783935
 31
0.0
  0
LINE
  8
0
  6
CONTINUOUS
 62
     7
  5
E7
 10
355.657269
 20
274.083935
 30
0.0
 11
361.557269
 21
274.083935
 31
0.0
  0
LINE
  8
0
  6
CONTINUOUS
 62
     7
  5
E8
 10
359.547245
 20
270.983935
 30
0.0
 11
362.407269
 21
270.983935
 31
0.0
  0
LINE
  8
0
  6
CONTINUOUS
 62
     7
  5
E9
 10
396.507269
 20
270.983935
 30
0.0
 11
396.507269
 21
268.483935
 31
0.0
  0
LINE
  8
0
  6
CONTINUOUS
 62
     7
  5
EA
 10
387.407269
 20
270.983935
 30
0.0
 11
396.507269
 21
270.983935
 31
0.0
  0
LINE
  8
0
  6
CONTINUOUS
 62
     9
  5
EB
 10
396.457269
 20
271.783935
 30
0.0
 11
387.407269
 21
271.783935
 31
0.0
  0
LINE
  8
0
  6
CONTINUOUS
 62
     7
  5
EC
 10
388.257269
 20
274.083935
 30
0.0
 11
394.157269
 21
274.083935
 31
0.0
  0
LINE
  8
0
  6
CONTINUOUS
 62
     7
  5
ED
 10
330.782269
 20
-4.016065
 30
0.0
 11
329.907269
 21
-4.891065
 31
0.0
  0
LINE
  8
0
  6
CONTINUOUS
 62
     7
  5
EE
 10
329.907269
 20
-15.141065
 30
0.0
 11
330.782269
 21
-16.016065
 31
0.0
  0
LINE
  8
0
  6
CONTINUOUS
 62
     7
  5
EF
 10
344.907269
 20
-4.016065
 30
0.0
 11
330.782269
 21
-4.016065
 31
0.0
  0
LINE
  8
0
  6
CONTINUOUS
 62
     7
  5
F0
 10
330.782269
 20
-16.016065
 30
0.0
 11
344.907269
 21
-16.016065
 31
0.0
  0
LINE
  8
0
  6
CONTINUOUS
 62
     7
  5
F1
 10
330.782269
 20
292.983935
 30
0.0
 11
329.907269
 21
292.108935
 31
0.0
  0
LINE
  8
0
  6
CONTINUOUS
 62
     7
  5
F2
 10
329.907269
 20
281.858935
 30
0.0
 11
330.782269
 21
280.983935
 31
0.0
  0
LINE
  8
0
  6
CONTINUOUS
 62
     7
  5
F3
 10
344.907269
 20
292.983935
 30
0.0
 11
330.782269
 21
292.983935
 31
0.0
  0
LINE
  8
0
  6
CONTINUOUS
 62
     7
  5
F4
 10
330.782269
 20
280.983935
 30
0.0
 11
344.907269
 21
280.983935
 31
0.0
  0
LINE
  8
0
  6
CONTINUOUS
 62
     7
  5
F5
 10
387.407269
 20
2.483935
 30
0.0
 11
387.407269
 21
108.483935
 31
0.0
  0
LINE
  8
0
  6
CONTINUOUS
 62
     7
  5
F6
 10
387.407269
 20
268.483935
 30
0.0
 11
387.407269
 21
274.483935
 31
0.0
  0
LINE
  8
0
  6
CONTINUOUS
 62
     7
  5
F7
 10
362.407269
 20
274.483935
 30
0.0
 11
362.407269
 21
268.483935
 31
0.0
  0
LINE
  8
0
  6
CONTINUOUS
 62
     7
  5
F8
 10
362.407269
 20
108.483935
 30
0.0
 11
362.407269
 21
2.483935
 31
0.0
  0
LINE
  8
0
  6
CONTINUOUS
 62
     7
  5
F9
 10
378.907269
 20
307.483935
 30
0.0
 11
378.907269
 21
322.483935
 31
0.0
  0
LINE
  8
0
  6
CONTINUOUS
 62
     7
  5
FA
 10
370.907269
 20
322.483935
 30
0.0
 11
370.907269
 21
307.483935
 31
0.0
  0
ARC
  8
0
  6
CONTINUOUS
 62
     7
  5
FB
 10
355.657269
 20
271.783935
 30
0.0
 40
2.3
 50
90.0
 51
180.0
210
0.0
220
0.0
230
1.0
  0
ARC
  8
0
  6
CONTINUOUS
 62
     7
  5
FC
 10
361.557269
 20
271.783935
 30
0.0
 40
2.3
 50
68.311194
 51
90.0
210
0.0
220
0.0
230
1.0
  0
LINE
  8
0
  6
CONTINUOUS
 62
     7
  5
FD
 10
353.357269
 20
271.783935
 30
0.0
 11
353.357269
 21
270.983935
 31
0.0
  0
ARC
  8
0
  6
CONTINUOUS
 62
     7
  5
FE
 10
388.257269
 20
271.783935
 30
0.0
 40
2.3
 50
90.0
 51
111.688806
210
0.0
220
0.0
230
1.0
  0
ARC
  8
0
  6
CONTINUOUS
 62
     7
  5
FF
 10
394.157269
 20
271.783935
 30
0.0
 40
2.3
 50
0.0
 51
90.0
210
0.0
220
0.0
230
1.0
  0
LINE
  8
0
  6
CONTINUOUS
 62
     7
  5
100
 10
396.457269
 20
270.983935
 30
0.0
 11
396.457269
 21
271.783935
 31
0.0
  0
LINE
  8
0
  6
CONTINUOUS
 62
     7
  5
101
 10
350.907269
 20
274.483935
 30
0.0
 11
350.907269
 21
268.483935
 31
0.0
  0
LINE
  8
0
  6
CONTINUOUS
 62
     7
  5
102
 10
358.907269
 20
274.083935
 30
0.0
 11
358.907269
 21
274.483935
 31
0.0
  0
ENDBLK
  8
0
  5
103
  0
BLOCK
  8
0
  5
106
  2
AID439
 70
     0
 10
0.0
 20
0.0
 30
0.0
  3
#auxiliary draft view
  0
CIRCLE
  8
0
  6
CONTINUOUS
 62
     7
  5
107
 10
171.9122
 20
-128.474429
 30
0.0
 40
4.0
210
0.0
220
0.0
230
1.0
  0
ARC
  8
0
  6
CONTINUOUS
 62
     7
  5
108
 10
156.1622
 20
-144.224429
 30
0.0
 40
7.0
 50
180.0
 51
270.0
210
0.0
220
0.0
230
1.0
  0
LINE
  8
0
  6
CONTINUOUS
 62
     7
  5
109
 10
149.1622
 20
-144.224429
 30
0.0
 11
149.1622
 21
-112.724429
 31
0.0
  0
ARC
  8
0
  6
CONTINUOUS
 62
     7
  5
10A
 10
156.1622
 20
-112.724429
 30
0.0
 40
7.0
 50
90.0
 51
180.0
210
0.0
220
0.0
230
1.0
  0
ARC
  8
0
  6
CONTINUOUS
 62
     7
  5
10B
 10
187.6622
 20
-144.224429
 30
0.0
 40
7.0
 50
270.0
 51
360.0
210
0.0
220
0.0
230
1.0
  0
LINE
  8
0
  6
CONTINUOUS
 62
     7
  5
10C
 10
194.6622
 20
-112.724429
 30
0.0
 11
194.6622
 21
-144.224429
 31
0.0
  0
LINE
  8
0
  6
CONTINUOUS
 62
     7
  5
10D
 10
156.1622
 20
-105.724429
 30
0.0
 11
187.6622
 21
-105.724429
 31
0.0
  0
LINE
  8
0
  6
CONTINUOUS
 62
     7
  5
10E
 10
187.6622
 20
-151.224429
 30
0.0
 11
156.1622
 21
-151.224429
 31
0.0
  0
ARC
  8
0
  6
CONTINUOUS
 62
     7
  5
10F
 10
187.6622
 20
-112.724429
 30
0.0
 40
7.0
 50
0.0
 51
90.0
210
0.0
220
0.0
230
1.0
  0
CIRCLE
  8
0
  6
CONTINUOUS
 62
     7
  5
110
 10
141.9122
 20
-145.474429
 30
0.0
 40
3.1
210
0.0
220
0.0
230
1.0
  0
CIRCLE
  8
0
  6
CONTINUOUS
 62
     7
  5
111
 10
141.9122
 20
-111.474429
 30
0.0
 40
3.1
210
0.0
220
0.0
230
1.0
  0
CIRCLE
  8
0
  6
CONTINUOUS
 62
     7
  5
112
 10
201.9122
 20
-145.474429
 30
0.0
 40
3.1
210
0.0
220
0.0
230
1.0
  0
CIRCLE
  8
0
  6
CONTINUOUS
 62
     7
  5
113
 10
201.9122
 20
-111.474429
 30
0.0
 40
3.1
210
0.0
220
0.0
230
1.0
  0
LINE
  8
0
  6
CONTINUOUS
 62
     7
  5
114
 10
93.9122
 20
-155.474429
 30
0.0
 11
93.9122
 21
-98.474429
 31
0.0
  0
LINE
  8
0
  6
CONTINUOUS
 62
     7
  5
115
 10
249.9122
 20
-98.474429
 30
0.0
 11
249.9122
 21
-155.474429
 31
0.0
  0
LINE
  8
0
  6
CONTINUOUS
 62
     7
  5
116
 10
249.9122
 20
-155.474429
 30
0.0
 11
93.9122
 21
-155.474429
 31
0.0
  0
LINE
  8
0
  6
CONTINUOUS
 62
     7
  5
117
 10
93.9122
 20
-98.474429
 30
0.0
 11
249.9122
 21
-98.474429
 31
0.0
  0
CIRCLE
  8
0
  6
CONTINUOUS
 62
     7
  5
118
 10
143.9122
 20
-121.474429
 30
0.0
 40
2.01
210
0.0
220
0.0
230
1.0
  0
CIRCLE
  8
0
  6
CONTINUOUS
 62
     7
  5
119
 10
199.9122
 20
-135.474429
 30
0.0
 40
2.01
210
0.0
220
0.0
230
1.0
  0
LINE
  8
0
  6
CONTINUOUS
 62
     7
  5
11A
 10
232.7872
 20
-83.474429
 30
0.0
 11
237.9122
 21
-83.474429
 31
0.0
  0
LINE
  8
0
  6
CONTINUOUS
 62
     7
  5
11B
 10
243.9122
 20
-84.349429
 30
0.0
 11
237.9122
 21
-84.349429
 31
0.0
  0
LINE
  8
0
  6
CONTINUOUS
 62
     7
  5
11C
 10
237.9122
 20
-83.474429
 30
0.0
 11
243.0372
 21
-83.474429
 31
0.0
  0
LINE
  8
0
  6
CONTINUOUS
 62
     7
  5
11D
 10
237.9122
 20
-84.349429
 30
0.0
 11
231.9122
 21
-84.349429
 31
0.0
  0
LINE
  8
0
  6
CONTINUOUS
 62
     7
  5
11E
 10
100.7872
 20
-83.474429
 30
0.0
 11
105.9122
 21
-83.474429
 31
0.0
  0
LINE
  8
0
  6
CONTINUOUS
 62
     7
  5
11F
 10
111.9122
 20
-84.349429
 30
0.0
 11
105.9122
 21
-84.349429
 31
0.0
  0
LINE
  8
0
  6
CONTINUOUS
 62
     7
  5
120
 10
105.9122
 20
-83.474429
 30
0.0
 11
111.0372
 21
-83.474429
 31
0.0
  0
LINE
  8
0
  6
CONTINUOUS
 62
     7
  5
121
 10
105.9122
 20
-84.349429
 30
0.0
 11
99.9122
 21
-84.349429
 31
0.0
  0
ARC
  8
0
  6
CONTINUOUS
 62
     7
  5
122
 10
195.9122
 20
-108.474429
 30
0.0
 40
4.0
 50
316.68987
 51
350.180028
210
0.0
220
0.0
230
1.0
  0
LINE
  8
0
  6
CONTINUOUS
 62
     7
  5
123
 10
251.9122
 20
-156.474429
 30
0.0
 11
251.9122
 21
-100.474429
 31
0.0
  0
LINE
  8
0
  6
CONTINUOUS
 62
     7
  5
124
 10
91.9122
 20
-156.474429
 30
0.0
 11
251.9122
 21
-156.474429
 31
0.0
  0
LINE
  8
0
  6
CONTINUOUS
 62
     7
  5
125
 10
91.9122
 20
-156.474429
 30
0.0
 11
91.9122
 21
-100.474429
 31
0.0
  0
LINE
  8
0
  6
CONTINUOUS
 62
     7
  5
126
 10
91.9122
 20
-100.474429
 30
0.0
 11
93.9122
 21
-100.474429
 31
0.0
  0
LINE
  8
0
  6
CONTINUOUS
 62
     7
  5
127
 10
249.9122
 20
-100.474429
 30
0.0
 11
251.9122
 21
-100.474429
 31
0.0
  0
LINE
  8
0
  6
CONTINUOUS
 62
     7
  5
128
 10
243.9122
 20
-84.349429
 30
0.0
 11
243.0372
 21
-83.474429
 31
0.0
  0
LINE
  8
0
  6
CONTINUOUS
 62
     7
  5
129
 10
232.7872
 20
-83.474429
 30
0.0
 11
231.9122
 21
-84.349429
 31
0.0
  0
LINE
  8
0
  6
CONTINUOUS
 62
     7
  5
12A
 10
111.9122
 20
-84.349429
 30
0.0
 11
111.0372
 21
-83.474429
 31
0.0
  0
LINE
  8
0
  6
CONTINUOUS
 62
     7
  5
12B
 10
100.7872
 20
-83.474429
 30
0.0
 11
99.9122
 21
-84.349429
 31
0.0
  0
LINE
  8
0
  6
CONTINUOUS
 62
     7
  5
12C
 10
243.9122
 20
-98.474429
 30
0.0
 11
243.9122
 21
-84.349429
 31
0.0
  0
LINE
  8
0
  6
CONTINUOUS
 62
     7
  5
12D
 10
231.9122
 20
-84.349429
 30
0.0
 11
231.9122
 21
-98.474429
 31
0.0
  0
LINE
  8
0
  6
CONTINUOUS
 62
     7
  5
12E
 10
111.9122
 20
-98.474429
 30
0.0
 11
111.9122
 21
-84.349429
 31
0.0
  0
LINE
  8
0
  6
CONTINUOUS
 62
     7
  5
12F
 10
99.9122
 20
-84.349429
 30
0.0
 11
99.9122
 21
-98.474429
 31
0.0
  0
ENDBLK
  8
0
  5
130
  0
BLOCK
  8
0
  5
133
  2
AID525
 70
     0
 10
0.0
 20
0.0
 30
0.0
  3
#auxiliary draft view
  0
CIRCLE
  8
0
  6
CONTINUOUS
 62
     7
  5
134
 10
188.9122
 20
448.98397
 30
0.0
 40
3.1
210
0.0
220
0.0
230
1.0
  0
CIRCLE
  8
0
  6
CONTINUOUS
 62
     7
  5
135
 10
188.9122
 20
414.98397
 30
0.0
 40
3.1
210
0.0
220
0.0
230
1.0
  0
CIRCLE
  8
0
  6
CONTINUOUS
 62
     7
  5
136
 10
154.9122
 20
414.98397
 30
0.0
 40
3.1
210
0.0
220
0.0
230
1.0
  0
LINE
  8
0
  6
CONTINUOUS
 62
     7
  5
137
 10
93.9122
 20
401.98397
 30
0.0
 11
93.9122
 21
458.98397
 31
0.0
  0
LINE
  8
0
  6
CONTINUOUS
 62
     7
  5
138
 10
93.9122
 20
458.98397
 30
0.0
 11
249.9122
 21
458.98397
 31
0.0
  0
LINE
  8
0
  6
CONTINUOUS
 62
     7
  5
139
 10
249.9122
 20
458.98397
 30
0.0
 11
249.9122
 21
401.98397
 31
0.0
  0
LINE
  8
0
  6
CONTINUOUS
 62
     7
  5
13A
 10
249.9122
 20
401.98397
 30
0.0
 11
93.9122
 21
401.98397
 31
0.0
  0
CIRCLE
  8
0
  6
CONTINUOUS
 62
     7
  5
13B
 10
154.9122
 20
448.98397
 30
0.0
 40
3.1
210
0.0
220
0.0
230
1.0
  0
LINE
  8
0
  6
CONTINUOUS
 62
     7
  5
13C
 10
243.0372
 20
386.98397
 30
0.0
 11
232.7872
 21
386.98397
 31
0.0
  0
LINE
  8
0
  6
CONTINUOUS
 62
     7
  5
13D
 10
231.9122
 20
387.85897
 30
0.0
 11
243.9122
 21
387.85897
 31
0.0
  0
LINE
  8
0
  6
CONTINUOUS
 62
     7
  5
13E
 10
99.9122
 20
387.85897
 30
0.0
 11
111.9122
 21
387.85897
 31
0.0
  0
LINE
  8
0
  6
CONTINUOUS
 62
     7
  5
13F
 10
111.0372
 20
386.98397
 30
0.0
 11
100.7872
 21
386.98397
 31
0.0
  0
LINE
  8
0
  6
CONTINUOUS
 62
     7
  5
140
 10
91.9122
 20
459.98397
 30
0.0
 11
91.9122
 21
403.98397
 31
0.0
  0
LINE
  8
0
  6
CONTINUOUS
 62
     7
  5
141
 10
251.9122
 20
459.98397
 30
0.0
 11
251.9122
 21
403.98397
 31
0.0
  0
LINE
  8
0
  6
CONTINUOUS
 62
     7
  5
142
 10
251.9122
 20
403.98397
 30
0.0
 11
249.9122
 21
403.98397
 31
0.0
  0
LINE
  8
0
  6
CONTINUOUS
 62
     7
  5
143
 10
93.9122
 20
403.98397
 30
0.0
 11
91.9122
 21
403.98397
 31
0.0
  0
LINE
  8
0
  6
CONTINUOUS
 62
     7
  5
144
 10
251.9122
 20
459.98397
 30
0.0
 11
91.9122
 21
459.98397
 31
0.0
  0
LINE
  8
0
  6
CONTINUOUS
 62
     7
  5
145
 10
231.9122
 20
387.85897
 30
0.0
 11
232.7872
 21
386.98397
 31
0.0
  0
LINE
  8
0
  6
CONTINUOUS
 62
     7
  5
146
 10
243.0372
 20
386.98397
 30
0.0
 11
243.9122
 21
387.85897
 31
0.0
  0
LINE
  8
0
  6
CONTINUOUS
 62
     7
  5
147
 10
99.9122
 20
401.98397
 30
0.0
 11
99.9122
 21
387.85897
 31
0.0
  0
LINE
  8
0
  6
CONTINUOUS
 62
     7
  5
148
 10
111.9122
 20
387.85897
 30
0.0
 11
111.9122
 21
401.98397
 31
0.0
  0
LINE
  8
0
  6
CONTINUOUS
 62
     7
  5
149
 10
99.9122
 20
387.85897
 30
0.0
 11
100.7872
 21
386.98397
 31
0.0
  0
LINE
  8
0
  6
CONTINUOUS
 62
     7
  5
14A
 10
111.0372
 20
386.98397
 30
0.0
 11
111.9122
 21
387.85897
 31
0.0
  0
LINE
  8
0
  6
CONTINUOUS
 62
     7
  5
14B
 10
231.9122
 20
401.98397
 30
0.0
 11
231.9122
 21
387.85897
 31
0.0
  0
LINE
  8
0
  6
CONTINUOUS
 62
     7
  5
14C
 10
243.9122
 20
387.85897
 30
0.0
 11
243.9122
 21
401.98397
 31
0.0
  0
ENDBLK
  8
0
  5
14D
  0
BLOCK
  8
0
  5
150
  2
AID579
 70
     0
 10
0.0
 20
0.0
 30
0.0
  3
#auxiliary draft view
  0
CIRCLE
  8
0
  6
CONTINUOUS
 62
     7
  5
151
 10
638.298997
 20
286.983935
 30
0.0
 40
5.125
210
0.0
220
0.0
230
1.0
  0
CIRCLE
  8
0
  6
CONTINUOUS
 62
     7
  5
152
 10
638.298997
 20
-10.016065
 30
0.0
 40
5.125
210
0.0
220
0.0
230
1.0
  0
CIRCLE
  8
0
  6
CONTINUOUS
 62
     7
  5
153
 10
638.298997
 20
-10.016065
 30
0.0
 40
6.0
210
0.0
220
0.0
230
1.0
  0
CIRCLE
  8
0
  6
CONTINUOUS
 62
     7
  5
154
 10
638.298997
 20
286.983935
 30
0.0
 40
6.0
210
0.0
220
0.0
230
1.0
  0
CIRCLE
  8
0
  6
CONTINUOUS
 62
     7
  5
155
 10
506.298997
 20
286.983935
 30
0.0
 40
5.125
210
0.0
220
0.0
230
1.0
  0
CIRCLE
  8
0
  6
CONTINUOUS
 62
     7
  5
156
 10
506.298997
 20
286.983935
 30
0.0
 40
6.0
210
0.0
220
0.0
230
1.0
  0
CIRCLE
  8
0
  6
CONTINUOUS
 62
     7
  5
157
 10
506.298997
 20
-10.016065
 30
0.0
 40
5.125
210
0.0
220
0.0
230
1.0
  0
CIRCLE
  8
0
  6
CONTINUOUS
 62
     7
  5
158
 10
506.298997
 20
-10.016065
 30
0.0
 40
6.0
210
0.0
220
0.0
230
1.0
  0
CIRCLE
  8
0
  6
CONTINUOUS
 62
     7
  5
159
 10
638.298997
 20
286.983935
 30
0.0
 40
6.5
210
0.0
220
0.0
230
1.0
  0
CIRCLE
  8
0
  6
CONTINUOUS
 62
     7
  5
15A
 10
506.298997
 20
286.983935
 30
0.0
 40
6.5
210
0.0
220
0.0
230
1.0
  0
LINE
  8
0
  6
CONTINUOUS
 62
     7
  5
15B
 10
494.298997
 20
299.483935
 30
0.0
 11
494.298997
 21
274.483935
 31
0.0
  0
LINE
  8
0
  6
CONTINUOUS
 62
     7
  5
15C
 10
650.298997
 20
299.483935
 30
0.0
 11
494.298997
 21
299.483935
 31
0.0
  0
LINE
  8
0
  6
CONTINUOUS
 62
     7
  5
15D
 10
650.298997
 20
299.483935
 30
0.0
 11
650.298997
 21
274.483935
 31
0.0
  0
LINE
  8
0
  6
CONTINUOUS
 62
     7
  5
15E
 10
650.298997
 20
274.483935
 30
0.0
 11
494.298997
 21
274.483935
 31
0.0
  0
CIRCLE
  8
0
  6
CONTINUOUS
 62
     7
  5
15F
 10
506.298997
 20
-10.016065
 30
0.0
 40
6.5
210
0.0
220
0.0
230
1.0
  0
CIRCLE
  8
0
  6
CONTINUOUS
 62
     7
  5
160
 10
638.298997
 20
-10.016065
 30
0.0
 40
6.5
210
0.0
220
0.0
230
1.0
  0
LINE
  8
0
  6
CONTINUOUS
 62
     7
  5
161
 10
650.298997
 20
-22.516065
 30
0.0
 11
650.298997
 21
2.483935
 31
0.0
  0
LINE
  8
0
  6
CONTINUOUS
 62
     7
  5
162
 10
494.298997
 20
-22.516065
 30
0.0
 11
494.298997
 21
2.483935
 31
0.0
  0
LINE
  8
0
  6
CONTINUOUS
 62
     7
  5
163
 10
494.298997
 20
2.483935
 30
0.0
 11
650.298997
 21
2.483935
 31
0.0
  0
LINE
  8
0
  6
CONTINUOUS
 62
     7
  5
164
 10
494.298997
 20
-22.516065
 30
0.0
 11
650.298997
 21
-22.516065
 31
0.0
  0
LINE
  8
0
  6
CONTINUOUS
 62
     7
  5
165
 10
595.048997
 20
307.483935
 30
0.0
 11
595.048997
 21
299.483935
 31
0.0
  0
LINE
  8
0
  6
CONTINUOUS
 62
     9
  5
166
 10
588.048997
 20
299.483935
 30
0.0
 11
588.048997
 21
307.483935
 31
0.0
  0
LINE
  8
0
  6
CONTINUOUS
 62
     7
  5
167
 10
588.048997
 20
307.483935
 30
0.0
 11
595.048997
 21
307.483935
 31
0.0
  0
LINE
  8
0
  6
CONTINUOUS
 62
     9
  5
168
 10
556.548997
 20
307.483935
 30
0.0
 11
556.548997
 21
299.483935
 31
0.0
  0
LINE
  8
0
  6
CONTINUOUS
 62
     7
  5
169
 10
588.048997
 20
307.483935
 30
0.0
 11
556.548997
 21
307.483935
 31
0.0
  0
LINE
  8
0
  6
CONTINUOUS
 62
     7
  5
16A
 10
549.548997
 20
299.483935
 30
0.0
 11
549.548997
 21
307.483935
 31
0.0
  0
LINE
  8
0
  6
CONTINUOUS
 62
     7
  5
16B
 10
549.548997
 20
307.483935
 30
0.0
 11
556.548997
 21
307.483935
 31
0.0
  0
LINE
  8
0
  6
CONTINUOUS
 62
     7
  5
16C
 10
583.298997
 20
22.483935
 30
0.0
 11
561.298997
 21
22.483935
 31
0.0
  0
LINE
  8
0
  6
CONTINUOUS
 62
     7
  5
16D
 10
568.298997
 20
322.483935
 30
0.0
 11
572.298997
 21
322.483935
 31
0.0
  0
LINE
  8
0
  6
CONTINUOUS
 62
     7
  5
16E
 10
572.298997
 20
322.483935
 30
0.0
 11
576.298997
 21
322.483935
 31
0.0
  0
CIRCLE
  8
0
  6
CONTINUOUS
 62
     7
  5
16F
 10
642.298997
 20
258.483935
 30
0.0
 40
7.5
210
0.0
220
0.0
230
1.0
  0
CIRCLE
  8
0
  6
CONTINUOUS
 62
     7
  5
170
 10
642.298997
 20
118.483935
 30
0.0
 40
7.5
210
0.0
220
0.0
230
1.0
  0
CIRCLE
  8
0
  6
CONTINUOUS
 62
     7
  5
171
 10
502.298997
 20
258.483935
 30
0.0
 40
7.5
210
0.0
220
0.0
230
1.0
  0
CIRCLE
  8
0
  6
CONTINUOUS
 62
     7
  5
172
 10
502.298997
 20
118.483935
 30
0.0
 40
7.5
210
0.0
220
0.0
230
1.0
  0
LINE
  8
0
  6
CONTINUOUS
 62
     7
  5
173
 10
492.298997
 20
268.483935
 30
0.0
 11
492.298997
 21
108.483935
 31
0.0
  0
LINE
  8
0
  6
CONTINUOUS
 62
     7
  5
174
 10
652.298997
 20
268.483935
 30
0.0
 11
492.298997
 21
268.483935
 31
0.0
  0
LINE
  8
0
  6
CONTINUOUS
 62
     7
  5
175
 10
652.298997
 20
108.483935
 30
0.0
 11
652.298997
 21
268.483935
 31
0.0
  0
LINE
  8
0
  6
CONTINUOUS
 62
     7
  5
176
 10
492.298997
 20
108.483935
 30
0.0
 11
652.298997
 21
108.483935
 31
0.0
  0
LINE
  8
0
  6
CONTINUOUS
 62
     9
  5
177
 10
591.798997
 20
270.983935
 30
0.0
 11
591.798997
 21
268.483935
 31
0.0
  0
LINE
  8
0
  6
CONTINUOUS
 62
     7
  5
178
 10
591.798997
 20
270.983935
 30
0.0
 11
597.098997
 21
270.983935
 31
0.0
  0
LINE
  8
0
  6
CONTINUOUS
 62
     9
  5
179
 10
572.298997
 20
270.983935
 30
0.0
 11
572.298997
 21
268.483935
 31
0.0
  0
LINE
  8
0
  6
CONTINUOUS
 62
     7
  5
17A
 10
572.298997
 20
270.983935
 30
0.0
 11
591.798997
 21
270.983935
 31
0.0
  0
LINE
  8
0
  6
CONTINUOUS
 62
     7
  5
17B
 10
552.298997
 20
270.983935
 30
0.0
 11
572.298997
 21
270.983935
 31
0.0
  0
LINE
  8
0
  6
CONTINUOUS
 62
     9
  5
17C
 10
597.048997
 20
271.783935
 30
0.0
 11
591.798997
 21
271.783935
 31
0.0
  0
LINE
  8
0
  6
CONTINUOUS
 62
     7
  5
17D
 10
588.848997
 20
274.083935
 30
0.0
 11
591.798997
 21
274.083935
 31
0.0
  0
LINE
  8
0
  6
CONTINUOUS
 62
     9
  5
17E
 10
591.798997
 20
271.783935
 30
0.0
 11
586.548997
 21
271.783935
 31
0.0
  0
LINE
  8
0
  6
CONTINUOUS
 62
     7
  5
17F
 10
591.798997
 20
274.083935
 30
0.0
 11
594.748997
 21
274.083935
 31
0.0
  0
CIRCLE
  8
0
  6
CONTINUOUS
 62
     7
  5
180
 10
642.298997
 20
258.483935
 30
0.0
 40
4.25
210
0.0
220
0.0
230
1.0
  0
CIRCLE
  8
0
  6
CONTINUOUS
 62
     7
  5
181
 10
642.298997
 20
118.483935
 30
0.0
 40
4.25
210
0.0
220
0.0
230
1.0
  0
CIRCLE
  8
0
  6
CONTINUOUS
 62
     7
  5
182
 10
502.298997
 20
118.483935
 30
0.0
 40
4.25
210
0.0
220
0.0
230
1.0
  0
CIRCLE
  8
0
  6
CONTINUOUS
 62
     7
  5
183
 10
502.298997
 20
258.483935
 30
0.0
 40
4.25
210
0.0
220
0.0
230
1.0
  0
CIRCLE
  8
0
  6
CONTINUOUS
 62
     7
  5
184
 10
642.298997
 20
258.483935
 30
0.0
 40
4.188
210
0.0
220
0.0
230
1.0
  0
CIRCLE
  8
0
  6
CONTINUOUS
 62
     7
  5
185
 10
642.298997
 20
118.483935
 30
0.0
 40
4.188
210
0.0
220
0.0
230
1.0
  0
CIRCLE
  8
0
  6
CONTINUOUS
 62
     7
  5
186
 10
502.298997
 20
258.483935
 30
0.0
 40
4.188
210
0.0
220
0.0
230
1.0
  0
CIRCLE
  8
0
  6
CONTINUOUS
 62
     7
  5
187
 10
502.298997
 20
118.483935
 30
0.0
 40
4.188
210
0.0
220
0.0
230
1.0
  0
LINE
  8
0
  6
CONTINUOUS
 62
     9
  5
188
 10
558.048997
 20
271.783935
 30
0.0
 11
552.798997
 21
271.783935
 31
0.0
  0
LINE
  8
0
  6
CONTINUOUS
 62
     7
  5
189
 10
552.298997
 20
274.083935
 30
0.0
 11
552.798997
 21
274.083935
 31
0.0
  0
LINE
  8
0
  6
CONTINUOUS
 62
     9
  5
18A
 10
552.798997
 20
271.783935
 30
0.0
 11
552.298997
 21
271.783935
 31
0.0
  0
LINE
  8
0
  6
CONTINUOUS
 62
     7
  5
18B
 10
552.798997
 20
274.083935
 30
0.0
 11
555.748997
 21
274.083935
 31
0.0
  0
LINE
  8
0
  6
CONTINUOUS
 62
     7
  5
18C
 10
628.798997
 20
2.483935
 30
0.0
 11
628.798997
 21
108.483935
 31
0.0
  0
LINE
  8
0
  6
CONTINUOUS
 62
     7
  5
18D
 10
628.798997
 20
268.483935
 30
0.0
 11
628.798997
 21
274.483935
 31
0.0
  0
LINE
  8
0
  6
CONTINUOUS
 62
     7
  5
18E
 10
603.798997
 20
274.483935
 30
0.0
 11
603.798997
 21
268.483935
 31
0.0
  0
LINE
  8
0
  6
CONTINUOUS
 62
     7
  5
18F
 10
603.798997
 20
108.483935
 30
0.0
 11
603.798997
 21
2.483935
 31
0.0
  0
LINE
  8
0
  6
CONTINUOUS
 62
     7
  5
190
 10
540.798997
 20
2.483935
 30
0.0
 11
540.798997
 21
108.483935
 31
0.0
  0
LINE
  8
0
  6
CONTINUOUS
 62
     7
  5
191
 10
540.798997
 20
268.483935
 30
0.0
 11
540.798997
 21
274.483935
 31
0.0
  0
LINE
  8
0
  6
CONTINUOUS
 62
     7
  5
192
 10
515.798997
 20
274.483935
 30
0.0
 11
515.798997
 21
268.483935
 31
0.0
  0
LINE
  8
0
  6
CONTINUOUS
 62
     7
  5
193
 10
515.798997
 20
108.483935
 30
0.0
 11
515.798997
 21
2.483935
 31
0.0
  0
LINE
  8
0
  6
CONTINUOUS
 62
     7
  5
194
 10
561.298997
 20
22.483935
 30
0.0
 11
561.298997
 21
2.483935
 31
0.0
  0
LINE
  8
0
  6
CONTINUOUS
 62
     7
  5
195
 10
583.298997
 20
2.483935
 30
0.0
 11
583.298997
 21
22.483935
 31
0.0
  0
LINE
  8
0
  6
CONTINUOUS
 62
     7
  5
196
 10
580.298997
 20
22.483935
 30
0.0
 11
580.298997
 21
108.483935
 31
0.0
  0
LINE
  8
0
  6
CONTINUOUS
 62
     7
  5
197
 10
580.298997
 20
270.983935
 30
0.0
 11
580.298997
 21
274.483935
 31
0.0
  0
LINE
  8
0
  6
CONTINUOUS
 62
     7
  5
198
 10
564.298997
 20
274.483935
 30
0.0
 11
564.298997
 21
270.983935
 31
0.0
  0
LINE
  8
0
  6
CONTINUOUS
 62
     7
  5
199
 10
564.298997
 20
108.483935
 30
0.0
 11
564.298997
 21
22.483935
 31
0.0
  0
LINE
  8
0
  6
CONTINUOUS
 62
     7
  5
19A
 10
576.298997
 20
307.483935
 30
0.0
 11
576.298997
 21
322.483935
 31
0.0
  0
LINE
  8
0
  6
CONTINUOUS
 62
     7
  5
19B
 10
568.298997
 20
322.483935
 30
0.0
 11
568.298997
 21
307.483935
 31
0.0
  0
LINE
  8
0
  6
CONTINUOUS
 62
     7
  5
19C
 10
544.298997
 20
274.483935
 30
0.0
 11
544.298997
 21
268.483935
 31
0.0
  0
LINE
  8
0
  6
CONTINUOUS
 62
     7
  5
19D
 10
552.298997
 20
268.483935
 30
0.0
 11
552.298997
 21
274.483935
 31
0.0
  0
LINE
  8
0
  6
CONTINUOUS
 62
     7
  5
19E
 10
597.098997
 20
268.483935
 30
0.0
 11
597.098997
 21
270.983935
 31
0.0
  0
ARC
  8
0
  6
CONTINUOUS
 62
     7
  5
19F
 10
588.848997
 20
271.783935
 30
0.0
 40
2.3
 50
90.0
 51
180.0
210
0.0
220
0.0
230
1.0
  0
ARC
  8
0
  6
CONTINUOUS
 62
     7
  5
1A0
 10
594.748997
 20
271.783935
 30
0.0
 40
2.3
 50
0.0
 51
90.0
210
0.0
220
0.0
230
1.0
  0
LINE
  8
0
  6
CONTINUOUS
 62
     7
  5
1A1
 10
586.548997
 20
271.783935
 30
0.0
 11
586.548997
 21
270.983935
 31
0.0
  0
LINE
  8
0
  6
CONTINUOUS
 62
     7
  5
1A2
 10
597.048997
 20
270.983935
 30
0.0
 11
597.048997
 21
271.783935
 31
0.0
  0
ARC
  8
0
  6
CONTINUOUS
 62
     7
  5
1A3
 10
555.748997
 20
271.783935
 30
0.0
 40
2.3
 50
0.0
 51
90.0
210
0.0
220
0.0
230
1.0
  0
LINE
  8
0
  6
CONTINUOUS
 62
     7
  5
1A4
 10
558.048997
 20
270.983935
 30
0.0
 11
558.048997
 21
271.783935
 31
0.0
  0
ENDBLK
  8
0
  5
1A5
  0
ENDSEC
  0
SECTION
  2
ENTITIES
  0
INSERT
  8
0
  5
8F
  2
AID3
 10
0.0
 20
0.0
 30
0.0
  0
INSERT
  8
0
  5
C8
  2
AID213
 10
0.0
 20
0.0
 30
0.0
  0
INSERT
  8
0
  5
104
  2
AID323
 10
0.0
 20
0.0
 30
0.0
  0
INSERT
  8
0
  5
131
  2
AID439
 10
0.0
 20
0.0
 30
0.0
  0
INSERT
  8
0
  5
14E
  2
AID525
 10
0.0
 20
0.0
 30
0.0
  0
INSERT
  8
0
  5
1A6
  2
AID579
 10
0.0
 20
0.0
 30
0.0
  0
LINE
  8
0
  6
CENTER
 62
     1
  5
1A7
 10
-13.176659
 20
277.483935
 30
0.0
 11
-13.176659
 21
-0.516065
 31
0.0
  0
LINE
  8
0
  6
CENTER
 62
     1
  5
1A8
 10
-13.176659
 20
325.483935
 30
0.0
 11
-13.176659
 21
304.483935
 31
0.0
  0
LINE
  8
0
  6
CENTER
 62
     1
  5
1A9
 10
34.823341
 20
-10.016065
 30
0.0
 11
-31.176659
 21
-10.016065
 31
0.0
  0
LINE
  8
0
  6
CENTER
 62
     1
  5
1AA
 10
34.823341
 20
286.983935
 30
0.0
 11
-31.176659
 21
286.983935
 31
0.0
  0
LINE
  8
0
  6
CENTER
 62
     1
  5
1AB
 10
215.9122
 20
277.483935
 30
0.0
 11
215.9122
 21
-0.516065
 31
0.0
  0
LINE
  8
0
  6
CENTER
 62
     1
  5
1AC
 10
127.9122
 20
277.483935
 30
0.0
 11
127.9122
 21
-0.516065
 31
0.0
  0
LINE
  8
0
  6
CENTER
 62
     1
  5
1AD
 10
171.9122
 20
325.483935
 30
0.0
 11
171.9122
 21
304.483935
 31
0.0
  0
LINE
  8
0
  6
CENTER
 62
     1
  5
1AE
 10
93.9122
 20
118.483935
 30
0.0
 11
109.9122
 21
118.483935
 31
0.0
  0
LINE
  8
0
  6
CENTER
 62
     1
  5
1AF
 10
101.9122
 20
110.483935
 30
0.0
 11
101.9122
 21
126.483935
 31
0.0
  0
LINE
  8
0
  6
CENTER
 62
     1
  5
1B0
 10
93.9122
 20
258.483935
 30
0.0
 11
109.9122
 21
258.483935
 31
0.0
  0
LINE
  8
0
  6
CENTER
 62
     1
  5
1B1
 10
101.9122
 20
250.483935
 30
0.0
 11
101.9122
 21
266.483935
 31
0.0
  0
LINE
  8
0
  6
CENTER
 62
     1
  5
1B2
 10
92.9122
 20
-10.016065
 30
0.0
 11
118.9122
 21
-10.016065
 31
0.0
  0
LINE
  8
0
  6
CENTER
 62
     1
  5
1B3
 10
105.9122
 20
-23.016065
 30
0.0
 11
105.9122
 21
2.983935
 31
0.0
  0
LINE
  8
0
  6
CENTER
 62
     1
  5
1B4
 10
92.9122
 20
286.983935
 30
0.0
 11
118.9122
 21
286.983935
 31
0.0
  0
LINE
  8
0
  6
CENTER
 62
     1
  5
1B5
 10
105.9122
 20
273.983935
 30
0.0
 11
105.9122
 21
299.983935
 31
0.0
  0
LINE
  8
0
  6
CENTER
 62
     1
  5
1B6
 10
224.9122
 20
-10.016065
 30
0.0
 11
250.9122
 21
-10.016065
 31
0.0
  0
LINE
  8
0
  6
CENTER
 62
     1
  5
1B7
 10
237.9122
 20
-23.016065
 30
0.0
 11
237.9122
 21
2.983935
 31
0.0
  0
LINE
  8
0
  6
CENTER
 62
     1
  5
1B8
 10
224.9122
 20
286.983935
 30
0.0
 11
250.9122
 21
286.983935
 31
0.0
  0
LINE
  8
0
  6
CENTER
 62
     1
  5
1B9
 10
237.9122
 20
273.983935
 30
0.0
 11
237.9122
 21
299.983935
 31
0.0
  0
LINE
  8
0
  6
CENTER
 62
     1
  5
1BA
 10
233.9122
 20
118.483935
 30
0.0
 11
249.9122
 21
118.483935
 31
0.0
  0
LINE
  8
0
  6
CENTER
 62
     1
  5
1BB
 10
241.9122
 20
110.483935
 30
0.0
 11
241.9122
 21
126.483935
 31
0.0
  0
LINE
  8
0
  6
CENTER
 62
     1
  5
1BC
 10
233.9122
 20
258.483935
 30
0.0
 11
249.9122
 21
258.483935
 31
0.0
  0
LINE
  8
0
  6
CENTER
 62
     1
  5
1BD
 10
241.9122
 20
250.483935
 30
0.0
 11
241.9122
 21
266.483935
 31
0.0
  0
LINE
  8
0
  6
CENTER
 62
     1
  5
1BE
 10
171.9122
 20
-0.516065
 30
0.0
 11
171.9122
 21
277.483935
 31
0.0
  0
LINE
  8
0
  6
CENTER
 62
     1
  5
1BF
 10
374.907269
 20
277.483935
 30
0.0
 11
374.907269
 21
-0.516065
 31
0.0
  0
LINE
  8
0
  6
CENTER
 62
     1
  5
1C0
 10
374.907269
 20
325.483935
 30
0.0
 11
374.907269
 21
304.483935
 31
0.0
  0
LINE
  8
0
  6
CENTER
 62
     1
  5
1C1
 10
326.907269
 20
286.983935
 30
0.0
 11
392.907269
 21
286.983935
 31
0.0
  0
LINE
  8
0
  6
CENTER
 62
     1
  5
1C2
 10
404.907269
 20
-10.016065
 30
0.0
 11
327.782269
 21
-10.016065
 31
0.0
  0
LINE
  8
0
  6
CENTER
 62
     1
  5
1C3
 10
528.298997
 20
277.483935
 30
0.0
 11
528.298997
 21
-0.516065
 31
0.0
  0
LINE
  8
0
  6
CENTER
 62
     1
  5
1C4
 10
616.298997
 20
277.483935
 30
0.0
 11
616.298997
 21
-0.516065
 31
0.0
  0
LINE
  8
0
  6
CENTER
 62
     1
  5
1C5
 10
491.798997
 20
118.483935
 30
0.0
 11
512.798997
 21
118.483935
 31
0.0
  0
LINE
  8
0
  6
CENTER
 62
     1
  5
1C6
 10
502.298997
 20
107.983935
 30
0.0
 11
502.298997
 21
128.983935
 31
0.0
  0
LINE
  8
0
  6
CENTER
 62
     1
  5
1C7
 10
491.798997
 20
258.483935
 30
0.0
 11
512.798997
 21
258.483935
 31
0.0
  0
LINE
  8
0
  6
CENTER
 62
     1
  5
1C8
 10
502.298997
 20
247.983935
 30
0.0
 11
502.298997
 21
268.983935
 31
0.0
  0
LINE
  8
0
  6
CENTER
 62
     1
  5
1C9
 10
496.798997
 20
-10.016065
 30
0.0
 11
515.798997
 21
-10.016065
 31
0.0
  0
LINE
  8
0
  6
CENTER
 62
     1
  5
1CA
 10
506.298997
 20
-19.516065
 30
0.0
 11
506.298997
 21
-0.516065
 31
0.0
  0
LINE
  8
0
  6
CENTER
 62
     1
  5
1CB
 10
496.798997
 20
286.983935
 30
0.0
 11
515.798997
 21
286.983935
 31
0.0
  0
LINE
  8
0
  6
CENTER
 62
     1
  5
1CC
 10
506.298997
 20
277.483935
 30
0.0
 11
506.298997
 21
296.483935
 31
0.0
  0
LINE
  8
0
  6
CENTER
 62
     1
  5
1CD
 10
628.798997
 20
-10.016065
 30
0.0
 11
647.798997
 21
-10.016065
 31
0.0
  0
LINE
  8
0
  6
CENTER
 62
     1
  5
1CE
 10
638.298997
 20
-19.516065
 30
0.0
 11
638.298997
 21
-0.516065
 31
0.0
  0
LINE
  8
0
  6
CENTER
 62
     1
  5
1CF
 10
628.798997
 20
286.983935
 30
0.0
 11
647.798997
 21
286.983935
 31
0.0
  0
LINE
  8
0
  6
CENTER
 62
     1
  5
1D0
 10
638.298997
 20
277.483935
 30
0.0
 11
638.298997
 21
296.483935
 31
0.0
  0
LINE
  8
0
  6
CENTER
 62
     1
  5
1D1
 10
631.798997
 20
118.483935
 30
0.0
 11
652.798997
 21
118.483935
 31
0.0
  0
LINE
  8
0
  6
CENTER
 62
     1
  5
1D2
 10
642.298997
 20
107.983935
 30
0.0
 11
642.298997
 21
128.983935
 31
0.0
  0
LINE
  8
0
  6
CENTER
 62
     1
  5
1D3
 10
631.798997
 20
258.483935
 30
0.0
 11
652.798997
 21
258.483935
 31
0.0
  0
LINE
  8
0
  6
CENTER
 62
     1
  5
1D4
 10
642.298997
 20
247.983935
 30
0.0
 11
642.298997
 21
268.983935
 31
0.0
  0
LINE
  8
0
  6
CENTER
 62
     1
  5
1D5
 10
572.298997
 20
-0.516065
 30
0.0
 11
572.298997
 21
277.483935
 31
0.0
  0
LINE
  8
0
  6
CENTER
 62
     1
  5
1D6
 10
135.8122
 20
-145.474429
 30
0.0
 11
148.0122
 21
-145.474429
 31
0.0
  0
LINE
  8
0
  6
CENTER
 62
     1
  5
1D7
 10
141.9122
 20
-151.574429
 30
0.0
 11
141.9122
 21
-139.374429
 31
0.0
  0
LINE
  8
0
  6
CENTER
 62
     1
  5
1D8
 10
135.8122
 20
-111.474429
 30
0.0
 11
148.0122
 21
-111.474429
 31
0.0
  0
LINE
  8
0
  6
CENTER
 62
     1
  5
1D9
 10
141.9122
 20
-117.574429
 30
0.0
 11
141.9122
 21
-105.374429
 31
0.0
  0
LINE
  8
0
  6
CENTER
 62
     1
  5
1DA
 10
138.9022
 20
-121.474429
 30
0.0
 11
148.9222
 21
-121.474429
 31
0.0
  0
LINE
  8
0
  6
CENTER
 62
     1
  5
1DB
 10
143.9122
 20
-126.484429
 30
0.0
 11
143.9122
 21
-116.464429
 31
0.0
  0
LINE
  8
0
  6
CENTER
 62
     1
  5
1DC
 10
164.9122
 20
-128.474429
 30
0.0
 11
178.9122
 21
-128.474429
 31
0.0
  0
LINE
  8
0
  6
CENTER
 62
     1
  5
1DD
 10
171.9122
 20
-135.474429
 30
0.0
 11
171.9122
 21
-121.474429
 31
0.0
  0
LINE
  8
0
  6
CENTER
 62
     1
  5
1DE
 10
194.9022
 20
-135.474429
 30
0.0
 11
204.9222
 21
-135.474429
 31
0.0
  0
LINE
  8
0
  6
CENTER
 62
     1
  5
1DF
 10
199.9122
 20
-140.484429
 30
0.0
 11
199.9122
 21
-130.464429
 31
0.0
  0
LINE
  8
0
  6
CENTER
 62
     1
  5
1E0
 10
195.8122
 20
-145.474429
 30
0.0
 11
208.0122
 21
-145.474429
 31
0.0
  0
LINE
  8
0
  6
CENTER
 62
     1
  5
1E1
 10
201.9122
 20
-151.574429
 30
0.0
 11
201.9122
 21
-139.374429
 31
0.0
  0
LINE
  8
0
  6
CENTER
 62
     1
  5
1E2
 10
195.8122
 20
-111.474429
 30
0.0
 11
208.0122
 21
-111.474429
 31
0.0
  0
LINE
  8
0
  6
CENTER
 62
     1
  5
1E3
 10
201.9122
 20
-117.574429
 30
0.0
 11
201.9122
 21
-105.374429
 31
0.0
  0
LINE
  8
0
  6
CENTER
 62
     1
  5
1E4
 10
105.9122
 20
-80.474429
 30
0.0
 11
105.9122
 21
-146.474429
 31
0.0
  0
LINE
  8
0
  6
CENTER
 62
     1
  5
1E5
 10
237.9122
 20
-80.474429
 30
0.0
 11
237.9122
 21
-146.474429
 31
0.0
  0
LINE
  8
0
  6
CENTER
 62
     1
  5
1E6
 10
148.8122
 20
414.98397
 30
0.0
 11
161.0122
 21
414.98397
 31
0.0
  0
LINE
  8
0
  6
CENTER
 62
     1
  5
1E7
 10
154.9122
 20
408.88397
 30
0.0
 11
154.9122
 21
421.08397
 31
0.0
  0
LINE
  8
0
  6
CENTER
 62
     1
  5
1E8
 10
148.8122
 20
448.98397
 30
0.0
 11
161.0122
 21
448.98397
 31
0.0
  0
LINE
  8
0
  6
CENTER
 62
     1
  5
1E9
 10
154.9122
 20
442.88397
 30
0.0
 11
154.9122
 21
455.08397
 31
0.0
  0
LINE
  8
0
  6
CENTER
 62
     1
  5
1EA
 10
182.8122
 20
414.98397
 30
0.0
 11
195.0122
 21
414.98397
 31
0.0
  0
LINE
  8
0
  6
CENTER
 62
     1
  5
1EB
 10
188.9122
 20
408.88397
 30
0.0
 11
188.9122
 21
421.08397
 31
0.0
  0
LINE
  8
0
  6
CENTER
 62
     1
  5
1EC
 10
182.8122
 20
448.98397
 30
0.0
 11
195.0122
 21
448.98397
 31
0.0
  0
LINE
  8
0
  6
CENTER
 62
     1
  5
1ED
 10
188.9122
 20
442.88397
 30
0.0
 11
188.9122
 21
455.08397
 31
0.0
  0
LINE
  8
0
  6
CENTER
 62
     1
  5
1EE
 10
237.9122
 20
383.98397
 30
0.0
 11
237.9122
 21
449.98397
 31
0.0
  0
LINE
  8
0
  6
CENTER
 62
     1
  5
1EF
 10
105.9122
 20
383.98397
 30
0.0
 11
105.9122
 21
449.98397
 31
0.0
  0
ENDSEC
  0
EOF
